  0
SECTION
  2
HEADER
  9
$ACADVER
  1
AC1015
  9
$ACADMAINTVER
 70
    13
  9
$DWGCODEPAGE
  3
ANSI_1252
  9
$INSBASE
 10
0.0
 20
0.0
 30
0.0
  9
$EXTMIN
 10
0.0667224999999945
 20
0.0634999999999944
 30
0.0
  9
$EXTMAX
 10
163.9332774999999
 20
147.9365
 30
0.0
  9
$LIMMIN
 10
0.0
 20
0.0
  9
$LIMMAX
 10
12.0
 20
9.0
  9
$ORTHOMODE
 70
     0
  9
$REGENMODE
 70
     1
  9
$FILLMODE
 70
     1
  9
$QTEXTMODE
 70
     0
  9
$MIRRTEXT
 70
     1
  9
$LTSCALE
 40
1.0
  9
$ATTMODE
 70
     1
  9
$TEXTSIZE
 40
0.2
  9
$TRACEWID
 40
0.05
  9
$TEXTSTYLE
  7
Standard
  9
$CLAYER
  8
0
  9
$CELTYPE
  6
Continuous
  9
$CECOLOR
 62
   256
  9
$CELTSCALE
 40
1.0
  9
$DISPSILH
 70
     0
  9
$DIMSCALE
 40
1.0
  9
$DIMASZ
 40
0.18
  9
$DIMEXO
 40
0.0625
  9
$DIMDLI
 40
0.38
  9
$DIMRND
 40
0.0
  9
$DIMDLE
 40
0.0
  9
$DIMEXE
 40
0.18
  9
$DIMTP
 40
0.0
  9
$DIMTM
 40
0.0
  9
$DIMTXT
 40
0.18
  9
$DIMCEN
 40
0.09
  9
$DIMTSZ
 40
0.0
  9
$DIMTOL
 70
     0
  9
$DIMLIM
 70
     0
  9
$DIMTIH
 70
     1
  9
$DIMTOH
 70
     1
  9
$DIMSE1
 70
     0
  9
$DIMSE2
 70
     0
  9
$DIMTAD
 70
     0
  9
$DIMZIN
 70
     0
  9
$DIMBLK
  1

  9
$DIMASO
 70
     1
  9
$DIMSHO
 70
     1
  9
$DIMPOST
  1

  9
$DIMAPOST
  1

  9
$DIMALT
 70
     0
  9
$DIMALTD
 70
     2
  9
$DIMALTF
 40
25.4
  9
$DIMLFAC
 40
1.0
  9
$DIMTOFL
 70
     0
  9
$DIMTVP
 40
0.0
  9
$DIMTIX
 70
     0
  9
$DIMSOXD
 70
     0
  9
$DIMSAH
 70
     0
  9
$DIMBLK1
  1

  9
$DIMBLK2
  1

  9
$DIMSTYLE
  2
Standard
  9
$DIMCLRD
 70
     0
  9
$DIMCLRE
 70
     0
  9
$DIMCLRT
 70
     0
  9
$DIMTFAC
 40
1.0
  9
$DIMGAP
 40
0.09
  9
$DIMJUST
 70
     0
  9
$DIMSD1
 70
     0
  9
$DIMSD2
 70
     0
  9
$DIMTOLJ
 70
     1
  9
$DIMTZIN
 70
     0
  9
$DIMALTZ
 70
     0
  9
$DIMALTTZ
 70
     0
  9
$DIMUPT
 70
     0
  9
$DIMDEC
 70
     4
  9
$DIMTDEC
 70
     4
  9
$DIMALTU
 70
     2
  9
$DIMALTTD
 70
     2
  9
$DIMTXSTY
  7
Standard
  9
$DIMAUNIT
 70
     0
  9
$DIMADEC
 70
     0
  9
$DIMALTRND
 40
0.0
  9
$DIMAZIN
 70
     0
  9
$DIMDSEP
 70
    46
  9
$DIMATFIT
 70
     3
  9
$DIMFRAC
 70
     0
  9
$DIMLDRBLK
  1

  9
$DIMLUNIT
 70
     2
  9
$DIMLWD
 70
    -2
  9
$DIMLWE
 70
    -2
  9
$DIMTMOVE
 70
     0
  9
$LUNITS
 70
     2
  9
$LUPREC
 70
     4
  9
$SKETCHINC
 40
0.1
  9
$FILLETRAD
 40
0.0
  9
$AUNITS
 70
     0
  9
$AUPREC
 70
     0
  9
$MENU
  1
.
  9
$ELEVATION
 40
0.0
  9
$PELEVATION
 40
0.0
  9
$THICKNESS
 40
0.0
  9
$LIMCHECK
 70
     0
  9
$CHAMFERA
 40
0.0
  9
$CHAMFERB
 40
0.0
  9
$CHAMFERC
 40
0.0
  9
$CHAMFERD
 40
0.0
  9
$SKPOLY
 70
     0
  9
$TDCREATE
 40
2454831.544404467
  9
$TDUCREATE
 40
2454831.502737801
  9
$TDUPDATE
 40
2454831.549629085
  9
$TDUUPDATE
 40
2454831.507962419
  9
$TDINDWG
 40
0.0052247917
  9
$TDUSRTIMER
 40
0.0052247917
  9
$USRTIMER
 70
     1
  9
$ANGBASE
 50
0.0
  9
$ANGDIR
 70
     0
  9
$PDMODE
 70
     0
  9
$PDSIZE
 40
0.0
  9
$PLINEWID
 40
0.0
  9
$SPLFRAME
 70
     0
  9
$SPLINETYPE
 70
     6
  9
$SPLINESEGS
 70
     8
  9
$HANDSEED
  5
1A9
  9
$SURFTAB1
 70
     6
  9
$SURFTAB2
 70
     6
  9
$SURFTYPE
 70
     6
  9
$SURFU
 70
     6
  9
$SURFV
 70
     6
  9
$UCSBASE
  2

  9
$UCSNAME
  2

  9
$UCSORG
 10
0.0
 20
0.0
 30
0.0
  9
$UCSXDIR
 10
1.0
 20
0.0
 30
0.0
  9
$UCSYDIR
 10
0.0
 20
1.0
 30
0.0
  9
$UCSORTHOREF
  2

  9
$UCSORTHOVIEW
 70
     1
  9
$UCSORGTOP
 10
0.0
 20
0.0
 30
0.0
  9
$UCSORGBOTTOM
 10
0.0
 20
0.0
 30
0.0
  9
$UCSORGLEFT
 10
0.0
 20
0.0
 30
0.0
  9
$UCSORGRIGHT
 10
0.0
 20
0.0
 30
0.0
  9
$UCSORGFRONT
 10
0.0
 20
0.0
 30
0.0
  9
$UCSORGBACK
 10
0.0
 20
0.0
 30
0.0
  9
$PUCSBASE
  2

  9
$PUCSNAME
  2

  9
$PUCSORG
 10
0.0
 20
0.0
 30
0.0
  9
$PUCSXDIR
 10
1.0
 20
0.0
 30
0.0
  9
$PUCSYDIR
 10
0.0
 20
1.0
 30
0.0
  9
$PUCSORTHOREF
  2

  9
$PUCSORTHOVIEW
 70
     0
  9
$PUCSORGTOP
 10
0.0
 20
0.0
 30
0.0
  9
$PUCSORGBOTTOM
 10
0.0
 20
0.0
 30
0.0
  9
$PUCSORGLEFT
 10
0.0
 20
0.0
 30
0.0
  9
$PUCSORGRIGHT
 10
0.0
 20
0.0
 30
0.0
  9
$PUCSORGFRONT
 10
0.0
 20
0.0
 30
0.0
  9
$PUCSORGBACK
 10
0.0
 20
0.0
 30
0.0
  9
$USERI1
 70
     0
  9
$USERI2
 70
     0
  9
$USERI3
 70
     0
  9
$USERI4
 70
     0
  9
$USERI5
 70
     0
  9
$USERR1
 40
0.0
  9
$USERR2
 40
0.0
  9
$USERR3
 40
0.0
  9
$USERR4
 40
0.0
  9
$USERR5
 40
0.0
  9
$WORLDVIEW
 70
     1
  9
$SHADEDGE
 70
     3
  9
$SHADEDIF
 70
    70
  9
$TILEMODE
 70
     1
  9
$MAXACTVP
 70
    64
  9
$PINSBASE
 10
0.0
 20
0.0
 30
0.0
  9
$PLIMCHECK
 70
     0
  9
$PEXTMIN
 10
1.000000000000000E+20
 20
1.000000000000000E+20
 30
1.000000000000000E+20
  9
$PEXTMAX
 10
-1.000000000000000E+20
 20
-1.000000000000000E+20
 30
-1.000000000000000E+20
  9
$PLIMMIN
 10
0.0
 20
0.0
  9
$PLIMMAX
 10
12.0
 20
9.0
  9
$UNITMODE
 70
     0
  9
$VISRETAIN
 70
     1
  9
$PLINEGEN
 70
     0
  9
$PSLTSCALE
 70
     1
  9
$TREEDEPTH
 70
  3020
  9
$CMLSTYLE
  2
Standard
  9
$CMLJUST
 70
     0
  9
$CMLSCALE
 40
1.0
  9
$PROXYGRAPHICS
 70
     1
  9
$MEASUREMENT
 70
     0
  9
$CELWEIGHT
370
    -1
  9
$ENDCAPS
280
     0
  9
$JOINSTYLE
280
     0
  9
$LWDISPLAY
290
     0
  9
$INSUNITS
 70
     0
  9
$HYPERLINKBASE
  1

  9
$STYLESHEET
  1

  9
$XEDIT
290
     1
  9
$CEPSNTYPE
380
     0
  9
$PSTYLEMODE
290
     1
  9
$FINGERPRINTGUID
  2
{25D1F74F-9762-4618-B7CC-7A8710C491F7}
  9
$VERSIONGUID
  2
{4261228B-80E2-41C1-8116-F37C9F15AC31}
  9
$EXTNAMES
290
     1
  9
$PSVPSCALE
 40
0.0
  9
$OLESTARTUP
290
     0
  0
ENDSEC
  0
SECTION
  2
CLASSES
  0
CLASS
  1
ACDBDICTIONARYWDFLT
  2
AcDbDictionaryWithDefault
  3
AutoCAD 2000
 90
        0
280
     0
281
     0
  0
CLASS
  1
ACDBPLACEHOLDER
  2
AcDbPlaceHolder
  3
AutoCAD 2000
 90
        0
280
     0
281
     0
  0
CLASS
  1
LAYOUT
  2
AcDbLayout
  3
AutoCAD 2000
 90
        0
280
     0
281
     0
  0
CLASS
  1
DICTIONARYVAR
  2
AcDbDictionaryVar
  3
AutoCAD 2000
 90
        0
280
     0
281
     0
  0
ENDSEC
  0
SECTION
  2
TABLES
  0
TABLE
  2
VPORT
  5
8
330
0
100
AcDbSymbolTable
 70
     2
  0
VPORT
  5
1A8
330
8
100
AcDbSymbolTableRecord
100
AcDbViewportTableRecord
  2
*Active
 70
     0
 10
0.0
 20
0.0
 11
1.0
 21
1.0
 12
82.0
 22
73.99999999999998
 13
0.0
 23
0.0
 14
1.0
 24
1.0
 15
0.0
 25
0.0
 16
0.0
 26
0.0
 36
1.0
 17
0.0
 27
0.0
 37
0.0
 40
149.0075754475703
 41
2.078104993597951
 42
50.0
 43
0.0
 44
0.0
 50
0.0
 51
0.0
 71
     0
 72
   100
 73
     1
 74
     3
 75
     0
 76
     0
 77
     0
 78
     0
281
     0
 65
     1
110
0.0
120
0.0
130
0.0
111
1.0
121
0.0
131
0.0
112
0.0
122
1.0
132
0.0
 79
     1
146
0.0
  0
ENDTAB
  0
TABLE
  2
LTYPE
  5
5
330
0
100
AcDbSymbolTable
 70
     1
  0
LTYPE
  5
13
330
5
100
AcDbSymbolTableRecord
100
AcDbLinetypeTableRecord
  2
ByBlock
 70
     0
  3

 72
    65
 73
     0
 40
0.0
  0
LTYPE
  5
14
330
5
100
AcDbSymbolTableRecord
100
AcDbLinetypeTableRecord
  2
ByLayer
 70
     0
  3

 72
    65
 73
     0
 40
0.0
  0
LTYPE
  5
15
330
5
100
AcDbSymbolTableRecord
100
AcDbLinetypeTableRecord
  2
Continuous
 70
     0
  3
Solid line
 72
    65
 73
     0
 40
0.0
  0
ENDTAB
  0
TABLE
  2
LAYER
  5
2
330
0
100
AcDbSymbolTable
 70
     1
  0
LAYER
  5
10
330
2
100
AcDbSymbolTableRecord
100
AcDbLayerTableRecord
  2
0
 70
     0
 62
     7
  6
Continuous
370
    -3
390
F
  0
ENDTAB
  0
TABLE
  2
STYLE
  5
3
330
0
100
AcDbSymbolTable
 70
     1
  0
STYLE
  5
11
330
3
100
AcDbSymbolTableRecord
100
AcDbTextStyleTableRecord
  2
Standard
 70
     0
 40
0.0
 41
1.0
 50
0.0
 71
     0
 42
0.2
  3
txt
  4

  0
ENDTAB
  0
TABLE
  2
VIEW
  5
6
330
0
100
AcDbSymbolTable
 70
     0
  0
ENDTAB
  0
TABLE
  2
UCS
  5
7
330
0
100
AcDbSymbolTable
 70
     0
  0
ENDTAB
  0
TABLE
  2
APPID
  5
9
330
0
100
AcDbSymbolTable
 70
     1
  0
APPID
  5
12
330
9
100
AcDbSymbolTableRecord
100
AcDbRegAppTableRecord
  2
ACAD
 70
     0
  0
ENDTAB
  0
TABLE
  2
DIMSTYLE
  5
A
330
0
100
AcDbSymbolTable
 70
     1
100
AcDbDimStyleTable
 71
     0
  0
DIMSTYLE
105
19A
330
A
100
AcDbSymbolTableRecord
100
AcDbDimStyleTableRecord
  2
Standard
 70
     0
340
11
  0
ENDTAB
  0
TABLE
  2
BLOCK_RECORD
  5
1
330
0
100
AcDbSymbolTable
 70
     0
  0
BLOCK_RECORD
  5
1E
330
1
100
AcDbSymbolTableRecord
100
AcDbBlockTableRecord
  2
*Model_Space
340
21
  0
BLOCK_RECORD
  5
1A
330
1
100
AcDbSymbolTableRecord
100
AcDbBlockTableRecord
  2
*Paper_Space
340
1D
  0
ENDTAB
  0
ENDSEC
  0
SECTION
  2
BLOCKS
  0
BLOCK
  5
1F
330
1E
100
AcDbEntity
  8
0
100
AcDbBlockBegin
  2
*Model_Space
 70
     0
 10
0.0
 20
0.0
 30
0.0
  3
*Model_Space
  1

  0
ENDBLK
  5
20
330
1E
100
AcDbEntity
  8
0
100
AcDbBlockEnd
  0
BLOCK
  5
1B
330
1A
100
AcDbEntity
 67
     1
  8
0
100
AcDbBlockBegin
  2
*Paper_Space
 70
     0
 10
0.0
 20
0.0
 30
0.0
  3
*Paper_Space
  1

  0
ENDBLK
  5
1C
330
1A
100
AcDbEntity
 67
     1
  8
0
100
AcDbBlockEnd
  0
ENDSEC
  0
SECTION
  2
ENTITIES
  0
LINE
  5
22
330
1E
100
AcDbEntity
  8
0
100
AcDbLine
 10
0.0667224999999945
 20
106.0375
 30
0.0
 11
3.649920027355029
 21
114.0851855008139
 31
0.0
  0
LINE
  5
23
330
1E
100
AcDbEntity
  8
0
100
AcDbLine
 10
22.8622775
 20
95.2311
 30
0.0
 11
23.2898775
 21
95.0407
 31
0.0
  0
LINE
  5
24
330
1E
100
AcDbEntity
  8
0
100
AcDbLine
 10
23.2898775
 20
95.0407
 30
0.0
 11
23.8188775
 21
95.46190000000001
 31
0.0
  0
LINE
  5
25
330
1E
100
AcDbEntity
  8
0
100
AcDbLine
 10
21.7221775
 20
95.73869999999999
 30
0.0
 11
22.8622775
 21
95.2311
 31
0.0
  0
LINE
  5
26
330
1E
100
AcDbEntity
  8
0
100
AcDbLine
 10
19.86947749999999
 20
96.56350000000001
 30
0.0
 11
21.7221775
 21
95.73869999999999
 31
0.0
  0
LINE
  5
27
330
1E
100
AcDbEntity
  8
0
100
AcDbLine
 10
17.4467775
 20
97.64220000000001
 30
0.0
 11
19.86947749999999
 21
96.56350000000001
 31
0.0
  0
LINE
  5
28
330
1E
100
AcDbEntity
  8
0
100
AcDbLine
 10
14.69157749999999
 20
98.86890000000001
 30
0.0
 11
17.4467775
 21
97.64220000000001
 31
0.0
  0
LINE
  5
29
330
1E
100
AcDbEntity
  8
0
100
AcDbLine
 10
11.6987775
 20
100.2014999999999
 30
0.0
 11
14.69157749999999
 21
98.86890000000001
 31
0.0
  0
LINE
  5
2A
330
1E
100
AcDbEntity
  8
0
100
AcDbLine
 10
150.0972774999999
 20
0.0634999999999945
 30
0.0
 11
150.4972774999999
 21
0.0634999999999944
 31
0.0
  0
LINE
  5
2C
330
1E
100
AcDbEntity
  8
0
100
AcDbLine
 10
148.9972775
 20
0.0634999999999945
 30
0.0
 11
150.0972774999999
 21
0.0634999999999945
 31
0.0
  0
LINE
  5
2D
330
1E
100
AcDbEntity
  8
0
100
AcDbLine
 10
150.4972774999999
 20
0.0634999999999944
 30
0.0
 11
150.4972774999999
 21
2.063499999999989
 31
0.0
  0
LINE
  5
2E
330
1E
100
AcDbEntity
  8
0
100
AcDbLine
 10
99.99727749999999
 20
0.0634999999999975
 30
0.0
 11
148.9972775
 21
0.0634999999999945
 31
0.0
  0
LINE
  5
2F
330
1E
100
AcDbEntity
  8
0
100
AcDbLine
 10
98.49727749999999
 20
2.063499999999999
 30
0.0
 11
100.5972775
 21
7.0635
 31
0.0
  0
LINE
  5
30
330
1E
100
AcDbEntity
  8
0
100
AcDbLine
 10
98.49727749999999
 20
2.063499999999999
 30
0.0
 11
98.49727749999999
 21
0.0634999999999975
 31
0.0
  0
LINE
  5
31
330
1E
100
AcDbEntity
  8
0
100
AcDbLine
 10
98.49727749999999
 20
2.063499999999999
 30
0.0
 11
101.4972774999999
 21
7.0635
 31
0.0
  0
LINE
  5
39
330
1E
100
AcDbEntity
  8
0
100
AcDbLine
 10
101.4972774999999
 20
7.0635
 30
0.0
 11
104.4972774999999
 21
12.0635
 31
0.0
  0
LINE
  5
3A
330
1E
100
AcDbEntity
  8
0
100
AcDbLine
 10
100.5972775
 20
7.0635
 30
0.0
 11
102.4972774999999
 21
12.0635
 31
0.0
  0
LINE
  5
3F
330
1E
100
AcDbEntity
  8
0
100
AcDbLine
 10
106.6972774999999
 20
17.0635
 30
0.0
 11
108.7972774999999
 21
22.0635
 31
0.0
  0
LINE
  5
40
330
1E
100
AcDbEntity
  8
0
100
AcDbLine
 10
104.4972774999999
 20
12.0635
 30
0.0
 11
106.6972774999999
 21
17.0635
 31
0.0
  0
LINE
  5
45
330
1E
100
AcDbEntity
  8
0
100
AcDbLine
 10
108.7972774999999
 20
22.0635
 30
0.0
 11
110.3972774999999
 21
27.0635
 31
0.0
  0
LINE
  5
48
330
1E
100
AcDbEntity
  8
0
100
AcDbLine
 10
110.3972774999999
 20
27.0635
 30
0.0
 11
111.7972774999999
 21
32.0635
 31
0.0
  0
LINE
  5
49
330
1E
100
AcDbEntity
  8
0
100
AcDbLine
 10
138.5972774999999
 20
27.0635
 30
0.0
 11
140.1972774999999
 21
22.0635
 31
0.0
  0
LINE
  5
4A
330
1E
100
AcDbEntity
  8
0
100
AcDbLine
 10
140.1972774999999
 20
22.0635
 30
0.0
 11
142.2972774999999
 21
17.0635
 31
0.0
  0
LINE
  5
4C
330
1E
100
AcDbEntity
  8
0
100
AcDbLine
 10
106.4972774999999
 20
32.0635
 30
0.0
 11
106.4972774999999
 21
94.06350000000001
 31
0.0
  0
LINE
  5
4D
330
1E
100
AcDbEntity
  8
0
100
AcDbLine
 10
106.4972774999999
 20
94.06350000000001
 30
0.0
 11
106.4972774999999
 21
32.0635
 31
0.0
  0
LINE
  5
51
330
1E
100
AcDbEntity
  8
0
100
AcDbLine
 10
111.7972774999999
 20
32.0635
 30
0.0
 11
112.7972774999999
 21
37.0635
 31
0.0
  0
LINE
  5
56
330
1E
100
AcDbEntity
  8
0
100
AcDbLine
 10
113.6972774999999
 20
42.06349999999999
 30
0.0
 11
113.9972774999999
 21
47.06349999999999
 31
0.0
  0
LINE
  5
57
330
1E
100
AcDbEntity
  8
0
100
AcDbLine
 10
112.7972774999999
 20
37.0635
 30
0.0
 11
113.6972774999999
 21
42.06349999999999
 31
0.0
  0
LINE
  5
5D
330
1E
100
AcDbEntity
  8
0
100
AcDbLine
 10
114.0972774999999
 20
52.0635
 30
0.0
 11
114.0972774999999
 21
60.5635
 31
0.0
  0
LINE
  5
5E
330
1E
100
AcDbEntity
  8
0
100
AcDbLine
 10
113.9972774999999
 20
47.06349999999999
 30
0.0
 11
114.0972774999999
 21
52.0635
 31
0.0
  0
LINE
  5
62
330
1E
100
AcDbEntity
  8
0
100
AcDbLine
 10
114.4972775
 20
61.6635
 30
0.0
 11
115.5972774999999
 21
62.0635
 31
0.0
  0
LINE
  5
64
330
1E
100
AcDbEntity
  8
0
100
AcDbLine
 10
114.0972774999999
 20
60.5635
 30
0.0
 11
114.4972775
 21
61.6635
 31
0.0
  0
LINE
  5
65
330
1E
100
AcDbEntity
  8
0
100
AcDbLine
 10
114.0972774999999
 20
60.5635
 30
0.0
 11
114.0972774999999
 21
52.0635
 31
0.0
  0
LINE
  5
6B
330
1E
100
AcDbEntity
  8
0
100
AcDbLine
 10
116.4972775
 20
62.0635
 30
0.0
 11
116.4972775
 21
73.3432610474632
 31
0.0
  0
LINE
  5
6C
330
1E
100
AcDbEntity
  8
0
100
AcDbLine
 10
132.4972774999999
 20
62.0635
 30
0.0
 11
132.4972774999999
 21
73.3432610474632
 31
0.0
  0
LINE
  5
6D
330
1E
100
AcDbEntity
  8
0
100
AcDbLine
 10
113.4972775
 20
74.86839999999999
 30
0.0
 11
113.4972775
 21
75.31359999999999
 31
0.0
  0
LINE
  5
6E
330
1E
100
AcDbEntity
  8
0
100
AcDbLine
 10
113.4972775
 20
74.86839999999999
 30
0.0
 11
113.4972775
 21
74.58669999999999
 31
0.0
  0
LINE
  5
6F
330
1E
100
AcDbEntity
  8
0
100
AcDbLine
 10
113.4972775
 20
77.18810000000001
 30
0.0
 11
113.4972775
 21
75.70059999999999
 31
0.0
  0
LINE
  5
70
330
1E
100
AcDbEntity
  8
0
100
AcDbLine
 10
113.4972775
 20
75.70059999999999
 30
0.0
 11
113.4972775
 21
77.18810000000001
 31
0.0
  0
LINE
  5
71
330
1E
100
AcDbEntity
  8
0
100
AcDbLine
 10
113.4972775
 20
75.70059999999999
 30
0.0
 11
113.4972775
 21
75.31359999999999
 31
0.0
  0
LINE
  5
76
330
1E
100
AcDbEntity
  8
0
100
AcDbLine
 10
113.4972775
 20
75.31359999999999
 30
0.0
 11
113.4972775
 21
75.70059999999999
 31
0.0
  0
LINE
  5
77
330
1E
100
AcDbEntity
  8
0
100
AcDbLine
 10
113.4972775
 20
75.31359999999999
 30
0.0
 11
113.4972775
 21
74.86839999999999
 31
0.0
  0
LINE
  5
78
330
1E
100
AcDbEntity
  8
0
100
AcDbLine
 10
113.4972775
 20
74.58669999999999
 30
0.0
 11
113.7412775
 21
73.7624
 31
0.0
  0
LINE
  5
79
330
1E
100
AcDbEntity
  8
0
100
AcDbLine
 10
113.4972775
 20
74.58669999999999
 30
0.0
 11
113.4972775
 21
74.86839999999999
 31
0.0
  0
LINE
  5
7A
330
1E
100
AcDbEntity
  8
0
100
AcDbLine
 10
113.4972775
 20
86.97599999999999
 30
0.0
 11
113.4972775
 21
87.8784
 31
0.0
  0
LINE
  5
7B
330
1E
100
AcDbEntity
  8
0
100
AcDbLine
 10
113.4972775
 20
86.97599999999999
 30
0.0
 11
113.4972775
 21
77.18810000000001
 31
0.0
  0
LINE
  5
7C
330
1E
100
AcDbEntity
  8
0
100
AcDbLine
 10
113.4972775
 20
77.18810000000001
 30
0.0
 11
113.4972775
 21
86.97599999999999
 31
0.0
  0
LINE
  5
87
330
1E
100
AcDbEntity
  8
0
100
AcDbLine
 10
113.7412775
 20
73.7624
 30
0.0
 11
114.4142774999999
 21
73.46189999999999
 31
0.0
  0
LINE
  5
89
330
1E
100
AcDbEntity
  8
0
100
AcDbLine
 10
121.1362775
 20
73.1258
 30
0.0
 11
124.4972774999999
 21
73.06350000000001
 31
0.0
  0
LINE
  5
8A
330
1E
100
AcDbEntity
  8
0
100
AcDbLine
 10
116.4972775
 20
73.3432610474632
 30
0.0
 11
116.4972775
 21
62.0635
 31
0.0
  0
LINE
  5
8B
330
1E
100
AcDbEntity
  8
0
100
AcDbLine
 10
117.4692775
 20
73.28789999999999
 30
0.0
 11
121.1362775
 21
73.1258
 31
0.0
  0
LINE
  5
8C
330
1E
100
AcDbEntity
  8
0
100
AcDbLine
 10
114.4142774999999
 20
73.46189999999999
 30
0.0
 11
117.4692775
 21
73.28789999999999
 31
0.0
  0
LINE
  5
91
330
1E
100
AcDbEntity
  8
0
100
AcDbLine
 10
121.1362775
 20
87.062
 30
0.0
 11
124.4972774999999
 21
86.99379999999999
 31
0.0
  0
LINE
  5
96
330
1E
100
AcDbEntity
  8
0
100
AcDbLine
 10
113.4972775
 20
85.67239999999999
 30
0.0
 11
113.4972775
 21
88.46949999999999
 31
0.0
  0
LINE
  5
97
330
1E
100
AcDbEntity
  8
0
100
AcDbLine
 10
124.4972774999999
 20
73.06350000000001
 30
0.0
 11
127.8582774999999
 21
73.1258
 31
0.0
  0
LINE
  5
98
330
1E
100
AcDbEntity
  8
0
100
AcDbLine
 10
127.8582774999999
 20
73.1258
 30
0.0
 11
131.5252774999999
 21
73.28789999999999
 31
0.0
  0
LINE
  5
99
330
1E
100
AcDbEntity
  8
0
100
AcDbLine
 10
131.5252774999999
 20
73.28789999999999
 30
0.0
 11
134.5802774999999
 21
73.46189999999999
 31
0.0
  0
LINE
  5
9A
330
1E
100
AcDbEntity
  8
0
100
AcDbLine
 10
124.4972774999999
 20
86.99379999999999
 30
0.0
 11
127.8582774999999
 21
87.062
 31
0.0
  0
LINE
  5
9B
330
1E
100
AcDbEntity
  8
0
100
AcDbLine
 10
113.9252774999999
 20
87.575
 30
0.0
 11
114.4142774999999
 21
87.3506
 31
0.0
  0
LINE
  5
9E
330
1E
100
AcDbEntity
  8
0
100
AcDbLine
 10
117.4692775
 20
87.2103
 30
0.0
 11
121.1362775
 21
87.062
 31
0.0
  0
LINE
  5
9F
330
1E
100
AcDbEntity
  8
0
100
AcDbLine
 10
114.4142774999999
 20
87.3506
 30
0.0
 11
117.4692775
 21
87.2103
 31
0.0
  0
LINE
  5
A0
330
1E
100
AcDbEntity
  8
0
100
AcDbLine
 10
113.4972775
 20
91.576
 30
0.0
 11
113.7412775
 21
92.4013
 31
0.0
  0
LINE
  5
A1
330
1E
100
AcDbEntity
  8
0
100
AcDbLine
 10
113.4972775
 20
91.576
 30
0.0
 11
113.4972775
 21
88.2254
 31
0.0
  0
LINE
  5
A2
330
1E
100
AcDbEntity
  8
0
100
AcDbLine
 10
113.4972775
 20
88.2254
 30
0.0
 11
113.4972775
 21
87.8784
 31
0.0
  0
LINE
  5
A3
330
1E
100
AcDbEntity
  8
0
100
AcDbLine
 10
113.4972775
 20
88.2254
 30
0.0
 11
113.4972775
 21
91.576
 31
0.0
  0
LINE
  5
A4
330
1E
100
AcDbEntity
  8
0
100
AcDbLine
 10
113.4972775
 20
87.8784
 30
0.0
 11
113.4972775
 21
86.97599999999999
 31
0.0
  0
LINE
  5
A5
330
1E
100
AcDbEntity
  8
0
100
AcDbLine
 10
113.4972775
 20
87.8784
 30
0.0
 11
113.4972775
 21
88.2254
 31
0.0
  0
LINE
  5
AE
330
1E
100
AcDbEntity
  8
0
100
AcDbLine
 10
113.4972775
 20
88.46949999999999
 30
0.0
 11
113.4972775
 21
85.67239999999999
 31
0.0
  0
LINE
  5
B1
330
1E
100
AcDbEntity
  8
0
100
AcDbLine
 10
127.8582774999999
 20
87.062
 30
0.0
 11
131.5252774999999
 21
87.2103
 31
0.0
  0
LINE
  5
B2
330
1E
100
AcDbEntity
  8
0
100
AcDbLine
 10
131.5252774999999
 20
87.2103
 30
0.0
 11
134.5802774999999
 21
87.3506
 31
0.0
  0
LINE
  5
B4
330
1E
100
AcDbEntity
  8
0
100
AcDbLine
 10
113.7412775
 20
92.4013
 30
0.0
 11
114.4142774999999
 21
92.7008
 31
0.0
  0
LINE
  5
B9
330
1E
100
AcDbEntity
  8
0
100
AcDbLine
 10
121.1362775
 20
93.00220000000001
 30
0.0
 11
124.4972774999999
 21
93.0635
 31
0.0
  0
LINE
  5
BA
330
1E
100
AcDbEntity
  8
0
100
AcDbLine
 10
117.4692775
 20
92.88059999999999
 30
0.0
 11
121.1362775
 21
93.00220000000001
 31
0.0
  0
LINE
  5
BB
330
1E
100
AcDbEntity
  8
0
100
AcDbLine
 10
114.4142774999999
 20
92.7008
 30
0.0
 11
117.4692775
 21
92.88059999999999
 31
0.0
  0
LINE
  5
C1
330
1E
100
AcDbEntity
  8
0
100
AcDbLine
 10
124.4972774999999
 20
93.0635
 30
0.0
 11
127.8582774999999
 21
93.00220000000001
 31
0.0
  0
LINE
  5
C2
330
1E
100
AcDbEntity
  8
0
100
AcDbLine
 10
127.8582774999999
 20
93.00220000000001
 30
0.0
 11
131.5252774999999
 21
92.88059999999999
 31
0.0
  0
LINE
  5
C3
330
1E
100
AcDbEntity
  8
0
100
AcDbLine
 10
132.4972774999999
 20
73.3432610474632
 30
0.0
 11
132.4972774999999
 21
62.0635
 31
0.0
  0
LINE
  5
C4
330
1E
100
AcDbEntity
  8
0
100
AcDbLine
 10
131.5252774999999
 20
92.88059999999999
 30
0.0
 11
134.5802774999999
 21
92.7008
 31
0.0
  0
LINE
  5
C5
330
1E
100
AcDbEntity
  8
0
100
AcDbLine
 10
115.5972774999999
 20
62.0635
 30
0.0
 11
133.3972775
 21
62.0635
 31
0.0
  0
LINE
  5
C6
330
1E
100
AcDbEntity
  8
0
100
AcDbLine
 10
134.5802774999999
 20
73.46189999999999
 30
0.0
 11
135.2532775
 21
73.7624
 31
0.0
  0
LINE
  5
C7
330
1E
100
AcDbEntity
  8
0
100
AcDbLine
 10
134.5802774999999
 20
87.3506
 30
0.0
 11
135.0692774999999
 21
87.575
 31
0.0
  0
LINE
  5
C9
330
1E
100
AcDbEntity
  8
0
100
AcDbLine
 10
134.5802774999999
 20
92.7008
 30
0.0
 11
135.2532775
 21
92.4013
 31
0.0
  0
LINE
  5
CA
330
1E
100
AcDbEntity
  8
0
100
AcDbLine
 10
133.3972775
 20
62.0635
 30
0.0
 11
134.4972775
 21
61.6635
 31
0.0
  0
LINE
  5
CB
330
1E
100
AcDbEntity
  8
0
100
AcDbLine
 10
134.4972775
 20
61.6635
 30
0.0
 11
134.8972775
 21
60.5635
 31
0.0
  0
LINE
  5
CC
330
1E
100
AcDbEntity
  8
0
100
AcDbLine
 10
134.8972775
 20
60.5635
 30
0.0
 11
134.8972775
 21
52.0635
 31
0.0
  0
LINE
  5
CD
330
1E
100
AcDbEntity
  8
0
100
AcDbLine
 10
134.8972775
 20
52.0635
 30
0.0
 11
134.9972774999999
 21
47.06349999999999
 31
0.0
  0
LINE
  5
CE
330
1E
100
AcDbEntity
  8
0
100
AcDbLine
 10
134.8972775
 20
52.0635
 30
0.0
 11
134.8972775
 21
60.5635
 31
0.0
  0
LINE
  5
D3
330
1E
100
AcDbEntity
  8
0
100
AcDbLine
 10
135.2532775
 20
73.7624
 30
0.0
 11
135.4972775
 21
74.58669999999999
 31
0.0
  0
LINE
  5
E8
330
1E
100
AcDbEntity
  8
0
100
AcDbLine
 10
135.4972775
 20
75.31359999999999
 30
0.0
 11
135.4972775
 21
75.70059999999999
 31
0.0
  0
LINE
  5
E9
330
1E
100
AcDbEntity
  8
0
100
AcDbLine
 10
135.4972775
 20
75.31359999999999
 30
0.0
 11
135.4972775
 21
74.86839999999999
 31
0.0
  0
LINE
  5
EA
330
1E
100
AcDbEntity
  8
0
100
AcDbLine
 10
135.4972775
 20
74.86839999999999
 30
0.0
 11
135.4972775
 21
75.31359999999999
 31
0.0
  0
LINE
  5
EB
330
1E
100
AcDbEntity
  8
0
100
AcDbLine
 10
135.4972775
 20
74.86839999999999
 30
0.0
 11
135.4972775
 21
74.58669999999999
 31
0.0
  0
LINE
  5
EC
330
1E
100
AcDbEntity
  8
0
100
AcDbLine
 10
135.4972775
 20
74.58669999999999
 30
0.0
 11
135.4972775
 21
74.86839999999999
 31
0.0
  0
LINE
  5
ED
330
1E
100
AcDbEntity
  8
0
100
AcDbLine
 10
135.4972775
 20
91.576
 30
0.0
 11
135.4972775
 21
88.2254
 31
0.0
  0
LINE
  5
EE
330
1E
100
AcDbEntity
  8
0
100
AcDbLine
 10
135.4972775
 20
88.2254
 30
0.0
 11
135.4972775
 21
91.576
 31
0.0
  0
LINE
  5
EF
330
1E
100
AcDbEntity
  8
0
100
AcDbLine
 10
135.4972775
 20
88.2254
 30
0.0
 11
135.4972775
 21
87.8784
 31
0.0
  0
LINE
  5
F0
330
1E
100
AcDbEntity
  8
0
100
AcDbLine
 10
135.4972775
 20
87.8784
 30
0.0
 11
135.4972775
 21
88.2254
 31
0.0
  0
LINE
  5
F1
330
1E
100
AcDbEntity
  8
0
100
AcDbLine
 10
135.4972775
 20
87.8784
 30
0.0
 11
135.4972775
 21
86.97599999999999
 31
0.0
  0
LINE
  5
F2
330
1E
100
AcDbEntity
  8
0
100
AcDbLine
 10
135.4972775
 20
86.97599999999999
 30
0.0
 11
135.4972775
 21
87.8784
 31
0.0
  0
LINE
  5
F3
330
1E
100
AcDbEntity
  8
0
100
AcDbLine
 10
135.4972775
 20
86.97599999999999
 30
0.0
 11
135.4972775
 21
85.02889999999998
 31
0.0
  0
LINE
  5
F4
330
1E
100
AcDbEntity
  8
0
100
AcDbLine
 10
135.4972775
 20
85.02889999999998
 30
0.0
 11
135.4972775
 21
86.97599999999999
 31
0.0
  0
LINE
  5
F5
330
1E
100
AcDbEntity
  8
0
100
AcDbLine
 10
135.4972775
 20
85.02889999999998
 30
0.0
 11
135.4972775
 21
82.10930000000001
 31
0.0
  0
LINE
  5
F6
330
1E
100
AcDbEntity
  8
0
100
AcDbLine
 10
135.4972775
 20
82.10930000000001
 30
0.0
 11
135.4972775
 21
85.02889999999998
 31
0.0
  0
LINE
  5
F7
330
1E
100
AcDbEntity
  8
0
100
AcDbLine
 10
135.4972775
 20
82.10930000000001
 30
0.0
 11
135.4972775
 21
78.9405
 31
0.0
  0
LINE
  5
F8
330
1E
100
AcDbEntity
  8
0
100
AcDbLine
 10
135.4972775
 20
78.9405
 30
0.0
 11
135.4972775
 21
82.10930000000001
 31
0.0
  0
LINE
  5
F9
330
1E
100
AcDbEntity
  8
0
100
AcDbLine
 10
135.4972775
 20
78.9405
 30
0.0
 11
135.4972775
 21
77.18810000000001
 31
0.0
  0
LINE
  5
FA
330
1E
100
AcDbEntity
  8
0
100
AcDbLine
 10
135.4972775
 20
77.18810000000001
 30
0.0
 11
135.4972775
 21
78.9405
 31
0.0
  0
LINE
  5
FB
330
1E
100
AcDbEntity
  8
0
100
AcDbLine
 10
135.4972775
 20
77.18810000000001
 30
0.0
 11
135.4972775
 21
75.70059999999999
 31
0.0
  0
LINE
  5
FC
330
1E
100
AcDbEntity
  8
0
100
AcDbLine
 10
135.4972775
 20
75.70059999999999
 30
0.0
 11
135.4972775
 21
77.18810000000001
 31
0.0
  0
LINE
  5
FD
330
1E
100
AcDbEntity
  8
0
100
AcDbLine
 10
135.4972775
 20
75.70059999999999
 30
0.0
 11
135.4972775
 21
75.31359999999999
 31
0.0
  0
LINE
  5
100
330
1E
100
AcDbEntity
  8
0
100
AcDbLine
 10
135.2532775
 20
92.4013
 30
0.0
 11
135.4972775
 21
91.576
 31
0.0
  0
LINE
  5
101
330
1E
100
AcDbEntity
  8
0
100
AcDbLine
 10
134.9972774999999
 20
47.06349999999999
 30
0.0
 11
135.2972774999999
 21
42.06349999999999
 31
0.0
  0
LINE
  5
102
330
1E
100
AcDbEntity
  8
0
100
AcDbLine
 10
135.2972774999999
 20
42.06349999999999
 30
0.0
 11
136.1972774999999
 21
37.0635
 31
0.0
  0
LINE
  5
103
330
1E
100
AcDbEntity
  8
0
100
AcDbLine
 10
136.1972774999999
 20
37.0635
 30
0.0
 11
137.1972774999999
 21
32.0635
 31
0.0
  0
LINE
  5
104
330
1E
100
AcDbEntity
  8
0
100
AcDbLine
 10
137.1972774999999
 20
32.0635
 30
0.0
 11
138.5972774999999
 21
27.0635
 31
0.0
  0
LINE
  5
106
330
1E
100
AcDbEntity
  8
0
100
AcDbLine
 10
105.8972774999999
 20
27.0635
 30
0.0
 11
106.4972774999999
 21
32.0635
 31
0.0
  0
LINE
  5
107
330
1E
100
AcDbEntity
  8
0
100
AcDbLine
 10
105.0972774999999
 20
22.0635
 30
0.0
 11
105.8972774999999
 21
27.0635
 31
0.0
  0
LINE
  5
108
330
1E
100
AcDbEntity
  8
0
100
AcDbLine
 10
103.9972775
 20
17.0635
 30
0.0
 11
105.0972774999999
 21
22.0635
 31
0.0
  0
LINE
  5
109
330
1E
100
AcDbEntity
  8
0
100
AcDbLine
 10
102.4972774999999
 20
12.0635
 30
0.0
 11
103.9972775
 21
17.0635
 31
0.0
  0
LINE
  5
10C
330
1E
100
AcDbEntity
  8
0
100
AcDbLine
 10
142.2972774999999
 20
17.0635
 30
0.0
 11
144.4972774999999
 21
12.0635
 31
0.0
  0
LINE
  5
10D
330
1E
100
AcDbEntity
  8
0
100
AcDbLine
 10
144.4972774999999
 20
12.0635
 30
0.0
 11
147.4972774999999
 21
7.0635
 31
0.0
  0
LINE
  5
111
330
1E
100
AcDbEntity
  8
0
100
AcDbLine
 10
143.0972774999999
 20
27.0635
 30
0.0
 11
143.8972775
 21
22.0635
 31
0.0
  0
LINE
  5
112
330
1E
100
AcDbEntity
  8
0
100
AcDbLine
 10
143.8972775
 20
22.0635
 30
0.0
 11
144.9972774999999
 21
17.0635
 31
0.0
  0
LINE
  5
113
330
1E
100
AcDbEntity
  8
0
100
AcDbLine
 10
144.9972774999999
 20
17.0635
 30
0.0
 11
146.4972774999999
 21
12.0635
 31
0.0
  0
LINE
  5
115
330
1E
100
AcDbEntity
  8
0
100
AcDbLine
 10
147.4972774999999
 20
7.0635
 30
0.0
 11
150.4972774999999
 21
2.063499999999989
 31
0.0
  0
LINE
  5
118
330
1E
100
AcDbEntity
  8
0
100
AcDbLine
 10
150.4972774999999
 20
2.063499999999989
 30
0.0
 11
150.4972774999999
 21
0.0634999999999944
 31
0.0
  0
LINE
  5
11C
330
1E
100
AcDbEntity
  8
0
100
AcDbLine
 10
148.3972774999999
 20
7.0635
 30
0.0
 11
150.4972774999999
 21
2.063499999999989
 31
0.0
  0
LINE
  5
11D
330
1E
100
AcDbEntity
  8
0
100
AcDbLine
 10
146.4972774999999
 20
12.0635
 30
0.0
 11
148.3972774999999
 21
7.0635
 31
0.0
  0
LINE
  5
11F
330
1E
100
AcDbEntity
  8
0
100
AcDbLine
 10
142.4972775
 20
32.6214461538461
 30
0.0
 11
144.5332774999999
 21
44.3676
 31
0.0
  0
LINE
  5
120
330
1E
100
AcDbEntity
  8
0
100
AcDbLine
 10
144.9332775
 20
45.7676
 30
0.0
 11
146.1332774999999
 21
47.6676
 31
0.0
  0
LINE
  5
121
330
1E
100
AcDbEntity
  8
0
100
AcDbLine
 10
163.9332774999999
 20
45.06759999999999
 30
0.0
 11
163.9332774999999
 21
46.1676
 31
0.0
  0
LINE
  5
122
330
1E
100
AcDbEntity
  8
0
100
AcDbLine
 10
163.9332774999999
 20
45.06759999999999
 30
0.0
 11
163.9332774999999
 21
44.3676
 31
0.0
  0
LINE
  5
123
330
1E
100
AcDbEntity
  8
0
100
AcDbLine
 10
163.9332774999999
 20
46.1676
 30
0.0
 11
163.9332774999999
 21
47.56759999999999
 31
0.0
  0
LINE
  5
124
330
1E
100
AcDbEntity
  8
0
100
AcDbLine
 10
163.9332774999999
 20
46.1676
 30
0.0
 11
163.9332774999999
 21
45.06759999999999
 31
0.0
  0
LINE
  5
125
330
1E
100
AcDbEntity
  8
0
100
AcDbLine
 10
163.9332774999999
 20
47.56759999999999
 30
0.0
 11
163.9332774999999
 21
48.6676
 31
0.0
  0
LINE
  5
126
330
1E
100
AcDbEntity
  8
0
100
AcDbLine
 10
163.9332774999999
 20
47.56759999999999
 30
0.0
 11
163.9332774999999
 21
46.1676
 31
0.0
  0
LINE
  5
127
330
1E
100
AcDbEntity
  8
0
100
AcDbLine
 10
163.9332774999999
 20
49.3676
 30
0.0
 11
163.9332774999999
 21
48.6676
 31
0.0
  0
LINE
  5
128
330
1E
100
AcDbEntity
  8
0
100
AcDbLine
 10
163.9332774999999
 20
48.6676
 30
0.0
 11
163.9332774999999
 21
49.3676
 31
0.0
  0
LINE
  5
129
330
1E
100
AcDbEntity
  8
0
100
AcDbLine
 10
163.9332774999999
 20
48.6676
 30
0.0
 11
163.9332774999999
 21
47.56759999999999
 31
0.0
  0
LINE
  5
12A
330
1E
100
AcDbEntity
  8
0
100
AcDbLine
 10
146.1332774999999
 20
47.6676
 30
0.0
 11
148.0332774999999
 21
48.9676
 31
0.0
  0
LINE
  5
12B
330
1E
100
AcDbEntity
  8
0
100
AcDbLine
 10
149.9332775
 20
44.3676
 30
0.0
 11
163.9332774999999
 21
44.3676
 31
0.0
  0
LINE
  5
12C
330
1E
100
AcDbEntity
  8
0
100
AcDbLine
 10
163.9332774999999
 20
44.3676
 30
0.0
 11
163.9332774999999
 21
45.06759999999999
 31
0.0
  0
LINE
  5
12D
330
1E
100
AcDbEntity
  8
0
100
AcDbLine
 10
142.4972775
 20
32.0635
 30
0.0
 11
142.4972775
 21
128.5635
 31
0.0
  0
LINE
  5
12E
330
1E
100
AcDbEntity
  8
0
100
AcDbLine
 10
142.4972775
 20
32.0635
 30
0.0
 11
143.0972774999999
 21
27.0635
 31
0.0
  0
LINE
  5
131
330
1E
100
AcDbEntity
  8
0
100
AcDbLine
 10
100.4282775
 20
101.5185
 30
0.0
 11
103.4902775
 21
99.7947
 31
0.0
  0
LINE
  5
134
330
1E
100
AcDbEntity
  8
0
100
AcDbLine
 10
103.4902775
 20
99.7947
 30
0.0
 11
105.5962774999999
 21
96.92160000000001
 31
0.0
  0
LINE
  5
135
330
1E
100
AcDbEntity
  8
0
100
AcDbLine
 10
105.5962774999999
 20
96.92160000000001
 30
0.0
 11
106.4972774999999
 21
94.06350000000001
 31
0.0
  0
LINE
  5
136
330
1E
100
AcDbEntity
  8
0
100
AcDbLine
 10
98.49727749999999
 20
0.0634999999999976
 30
0.0
 11
98.8972775
 21
0.0634999999999976
 31
0.0
  0
LINE
  5
137
330
1E
100
AcDbEntity
  8
0
100
AcDbLine
 10
98.49727749999999
 20
0.0634999999999976
 30
0.0
 11
98.49727749999999
 21
2.063499999999999
 31
0.0
  0
LINE
  5
138
330
1E
100
AcDbEntity
  8
0
100
AcDbLine
 10
98.8972775
 20
0.0634999999999976
 30
0.0
 11
99.99727749999999
 21
0.0634999999999975
 31
0.0
  0
LINE
  5
13A
330
1E
100
AcDbEntity
  8
0
100
AcDbLine
 10
23.8188775
 20
95.46190000000001
 30
0.0
 11
27.28040649701769
 21
103.2367146714419
 31
0.0
  0
LINE
  5
13B
330
1E
100
AcDbEntity
  8
0
100
AcDbLine
 10
1.1351075
 20
115.2355
 30
0.0
 11
3.648514776251349
 21
114.082029375915
 31
0.0
  0
LINE
  5
13E
330
1E
100
AcDbEntity
  8
0
100
AcDbLine
 10
0.639107499999996
 20
117.9785
 30
0.0
 11
4.845007499999999
 21
123.7305
 31
0.0
  0
LINE
  5
142
330
1E
100
AcDbEntity
  8
0
100
AcDbLine
 10
1.135107499999989
 20
115.2355
 30
0.0
 11
3.648514776251349
 21
114.082029375915
 31
0.0
  0
LINE
  5
143
330
1E
100
AcDbEntity
  8
0
100
AcDbLine
 10
0.489087499999995
 20
116.2314999999999
 30
0.0
 11
0.6391074999999951
 21
117.9785
 31
0.0
  0
LINE
  5
144
330
1E
100
AcDbEntity
  8
0
100
AcDbLine
 10
0.489087499999995
 20
116.2314999999999
 30
0.0
 11
1.1351075
 21
115.2355
 31
0.0
  0
LINE
  5
146
330
1E
100
AcDbEntity
  8
0
100
AcDbLine
 10
0.6391074999999951
 20
117.9785
 30
0.0
 11
4.845007499999999
 21
123.7305
 31
0.0
  0
LINE
  5
147
330
1E
100
AcDbEntity
  8
0
100
AcDbLine
 10
0.107706499999995
 20
105.3625
 30
0.0
 11
0.535247499999994
 21
105.1714999999999
 31
0.0
  0
LINE
  5
148
330
1E
100
AcDbEntity
  8
0
100
AcDbLine
 10
0.535247499999994
 20
105.1714999999999
 30
0.0
 11
1.675347499999989
 21
104.6645
 31
0.0
  0
LINE
  5
14E
330
1E
100
AcDbEntity
  8
0
100
AcDbLine
 10
4.845007499999999
 20
123.7305
 30
0.0
 11
10.9915775
 21
131.2124999999999
 31
0.0
  0
LINE
  5
14F
330
1E
100
AcDbEntity
  8
0
100
AcDbLine
 10
1.675347499999989
 20
104.6645
 30
0.0
 11
3.52801749999999
 21
103.8394999999999
 31
0.0
  0
LINE
  5
150
330
1E
100
AcDbEntity
  8
0
100
AcDbLine
 10
3.52801749999999
 20
103.8394999999999
 30
0.0
 11
5.950747499999999
 21
102.7604999999999
 31
0.0
  0
LINE
  5
151
330
1E
100
AcDbEntity
  8
0
100
AcDbLine
 10
27.28040649701769
 20
103.2367146714419
 30
0.0
 11
29.0959775
 21
102.4035
 31
0.0
  0
LINE
  5
158
330
1E
100
AcDbEntity
  8
0
100
AcDbLine
 10
30.2666775
 20
102.5994999999999
 30
0.0
 11
31.4538775
 21
103.8904999999999
 31
0.0
  0
LINE
  5
159
330
1E
100
AcDbEntity
  8
0
100
AcDbLine
 10
29.0959775
 20
102.4035
 30
0.0
 11
30.2666775
 21
102.5994999999999
 31
0.0
  0
LINE
  5
15D
330
1E
100
AcDbEntity
  8
0
100
AcDbLine
 10
31.4538775
 20
103.8904999999999
 30
0.0
 11
33.3488775
 21
106.7644999999999
 31
0.0
  0
LINE
  5
15E
330
1E
100
AcDbEntity
  8
0
100
AcDbLine
 10
91.7237775
 20
103.5225
 30
0.0
 11
100.4282775
 21
101.5185
 31
0.0
  0
LINE
  5
162
330
1E
100
AcDbEntity
  8
0
100
AcDbLine
 10
37.8793775
 20
112.7125
 30
0.0
 11
42.6322775
 21
115.3405
 31
0.0
  0
LINE
  5
163
330
1E
100
AcDbEntity
  8
0
100
AcDbLine
 10
42.6322775
 20
115.3405
 30
0.0
 11
47.2310775
 21
116.5394999999999
 31
0.0
  0
LINE
  5
166
330
1E
100
AcDbEntity
  8
0
100
AcDbLine
 10
47.2310775
 20
116.5394999999999
 30
0.0
 11
51.4189775
 21
116.1454999999999
 31
0.0
  0
LINE
  5
169
330
1E
100
AcDbEntity
  8
0
100
AcDbLine
 10
51.4189775
 20
116.1454999999999
 30
0.0
 11
57.33257749999999
 21
115.1825
 31
0.0
  0
LINE
  5
16A
330
1E
100
AcDbEntity
  8
0
100
AcDbLine
 10
57.33257749999999
 20
115.1825
 30
0.0
 11
64.17787750000001
 21
112.9115
 31
0.0
  0
LINE
  5
16D
330
1E
100
AcDbEntity
  8
0
100
AcDbLine
 10
64.17787750000001
 20
112.9115
 30
0.0
 11
74.10727750000001
 21
109.6825
 31
0.0
  0
LINE
  5
16E
330
1E
100
AcDbEntity
  8
0
100
AcDbLine
 10
74.10727750000001
 20
109.6825
 30
0.0
 11
84.5495775
 21
105.5795
 31
0.0
  0
LINE
  5
170
330
1E
100
AcDbEntity
  8
0
100
AcDbLine
 10
84.5495775
 20
105.5795
 30
0.0
 11
91.7237775
 21
103.5225
 31
0.0
  0
LINE
  5
174
330
1E
100
AcDbEntity
  8
0
100
AcDbLine
 10
10.9915775
 20
131.2124999999999
 30
0.0
 11
16.5716775
 21
136.1564999999999
 31
0.0
  0
LINE
  5
179
330
1E
100
AcDbEntity
  8
0
100
AcDbLine
 10
16.5716775
 20
136.1564999999999
 30
0.0
 11
22.24017749999999
 21
140.5794999999999
 31
0.0
  0
LINE
  5
17A
330
1E
100
AcDbEntity
  8
0
100
AcDbLine
 10
22.24017749999999
 20
140.5794999999999
 30
0.0
 11
28.7786775
 21
143.7054999999999
 31
0.0
  0
LINE
  5
181
330
1E
100
AcDbEntity
  8
0
100
AcDbLine
 10
28.7786775
 20
143.7054999999999
 30
0.0
 11
36.0826775
 21
146.3694999999999
 31
0.0
  0
LINE
  5
182
330
1E
100
AcDbEntity
  8
0
100
AcDbLine
 10
36.0826775
 20
146.3694999999999
 30
0.0
 11
42.1597775
 21
147.3785
 31
0.0
  0
LINE
  5
184
330
1E
100
AcDbEntity
  8
0
100
AcDbLine
 10
42.1597775
 20
147.3785
 30
0.0
 11
48.47807750000001
 21
147.9365
 31
0.0
  0
LINE
  5
185
330
1E
100
AcDbEntity
  8
0
100
AcDbLine
 10
48.47807750000001
 20
147.9365
 30
0.0
 11
54.1635775
 21
147.2344999999999
 31
0.0
  0
LINE
  5
186
330
1E
100
AcDbEntity
  8
0
100
AcDbLine
 10
54.1635775
 20
147.2344999999999
 30
0.0
 11
59.9412775
 21
146.0444999999999
 31
0.0
  0
LINE
  5
187
330
1E
100
AcDbEntity
  8
0
100
AcDbLine
 10
59.9412775
 20
146.0444999999999
 30
0.0
 11
67.7640775
 21
143.7015
 31
0.0
  0
LINE
  5
188
330
1E
100
AcDbEntity
  8
0
100
AcDbLine
 10
67.7640775
 20
143.7015
 30
0.0
 11
77.8920775
 21
139.8745
 31
0.0
  0
LINE
  5
189
330
1E
100
AcDbEntity
  8
0
100
AcDbLine
 10
77.8920775
 20
139.8745
 30
0.0
 11
86.3513775
 21
136.4704999999999
 31
0.0
  0
LINE
  5
18A
330
1E
100
AcDbEntity
  8
0
100
AcDbLine
 10
86.3513775
 20
136.4704999999999
 30
0.0
 11
95.12027749999999
 21
133.2924999999999
 31
0.0
  0
LINE
  5
18B
330
1E
100
AcDbEntity
  8
0
100
AcDbLine
 10
95.12027749999999
 20
133.2924999999999
 30
0.0
 11
102.1642774999999
 21
131.4365
 31
0.0
  0
LINE
  5
18E
330
1E
100
AcDbEntity
  8
0
100
AcDbLine
 10
142.4972775
 20
128.5635
 30
0.0
 11
142.4972775
 21
32.0635
 31
0.0
  0
LINE
  5
192
330
1E
100
AcDbEntity
  8
0
100
AcDbLine
 10
109.4972775
 20
130.0634999999999
 30
0.0
 11
140.9972774999999
 21
130.0634999999999
 31
0.0
  0
LINE
  5
193
330
1E
100
AcDbEntity
  8
0
100
AcDbLine
 10
140.9972774999999
 20
130.0634999999999
 30
0.0
 11
142.0972774999999
 21
129.6634999999999
 31
0.0
  0
LINE
  5
194
330
1E
100
AcDbEntity
  8
0
100
AcDbLine
 10
142.0972774999999
 20
129.6634999999999
 30
0.0
 11
142.4972775
 21
128.5635
 31
0.0
  0
LINE
  5
195
330
1E
100
AcDbEntity
  8
0
100
AcDbLine
 10
102.1642774999999
 20
131.4365
 30
0.0
 11
109.4972775
 21
130.0634999999999
 31
0.0
  0
LINE
  5
196
330
1E
100
AcDbEntity
  8
0
100
AcDbLine
 10
5.950747499999999
 20
102.7604999999999
 30
0.0
 11
8.705997499999989
 21
101.5335
 31
0.0
  0
LINE
  5
197
330
1E
100
AcDbEntity
  8
0
100
AcDbLine
 10
8.705997499999989
 20
101.5335
 30
0.0
 11
11.6987775
 21
100.2014999999999
 31
0.0
  0
LINE
  5
198
330
1E
100
AcDbEntity
  8
0
100
AcDbLine
 10
0.0667224999999946
 20
106.0375
 30
0.0
 11
3.649920027355029
 21
114.0851855008139
 31
0.0
  0
LINE
  5
199
330
1E
100
AcDbEntity
  8
0
100
AcDbLine
 10
0.0667224999999946
 20
106.0375
 30
0.0
 11
0.107706499999995
 21
105.3625
 31
0.0
  0
LINE
  5
19E
330
1E
100
AcDbEntity
  8
0
100
AcDbLine
 10
163.9332774999999
 20
49.3676
 30
0.0
 11
149.828571450455
 21
49.33307538864375
 31
0.0
  0
LINE
  5
19F
330
1E
100
AcDbEntity
  8
0
100
AcDbLine
 10
149.828571450455
 20
49.33307538864375
 30
0.0
 11
148.0332774999999
 21
48.9676
 31
0.0
  0
LINE
  5
1A0
330
1E
100
AcDbEntity
  8
0
100
AcDbLine
 10
144.5332774999999
 20
44.3676
 30
0.0
 11
144.9332775
 21
45.7676
 31
0.0
  0
LINE
  5
1A1
330
1E
100
AcDbEntity
  8
0
100
AcDbLine
 10
149.9332775
 20
44.3676
 30
0.0
 11
149.1769771779632
 21
44.17387239764525
 31
0.0
  0
LINE
  5
1A2
330
1E
100
AcDbEntity
  8
0
100
AcDbLine
 10
149.1769771779632
 20
44.17387239764525
 30
0.0
 11
148.5253836264395
 21
43.4225323179163
 31
0.0
  0
LINE
  5
1A3
330
1E
100
AcDbEntity
  8
0
100
AcDbLine
 10
148.5253836264395
 20
43.4225323179163
 30
0.0
 11
143.8972775
 21
22.0635
 31
0.0
  0
LINE
  5
1A4
330
1E
100
AcDbEntity
  8
0
100
AcDbLine
 10
33.3488775
 20
106.7644999999999
 30
0.0
 11
37.8793775
 21
112.7125
 31
0.0
  0
LINE
  5
1A5
330
1E
100
AcDbEntity
  8
0
100
AcDbLine
 10
3.649920027355029
 20
114.0851855008139
 30
0.0
 11
27.28040649701769
 21
103.2367146714419
 31
0.0
  0
ENDSEC
  0
SECTION
  2
OBJECTS
  0
DICTIONARY
  5
C
330
0
100
AcDbDictionary
281
     1
  3
ACAD_GROUP
350
D
  3
ACAD_LAYOUT
350
19
  3
ACAD_MLINESTYLE
350
16
  3
ACAD_PLOTSETTINGS
350
18
  3
ACAD_PLOTSTYLENAME
350
E
  3
AcDbVariableDictionary
350
1A6
  0
DICTIONARY
  5
D
102
{ACAD_REACTORS
330
C
102
}
330
C
100
AcDbDictionary
281
     1
  0
DICTIONARY
  5
19
102
{ACAD_REACTORS
330
C
102
}
330
C
100
AcDbDictionary
281
     1
  3
Layout1
350
1D
  3
Model
350
21
  0
DICTIONARY
  5
16
102
{ACAD_REACTORS
330
C
102
}
330
C
100
AcDbDictionary
281
     1
  3
Standard
350
17
  0
DICTIONARY
  5
18
102
{ACAD_REACTORS
330
C
102
}
330
C
100
AcDbDictionary
281
     1
  0
ACDBDICTIONARYWDFLT
  5
E
102
{ACAD_REACTORS
330
C
102
}
330
C
100
AcDbDictionary
281
     1
  3
Normal
350
F
100
AcDbDictionaryWithDefault
340
F
  0
DICTIONARY
  5
1A6
102
{ACAD_REACTORS
330
C
102
}
330
C
100
AcDbDictionary
281
     1
  3
DIMASSOC
350
1A7
  0
LAYOUT
  5
1D
102
{ACAD_REACTORS
330
19
102
}
330
19
100
AcDbPlotSettings
  1

  2
hp deskjet 980c series
  4

  6

 40
0.0
 41
0.0
 42
0.0
 43
0.0
 44
0.0
 45
0.0
 46
0.0
 47
0.0
 48
0.0
 49
0.0
140
0.0
141
0.0
142
1.0
143
1.0
 70
   688
 72
     0
 73
     0
 74
     5
  7

 75
    16
147
1.0
148
0.0
149
0.0
100
AcDbLayout
  1
Layout1
 70
     1
 71
     1
 10
0.0
 20
0.0
 11
12.0
 21
9.0
 12
0.0
 22
0.0
 32
0.0
 14
1.000000000000000E+20
 24
1.000000000000000E+20
 34
1.000000000000000E+20
 15
-1.000000000000000E+20
 25
-1.000000000000000E+20
 35
-1.000000000000000E+20
146
0.0
 13
0.0
 23
0.0
 33
0.0
 16
1.0
 26
0.0
 36
0.0
 17
0.0
 27
1.0
 37
0.0
 76
     0
330
1A
  0
LAYOUT
  5
21
102
{ACAD_REACTORS
330
19
102
}
330
19
100
AcDbPlotSettings
  1

  2
hp deskjet 980c series
  4

  6

 40
0.0
 41
0.0
 42
0.0
 43
0.0
 44
0.0
 45
0.0
 46
0.0
 47
0.0
 48
0.0
 49
0.0
140
0.0
141
0.0
142
1.0
143
1.0
 70
  1712
 72
     0
 73
     0
 74
     0
  7

 75
     0
147
1.0
148
0.0
149
0.0
100
AcDbLayout
  1
Model
 70
     1
 71
     0
 10
0.0
 20
0.0
 11
12.0
 21
9.0
 12
0.0
 22
0.0
 32
0.0
 14
0.0
 24
0.0
 34
0.0
 15
0.0
 25
0.0
 35
0.0
146
0.0
 13
0.0
 23
0.0
 33
0.0
 16
1.0
 26
0.0
 36
0.0
 17
0.0
 27
1.0
 37
0.0
 76
     0
330
1E
  0
MLINESTYLE
  5
17
102
{ACAD_REACTORS
330
16
102
}
330
16
100
AcDbMlineStyle
  2
STANDARD
 70
     0
  3

 62
   256
 51
90.0
 52
90.0
 71
     2
 49
0.5
 62
   256
  6
BYLAYER
 49
-0.5
 62
   256
  6
BYLAYER
  0
ACDBPLACEHOLDER
  5
F
102
{ACAD_REACTORS
330
E
102
}
330
E
  0
DICTIONARYVAR
  5
1A7
102
{ACAD_REACTORS
330
1A6
102
}
330
1A6
100
DictionaryVariables
280
     0
  1
1
  0
ENDSEC
  0
EOF
