  0
SECTION
  2
HEADER
  9
$ACADVER
  1
AC1015
  9
$ACADMAINTVER
 70
    13
  9
$DWGCODEPAGE
  3
ANSI_1252
  9
$INSBASE
 10
0.0
 20
0.0
 30
0.0
  9
$EXTMIN
 10
0.0
 20
-0.207985000000015
 30
0.0
  9
$EXTMAX
 10
150.0
 20
75.20798499999999
 30
0.0
  9
$LIMMIN
 10
0.0
 20
0.0
  9
$LIMMAX
 10
12.0
 20
9.0
  9
$ORTHOMODE
 70
     0
  9
$REGENMODE
 70
     1
  9
$FILLMODE
 70
     1
  9
$QTEXTMODE
 70
     0
  9
$MIRRTEXT
 70
     1
  9
$LTSCALE
 40
1.0
  9
$ATTMODE
 70
     1
  9
$TEXTSIZE
 40
0.2
  9
$TRACEWID
 40
0.05
  9
$TEXTSTYLE
  7
Standard
  9
$CLAYER
  8
0
  9
$CELTYPE
  6
Continuous
  9
$CECOLOR
 62
   256
  9
$CELTSCALE
 40
1.0
  9
$DISPSILH
 70
     0
  9
$DIMSCALE
 40
1.0
  9
$DIMASZ
 40
0.18
  9
$DIMEXO
 40
0.0625
  9
$DIMDLI
 40
0.38
  9
$DIMRND
 40
0.0
  9
$DIMDLE
 40
0.0
  9
$DIMEXE
 40
0.18
  9
$DIMTP
 40
0.0
  9
$DIMTM
 40
0.0
  9
$DIMTXT
 40
0.18
  9
$DIMCEN
 40
0.09
  9
$DIMTSZ
 40
0.0
  9
$DIMTOL
 70
     0
  9
$DIMLIM
 70
     0
  9
$DIMTIH
 70
     1
  9
$DIMTOH
 70
     1
  9
$DIMSE1
 70
     0
  9
$DIMSE2
 70
     0
  9
$DIMTAD
 70
     0
  9
$DIMZIN
 70
     0
  9
$DIMBLK
  1

  9
$DIMASO
 70
     1
  9
$DIMSHO
 70
     1
  9
$DIMPOST
  1

  9
$DIMAPOST
  1

  9
$DIMALT
 70
     0
  9
$DIMALTD
 70
     2
  9
$DIMALTF
 40
25.4
  9
$DIMLFAC
 40
1.0
  9
$DIMTOFL
 70
     0
  9
$DIMTVP
 40
0.0
  9
$DIMTIX
 70
     0
  9
$DIMSOXD
 70
     0
  9
$DIMSAH
 70
     0
  9
$DIMBLK1
  1

  9
$DIMBLK2
  1

  9
$DIMSTYLE
  2
Standard
  9
$DIMCLRD
 70
     0
  9
$DIMCLRE
 70
     0
  9
$DIMCLRT
 70
     0
  9
$DIMTFAC
 40
1.0
  9
$DIMGAP
 40
0.09
  9
$DIMJUST
 70
     0
  9
$DIMSD1
 70
     0
  9
$DIMSD2
 70
     0
  9
$DIMTOLJ
 70
     1
  9
$DIMTZIN
 70
     0
  9
$DIMALTZ
 70
     0
  9
$DIMALTTZ
 70
     0
  9
$DIMUPT
 70
     0
  9
$DIMDEC
 70
     4
  9
$DIMTDEC
 70
     4
  9
$DIMALTU
 70
     2
  9
$DIMALTTD
 70
     2
  9
$DIMTXSTY
  7
Standard
  9
$DIMAUNIT
 70
     0
  9
$DIMADEC
 70
     0
  9
$DIMALTRND
 40
0.0
  9
$DIMAZIN
 70
     0
  9
$DIMDSEP
 70
    46
  9
$DIMATFIT
 70
     3
  9
$DIMFRAC
 70
     0
  9
$DIMLDRBLK
  1

  9
$DIMLUNIT
 70
     2
  9
$DIMLWD
 70
    -2
  9
$DIMLWE
 70
    -2
  9
$DIMTMOVE
 70
     0
  9
$LUNITS
 70
     2
  9
$LUPREC
 70
     4
  9
$SKETCHINC
 40
0.1
  9
$FILLETRAD
 40
0.0
  9
$AUNITS
 70
     0
  9
$AUPREC
 70
     0
  9
$MENU
  1
.
  9
$ELEVATION
 40
0.0
  9
$PELEVATION
 40
0.0
  9
$THICKNESS
 40
0.0
  9
$LIMCHECK
 70
     0
  9
$CHAMFERA
 40
0.0
  9
$CHAMFERB
 40
0.0
  9
$CHAMFERC
 40
0.0
  9
$CHAMFERD
 40
0.0
  9
$SKPOLY
 70
     0
  9
$TDCREATE
 40
2454834.904625648
  9
$TDUCREATE
 40
2454834.862958982
  9
$TDUPDATE
 40
2454834.905731331
  9
$TDUUPDATE
 40
2454834.864064664
  9
$TDINDWG
 40
0.0011060532
  9
$TDUSRTIMER
 40
0.0011060532
  9
$USRTIMER
 70
     1
  9
$ANGBASE
 50
0.0
  9
$ANGDIR
 70
     0
  9
$PDMODE
 70
     0
  9
$PDSIZE
 40
0.0
  9
$PLINEWID
 40
0.0
  9
$SPLFRAME
 70
     0
  9
$SPLINETYPE
 70
     6
  9
$SPLINESEGS
 70
     8
  9
$HANDSEED
  5
2B9
  9
$SURFTAB1
 70
     6
  9
$SURFTAB2
 70
     6
  9
$SURFTYPE
 70
     6
  9
$SURFU
 70
     6
  9
$SURFV
 70
     6
  9
$UCSBASE
  2

  9
$UCSNAME
  2

  9
$UCSORG
 10
0.0
 20
0.0
 30
0.0
  9
$UCSXDIR
 10
1.0
 20
0.0
 30
0.0
  9
$UCSYDIR
 10
0.0
 20
1.0
 30
0.0
  9
$UCSORTHOREF
  2

  9
$UCSORTHOVIEW
 70
     1
  9
$UCSORGTOP
 10
0.0
 20
0.0
 30
0.0
  9
$UCSORGBOTTOM
 10
0.0
 20
0.0
 30
0.0
  9
$UCSORGLEFT
 10
0.0
 20
0.0
 30
0.0
  9
$UCSORGRIGHT
 10
0.0
 20
0.0
 30
0.0
  9
$UCSORGFRONT
 10
0.0
 20
0.0
 30
0.0
  9
$UCSORGBACK
 10
0.0
 20
0.0
 30
0.0
  9
$PUCSBASE
  2

  9
$PUCSNAME
  2

  9
$PUCSORG
 10
0.0
 20
0.0
 30
0.0
  9
$PUCSXDIR
 10
1.0
 20
0.0
 30
0.0
  9
$PUCSYDIR
 10
0.0
 20
1.0
 30
0.0
  9
$PUCSORTHOREF
  2

  9
$PUCSORTHOVIEW
 70
     0
  9
$PUCSORGTOP
 10
0.0
 20
0.0
 30
0.0
  9
$PUCSORGBOTTOM
 10
0.0
 20
0.0
 30
0.0
  9
$PUCSORGLEFT
 10
0.0
 20
0.0
 30
0.0
  9
$PUCSORGRIGHT
 10
0.0
 20
0.0
 30
0.0
  9
$PUCSORGFRONT
 10
0.0
 20
0.0
 30
0.0
  9
$PUCSORGBACK
 10
0.0
 20
0.0
 30
0.0
  9
$USERI1
 70
     0
  9
$USERI2
 70
     0
  9
$USERI3
 70
     0
  9
$USERI4
 70
     0
  9
$USERI5
 70
     0
  9
$USERR1
 40
0.0
  9
$USERR2
 40
0.0
  9
$USERR3
 40
0.0
  9
$USERR4
 40
0.0
  9
$USERR5
 40
0.0
  9
$WORLDVIEW
 70
     1
  9
$SHADEDGE
 70
     3
  9
$SHADEDIF
 70
    70
  9
$TILEMODE
 70
     1
  9
$MAXACTVP
 70
    64
  9
$PINSBASE
 10
0.0
 20
0.0
 30
0.0
  9
$PLIMCHECK
 70
     0
  9
$PEXTMIN
 10
1.000000000000000E+20
 20
1.000000000000000E+20
 30
1.000000000000000E+20
  9
$PEXTMAX
 10
-1.000000000000000E+20
 20
-1.000000000000000E+20
 30
-1.000000000000000E+20
  9
$PLIMMIN
 10
0.0
 20
0.0
  9
$PLIMMAX
 10
12.0
 20
9.0
  9
$UNITMODE
 70
     0
  9
$VISRETAIN
 70
     1
  9
$PLINEGEN
 70
     0
  9
$PSLTSCALE
 70
     1
  9
$TREEDEPTH
 70
  3020
  9
$CMLSTYLE
  2
Standard
  9
$CMLJUST
 70
     0
  9
$CMLSCALE
 40
1.0
  9
$PROXYGRAPHICS
 70
     1
  9
$MEASUREMENT
 70
     0
  9
$CELWEIGHT
370
    -1
  9
$ENDCAPS
280
     0
  9
$JOINSTYLE
280
     0
  9
$LWDISPLAY
290
     0
  9
$INSUNITS
 70
     0
  9
$HYPERLINKBASE
  1

  9
$STYLESHEET
  1

  9
$XEDIT
290
     1
  9
$CEPSNTYPE
380
     0
  9
$PSTYLEMODE
290
     1
  9
$FINGERPRINTGUID
  2
{6CA87BE3-DD66-4807-9EF9-4E80EDA0C2BC}
  9
$VERSIONGUID
  2
{4CE50B01-F214-4A50-B58E-D543E81593C7}
  9
$EXTNAMES
290
     1
  9
$PSVPSCALE
 40
0.0
  9
$OLESTARTUP
290
     0
  0
ENDSEC
  0
SECTION
  2
CLASSES
  0
CLASS
  1
ACDBDICTIONARYWDFLT
  2
AcDbDictionaryWithDefault
  3
AutoCAD 2000
 90
        0
280
     0
281
     0
  0
CLASS
  1
ACDBPLACEHOLDER
  2
AcDbPlaceHolder
  3
AutoCAD 2000
 90
        0
280
     0
281
     0
  0
CLASS
  1
LAYOUT
  2
AcDbLayout
  3
AutoCAD 2000
 90
        0
280
     0
281
     0
  0
CLASS
  1
DICTIONARYVAR
  2
AcDbDictionaryVar
  3
AutoCAD 2000
 90
        0
280
     0
281
     0
  0
ENDSEC
  0
SECTION
  2
TABLES
  0
TABLE
  2
VPORT
  5
8
330
0
100
AcDbSymbolTable
 70
     3
  0
VPORT
  5
2B8
330
8
100
AcDbSymbolTableRecord
100
AcDbViewportTableRecord
  2
*Active
 70
     0
 10
0.0
 20
0.0
 11
1.0
 21
1.0
 12
75.0
 22
37.49999999999999
 13
0.0
 23
0.0
 14
1.0
 24
1.0
 15
0.0
 25
0.0
 16
0.0
 26
0.0
 36
1.0
 17
0.0
 27
0.0
 37
0.0
 40
75.99460915601024
 41
2.078104993597951
 42
50.0
 43
0.0
 44
0.0
 50
0.0
 51
0.0
 71
     0
 72
   100
 73
     1
 74
     3
 75
     0
 76
     0
 77
     0
 78
     0
281
     0
 65
     1
110
0.0
120
0.0
130
0.0
111
1.0
121
0.0
131
0.0
112
0.0
122
1.0
132
0.0
 79
     1
146
0.0
  0
ENDTAB
  0
TABLE
  2
LTYPE
  5
5
330
0
100
AcDbSymbolTable
 70
     1
  0
LTYPE
  5
13
330
5
100
AcDbSymbolTableRecord
100
AcDbLinetypeTableRecord
  2
ByBlock
 70
     0
  3

 72
    65
 73
     0
 40
0.0
  0
LTYPE
  5
14
330
5
100
AcDbSymbolTableRecord
100
AcDbLinetypeTableRecord
  2
ByLayer
 70
     0
  3

 72
    65
 73
     0
 40
0.0
  0
LTYPE
  5
15
330
5
100
AcDbSymbolTableRecord
100
AcDbLinetypeTableRecord
  2
Continuous
 70
     0
  3
Solid line
 72
    65
 73
     0
 40
0.0
  0
ENDTAB
  0
TABLE
  2
LAYER
  5
2
330
0
100
AcDbSymbolTable
 70
     1
  0
LAYER
  5
10
330
2
100
AcDbSymbolTableRecord
100
AcDbLayerTableRecord
  2
0
 70
     0
 62
     7
  6
Continuous
370
    -3
390
F
  0
ENDTAB
  0
TABLE
  2
STYLE
  5
3
330
0
100
AcDbSymbolTable
 70
     1
  0
STYLE
  5
11
330
3
100
AcDbSymbolTableRecord
100
AcDbTextStyleTableRecord
  2
Standard
 70
     0
 40
0.0
 41
1.0
 50
0.0
 71
     0
 42
0.2
  3
txt
  4

  0
ENDTAB
  0
TABLE
  2
VIEW
  5
6
330
0
100
AcDbSymbolTable
 70
     0
  0
ENDTAB
  0
TABLE
  2
UCS
  5
7
330
0
100
AcDbSymbolTable
 70
     0
  0
ENDTAB
  0
TABLE
  2
APPID
  5
9
330
0
100
AcDbSymbolTable
 70
     1
  0
APPID
  5
12
330
9
100
AcDbSymbolTableRecord
100
AcDbRegAppTableRecord
  2
ACAD
 70
     0
  0
ENDTAB
  0
TABLE
  2
DIMSTYLE
  5
A
330
0
100
AcDbSymbolTable
 70
     1
100
AcDbDimStyleTable
 71
     0
  0
DIMSTYLE
105
2AD
330
A
100
AcDbSymbolTableRecord
100
AcDbDimStyleTableRecord
  2
Standard
 70
     0
340
11
  0
ENDTAB
  0
TABLE
  2
BLOCK_RECORD
  5
1
330
0
100
AcDbSymbolTable
 70
     0
  0
BLOCK_RECORD
  5
1E
330
1
100
AcDbSymbolTableRecord
100
AcDbBlockTableRecord
  2
*Model_Space
340
21
  0
BLOCK_RECORD
  5
1A
330
1
100
AcDbSymbolTableRecord
100
AcDbBlockTableRecord
  2
*Paper_Space
340
1D
  0
ENDTAB
  0
ENDSEC
  0
SECTION
  2
BLOCKS
  0
BLOCK
  5
1F
330
1E
100
AcDbEntity
  8
0
100
AcDbBlockBegin
  2
*Model_Space
 70
     0
 10
0.0
 20
0.0
 30
0.0
  3
*Model_Space
  1

  0
ENDBLK
  5
20
330
1E
100
AcDbEntity
  8
0
100
AcDbBlockEnd
  0
BLOCK
  5
1B
330
1A
100
AcDbEntity
 67
     1
  8
0
100
AcDbBlockBegin
  2
*Paper_Space
 70
     0
 10
0.0
 20
0.0
 30
0.0
  3
*Paper_Space
  1

  0
ENDBLK
  5
1C
330
1A
100
AcDbEntity
 67
     1
  8
0
100
AcDbBlockEnd
  0
ENDSEC
  0
SECTION
  2
ENTITIES
  0
LINE
  5
23
330
1E
100
AcDbEntity
  8
0
100
AcDbLine
 10
59.82569999999999
 20
1.04139499999999
 30
0.0
 11
61.4662
 21
0.7206049999999859
 31
0.0
  0
LINE
  5
24
330
1E
100
AcDbEntity
  8
0
100
AcDbLine
 10
58.39030000000001
 20
1.379064999999989
 30
0.0
 11
59.82569999999999
 21
1.04139499999999
 31
0.0
  0
LINE
  5
25
330
1E
100
AcDbEntity
  8
0
100
AcDbLine
 10
58.0827
 20
1.47745499999999
 30
0.0
 11
58.39030000000001
 21
1.379064999999989
 31
0.0
  0
LINE
  5
28
330
1E
100
AcDbEntity
  8
0
100
AcDbLine
 10
57.0574
 20
1.84889499999998
 30
0.0
 11
58.0827
 21
1.47745499999999
 31
0.0
  0
LINE
  5
29
330
1E
100
AcDbEntity
  8
0
100
AcDbLine
 10
56.2372
 20
2.25409499999999
 30
0.0
 11
57.0574
 21
1.84889499999998
 31
0.0
  0
LINE
  5
2A
330
1E
100
AcDbEntity
  8
0
100
AcDbLine
 10
55.7246
 20
2.65930499999999
 30
0.0
 11
56.2372
 21
2.25409499999999
 31
0.0
  0
LINE
  5
2B
330
1E
100
AcDbEntity
  8
0
100
AcDbLine
 10
55.5195
 20
3.08139499999999
 30
0.0
 11
55.7246
 21
2.65930499999999
 31
0.0
  0
LINE
  5
2C
330
1E
100
AcDbEntity
  8
0
100
AcDbLine
 10
57.16
 20
15.131585
 30
0.0
 11
59.108
 21
15.486085
 31
0.0
  0
LINE
  5
2D
330
1E
100
AcDbEntity
  8
0
100
AcDbLine
 10
55.417
 20
14.726385
 30
0.0
 11
57.16
 21
15.131585
 31
0.0
  0
LINE
  5
2E
330
1E
100
AcDbEntity
  8
0
100
AcDbLine
 10
54.1866
 20
14.287385
 30
0.0
 11
55.417
 21
14.726385
 31
0.0
  0
LINE
  5
2F
330
1E
100
AcDbEntity
  8
0
100
AcDbLine
 10
53.26389999999999
 20
13.831485
 30
0.0
 11
54.1866
 21
14.287385
 31
0.0
  0
LINE
  5
30
330
1E
100
AcDbEntity
  8
0
100
AcDbLine
 10
52.6487
 20
13.358785
 30
0.0
 11
53.26389999999999
 21
13.831485
 31
0.0
  0
LINE
  5
31
330
1E
100
AcDbEntity
  8
0
100
AcDbLine
 10
52.4436
 20
12.869185
 30
0.0
 11
52.6487
 21
13.358785
 31
0.0
  0
LINE
  5
32
330
1E
100
AcDbEntity
  8
0
100
AcDbLine
 10
52.4436
 20
12.869185
 30
0.0
 11
55.5195
 21
3.08139499999999
 31
0.0
  0
LINE
  5
33
330
1E
100
AcDbEntity
  8
0
100
AcDbLine
 10
52.4436
 20
12.869185
 30
0.0
 11
52.6111
 21
19.620385
 31
0.0
  0
LINE
  5
34
330
1E
100
AcDbEntity
  8
0
100
AcDbLine
 10
59.108
 20
15.486085
 30
0.0
 11
61.2611
 21
15.806885
 31
0.0
  0
LINE
  5
35
330
1E
100
AcDbEntity
  8
0
100
AcDbLine
 10
63.3982
 20
11.971485
 30
0.0
 11
63.6542
 21
11.965185
 31
0.0
  0
LINE
  5
36
330
1E
100
AcDbEntity
  8
0
100
AcDbLine
 10
63.1582
 20
11.98808499999999
 30
0.0
 11
63.3982
 21
11.971485
 31
0.0
  0
LINE
  5
37
330
1E
100
AcDbEntity
  8
0
100
AcDbLine
 10
62.9462
 20
12.015885
 30
0.0
 11
63.1582
 21
11.98808499999999
 31
0.0
  0
LINE
  5
38
330
1E
100
AcDbEntity
  8
0
100
AcDbLine
 10
62.7862
 20
12.052685
 30
0.0
 11
62.9462
 21
12.015885
 31
0.0
  0
LINE
  5
39
330
1E
100
AcDbEntity
  8
0
100
AcDbLine
 10
62.7862
 20
12.224985
 30
0.0
 11
62.9462
 21
12.261785
 31
0.0
  0
LINE
  5
3A
330
1E
100
AcDbEntity
  8
0
100
AcDbLine
 10
62.6902
 20
12.183285
 30
0.0
 11
62.7862
 21
12.224985
 31
0.0
  0
LINE
  5
3B
330
1E
100
AcDbEntity
  8
0
100
AcDbLine
 10
63.3982
 20
12.306285
 30
0.0
 11
63.6542
 21
12.312485
 31
0.0
  0
LINE
  5
3C
330
1E
100
AcDbEntity
  8
0
100
AcDbLine
 10
63.1582
 20
12.289585
 30
0.0
 11
63.3982
 21
12.306285
 31
0.0
  0
LINE
  5
3D
330
1E
100
AcDbEntity
  8
0
100
AcDbLine
 10
62.9462
 20
12.261785
 30
0.0
 11
63.1582
 21
12.289585
 31
0.0
  0
LINE
  5
3E
330
1E
100
AcDbEntity
  8
0
100
AcDbLine
 10
62.6902
 20
12.094385
 30
0.0
 11
62.7862
 21
12.052685
 31
0.0
  0
LINE
  5
3F
330
1E
100
AcDbEntity
  8
0
100
AcDbLine
 10
62.6542
 20
12.138885
 30
0.0
 11
62.6902
 21
12.094385
 31
0.0
  0
LINE
  5
40
330
1E
100
AcDbEntity
  8
0
100
AcDbLine
 10
62.6542
 20
12.138885
 30
0.0
 11
62.6902
 21
12.183285
 31
0.0
  0
LINE
  5
41
330
1E
100
AcDbEntity
  8
0
100
AcDbLine
 10
61.4662
 20
0.7206049999999859
 30
0.0
 11
63.4142
 21
0.450474999999986
 31
0.0
  0
LINE
  5
42
330
1E
100
AcDbEntity
  8
0
100
AcDbLine
 10
63.6542
 20
11.965185
 30
0.0
 11
63.91020000000001
 21
11.971485
 31
0.0
  0
LINE
  5
43
330
1E
100
AcDbEntity
  8
0
100
AcDbLine
 10
63.91020000000001
 20
11.971485
 30
0.0
 11
64.1502
 21
11.98808499999999
 31
0.0
  0
LINE
  5
44
330
1E
100
AcDbEntity
  8
0
100
AcDbLine
 10
64.1502
 20
11.98808499999999
 30
0.0
 11
64.3622
 21
12.015885
 31
0.0
  0
LINE
  5
45
330
1E
100
AcDbEntity
  8
0
100
AcDbLine
 10
64.3622
 20
12.015885
 30
0.0
 11
64.5222
 21
12.052685
 31
0.0
  0
LINE
  5
46
330
1E
100
AcDbEntity
  8
0
100
AcDbLine
 10
64.5222
 20
12.052685
 30
0.0
 11
64.6182
 21
12.094385
 31
0.0
  0
LINE
  5
47
330
1E
100
AcDbEntity
  8
0
100
AcDbLine
 10
63.6542
 20
12.312485
 30
0.0
 11
63.91020000000001
 21
12.306285
 31
0.0
  0
LINE
  5
48
330
1E
100
AcDbEntity
  8
0
100
AcDbLine
 10
63.91020000000001
 20
12.306285
 30
0.0
 11
64.1502
 21
12.289585
 31
0.0
  0
LINE
  5
49
330
1E
100
AcDbEntity
  8
0
100
AcDbLine
 10
64.1502
 20
12.289585
 30
0.0
 11
64.3622
 21
12.261785
 31
0.0
  0
LINE
  5
4A
330
1E
100
AcDbEntity
  8
0
100
AcDbLine
 10
64.3622
 20
12.261785
 30
0.0
 11
64.5222
 21
12.224985
 31
0.0
  0
LINE
  5
4B
330
1E
100
AcDbEntity
  8
0
100
AcDbLine
 10
64.5222
 20
12.224985
 30
0.0
 11
64.6182
 21
12.183285
 31
0.0
  0
LINE
  5
4C
330
1E
100
AcDbEntity
  8
0
100
AcDbLine
 10
64.6182
 20
12.183285
 30
0.0
 11
64.6542
 21
12.138885
 31
0.0
  0
LINE
  5
4D
330
1E
100
AcDbEntity
  8
0
100
AcDbLine
 10
64.6182
 20
12.094385
 30
0.0
 11
64.6542
 21
12.138885
 31
0.0
  0
LINE
  5
4E
330
1E
100
AcDbEntity
  8
0
100
AcDbLine
 10
63.4142
 20
0.450474999999986
 30
0.0
 11
65.46479999999999
 21
0.214104999999986
 31
0.0
  0
LINE
  5
4F
330
1E
100
AcDbEntity
  8
0
100
AcDbLine
 10
65.46479999999999
 20
0.214104999999986
 30
0.0
 11
67.7204
 21
0.0452749999999862
 31
0.0
  0
LINE
  5
50
330
1E
100
AcDbEntity
  8
0
100
AcDbLine
 10
61.2611
 20
15.806885
 30
0.0
 11
63.7218
 21
16.093885
 31
0.0
  0
LINE
  5
51
330
1E
100
AcDbEntity
  8
0
100
AcDbLine
 10
63.7218
 20
16.093885
 30
0.0
 11
66.38760000000001
 21
16.296485
 31
0.0
  0
LINE
  5
52
330
1E
100
AcDbEntity
  8
0
100
AcDbLine
 10
67.7204
 20
0.0452749999999862
 30
0.0
 11
70.07859999999999
 21
-0.0897950000000139
 31
0.0
  0
LINE
  5
53
330
1E
100
AcDbEntity
  8
0
100
AcDbLine
 10
70.07859999999999
 20
-0.0897950000000139
 30
0.0
 11
72.5393
 21
-0.174215000000016
 31
0.0
  0
LINE
  5
54
330
1E
100
AcDbEntity
  8
0
100
AcDbLine
 10
66.38760000000001
 20
16.296485
 30
0.0
 11
69.1559
 21
16.448485
 31
0.0
  0
LINE
  5
55
330
1E
100
AcDbEntity
  8
0
100
AcDbLine
 10
3.35294
 20
62.207985
 30
0.0
 11
5.294119999999999
 21
62.207985
 31
0.0
  0
LINE
  5
56
330
1E
100
AcDbEntity
  8
0
100
AcDbLine
 10
5.294119999999999
 20
62.207985
 30
0.0
 11
8.294119999999999
 21
62.207985
 31
0.0
  0
LINE
  5
57
330
1E
100
AcDbEntity
  8
0
100
AcDbLine
 10
8.294119999999999
 20
62.207985
 30
0.0
 11
12.35289999999999
 21
62.207985
 31
0.0
  0
LINE
  5
58
330
1E
100
AcDbEntity
  8
0
100
AcDbLine
 10
0.0
 20
75.20798499999999
 30
0.0
 11
0.7941180000000001
 21
75.20798499999999
 31
0.0
  0
LINE
  5
59
330
1E
100
AcDbEntity
  8
0
100
AcDbLine
 10
0.0
 20
75.20798499999999
 30
0.0
 11
0.0
 21
65.20798499999999
 31
0.0
  0
LINE
  5
5A
330
1E
100
AcDbEntity
  8
0
100
AcDbLine
 10
0.7941180000000001
 20
75.20798499999999
 30
0.0
 11
2.735289999999999
 21
75.20798499999999
 31
0.0
  0
LINE
  5
5B
330
1E
100
AcDbEntity
  8
0
100
AcDbLine
 10
0.7941180000000001
 20
75.20798499999999
 30
0.0
 11
2.735289999999999
 21
75.20798499999999
 31
0.0
  0
LINE
  5
5C
330
1E
100
AcDbEntity
  8
0
100
AcDbLine
 10
0.4411760000000001
 20
63.807985
 30
0.0
 11
1.41176
 21
62.707985
 31
0.0
  0
LINE
  5
5D
330
1E
100
AcDbEntity
  8
0
100
AcDbLine
 10
0.0
 20
65.20798499999999
 30
0.0
 11
0.4411760000000001
 21
63.807985
 31
0.0
  0
LINE
  5
5E
330
1E
100
AcDbEntity
  8
0
100
AcDbLine
 10
0.0
 20
65.20798499999999
 30
0.0
 11
0.0
 21
75.20798499999999
 31
0.0
  0
LINE
  5
5F
330
1E
100
AcDbEntity
  8
0
100
AcDbLine
 10
1.41176
 20
62.707985
 30
0.0
 11
2.647059999999999
 21
62.207985
 31
0.0
  0
LINE
  5
60
330
1E
100
AcDbEntity
  8
0
100
AcDbLine
 10
15.6176
 20
75.20798499999999
 30
0.0
 11
22.0588
 21
75.20798499999999
 31
0.0
  0
LINE
  5
61
330
1E
100
AcDbEntity
  8
0
100
AcDbLine
 10
10.0588
 20
75.20798499999999
 30
0.0
 11
15.6176
 21
75.20798499999999
 31
0.0
  0
LINE
  5
62
330
1E
100
AcDbEntity
  8
0
100
AcDbLine
 10
5.823529999999999
 20
75.20798499999999
 30
0.0
 11
10.0588
 21
75.20798499999999
 31
0.0
  0
LINE
  5
63
330
1E
100
AcDbEntity
  8
0
100
AcDbLine
 10
2.735289999999999
 20
75.20798499999999
 30
0.0
 11
5.823529999999999
 21
75.20798499999999
 31
0.0
  0
LINE
  5
64
330
1E
100
AcDbEntity
  8
0
100
AcDbLine
 10
2.647059999999999
 20
62.207985
 30
0.0
 11
3.35294
 21
62.207985
 31
0.0
  0
LINE
  5
65
330
1E
100
AcDbEntity
  8
0
100
AcDbLine
 10
12.35289999999999
 20
62.207985
 30
0.0
 11
17.6471
 21
62.207985
 31
0.0
  0
LINE
  5
66
330
1E
100
AcDbEntity
  8
0
100
AcDbLine
 10
47.3824
 20
62.207985
 30
0.0
 11
97.0
 21
62.207985
 31
0.0
  0
LINE
  5
67
330
1E
100
AcDbEntity
  8
0
100
AcDbLine
 10
39.0
 20
62.207985
 30
0.0
 11
47.3824
 21
62.207985
 31
0.0
  0
LINE
  5
68
330
1E
100
AcDbEntity
  8
0
100
AcDbLine
 10
31.0588
 20
62.207985
 30
0.0
 11
39.0
 21
62.207985
 31
0.0
  0
LINE
  5
6A
330
1E
100
AcDbEntity
  8
0
100
AcDbLine
 10
46.3235
 20
75.20798499999999
 30
0.0
 11
55.6765
 21
75.20798499999999
 31
0.0
  0
LINE
  5
6B
330
1E
100
AcDbEntity
  8
0
100
AcDbLine
 10
37.67649999999999
 20
75.20798499999999
 30
0.0
 11
46.3235
 21
75.20798499999999
 31
0.0
  0
LINE
  5
DE
330
1E
100
AcDbEntity
  8
0
100
AcDbLine
 10
29.3824
 20
75.20798499999999
 30
0.0
 11
37.67649999999999
 21
75.20798499999999
 31
0.0
  0
LINE
  5
DF
330
1E
100
AcDbEntity
  8
0
100
AcDbLine
 10
22.0588
 20
75.20798499999999
 30
0.0
 11
29.3824
 21
75.20798499999999
 31
0.0
  0
LINE
  5
E0
330
1E
100
AcDbEntity
  8
0
100
AcDbLine
 10
23.91179999999999
 20
62.207985
 30
0.0
 11
31.0588
 21
62.207985
 31
0.0
  0
LINE
  5
E1
330
1E
100
AcDbEntity
  8
0
100
AcDbLine
 10
17.6471
 20
62.207985
 30
0.0
 11
23.91179999999999
 21
62.207985
 31
0.0
  0
LINE
  5
E2
330
1E
100
AcDbEntity
  8
0
100
AcDbLine
 10
52.6111
 20
19.620385
 30
0.0
 11
52.6274
 21
21.776485
 31
0.0
  0
LINE
  5
E3
330
1E
100
AcDbEntity
  8
0
100
AcDbLine
 10
53.26399999999999
 20
50.848185
 30
0.0
 11
53.792
 21
50.056585
 31
0.0
  0
LINE
  5
E4
330
1E
100
AcDbEntity
  8
0
100
AcDbLine
 10
65.4
 20
39.207985
 30
0.0
 11
66.29999999999999
 21
39.207985
 31
0.0
  0
LINE
  5
E5
330
1E
100
AcDbEntity
  8
0
100
AcDbLine
 10
66.29999999999999
 20
39.207985
 30
0.0
 11
67.9
 21
39.207985
 31
0.0
  0
LINE
  5
E6
330
1E
100
AcDbEntity
  8
0
100
AcDbLine
 10
67.9
 20
39.207985
 30
0.0
 11
70.0
 21
39.207985
 31
0.0
  0
LINE
  5
E7
330
1E
100
AcDbEntity
  8
0
100
AcDbLine
 10
67.5
 20
27.20798499999999
 30
0.0
 11
71.5
 21
22.207985
 31
0.0
  0
LINE
  5
E8
330
1E
100
AcDbEntity
  8
0
100
AcDbLine
 10
66.0
 20
32.207985
 30
0.0
 11
67.5
 21
27.20798499999999
 31
0.0
  0
LINE
  5
E9
330
1E
100
AcDbEntity
  8
0
100
AcDbLine
 10
65.0
 20
39.207985
 30
0.0
 11
66.0
 21
32.207985
 31
0.0
  0
LINE
  5
EA
330
1E
100
AcDbEntity
  8
0
100
AcDbLine
 10
65.0
 20
39.207985
 30
0.0
 11
65.4
 21
39.207985
 31
0.0
  0
LINE
  5
EB
330
1E
100
AcDbEntity
  8
0
100
AcDbLine
 10
69.0
 20
39.207985
 30
0.0
 11
71.0
 21
50.207985
 31
0.0
  0
LINE
  5
EC
330
1E
100
AcDbEntity
  8
0
100
AcDbLine
 10
54.0
 20
51.207985
 30
0.0
 11
54.23588429394611
 21
49.7253684447136
 31
0.0
  0
LINE
  5
ED
330
1E
100
AcDbEntity
  8
0
100
AcDbLine
 10
54.0
 20
51.207985
 30
0.0
 11
54.0
 21
57.207985
 31
0.0
  0
LINE
  5
EE
330
1E
100
AcDbEntity
  8
0
100
AcDbLine
 10
54.0
 20
51.210485
 30
0.0
 11
54.23633562449619
 21
49.7250316719281
 31
0.0
  0
LINE
  5
EF
330
1E
100
AcDbEntity
  8
0
100
AcDbLine
 10
54.0
 20
51.210485
 30
0.0
 11
54.0
 21
53.21048499999999
 31
0.0
  0
LINE
  5
F0
330
1E
100
AcDbEntity
  8
0
100
AcDbLine
 10
53.792
 20
50.056585
 30
0.0
 11
54.75999999999999
 21
49.33428499999999
 31
0.0
  0
LINE
  5
F1
330
1E
100
AcDbEntity
  8
0
100
AcDbLine
 10
54.75999999999999
 20
49.33428499999999
 30
0.0
 11
55.90399999999999
 21
48.601285
 31
0.0
  0
LINE
  5
F2
330
1E
100
AcDbEntity
  8
0
100
AcDbLine
 10
55.90399999999999
 20
48.601285
 30
0.0
 11
57.576
 21
47.912585
 31
0.0
  0
LINE
  5
F3
330
1E
100
AcDbEntity
  8
0
100
AcDbLine
 10
57.576
 20
47.912585
 30
0.0
 11
59.512
 21
47.34498499999999
 31
0.0
  0
LINE
  5
F4
330
1E
100
AcDbEntity
  8
0
100
AcDbLine
 10
59.512
 20
47.34498499999999
 30
0.0
 11
61.62399999999999
 21
46.791285
 31
0.0
  0
LINE
  5
F5
330
1E
100
AcDbEntity
  8
0
100
AcDbLine
 10
61.62399999999999
 20
46.791285
 30
0.0
 11
64.08800000000001
 21
46.346385
 31
0.0
  0
LINE
  5
F6
330
1E
100
AcDbEntity
  8
0
100
AcDbLine
 10
64.08800000000001
 20
46.346385
 30
0.0
 11
66.64
 21
46.039085
 31
0.0
  0
LINE
  5
F7
330
1E
100
AcDbEntity
  8
0
100
AcDbLine
 10
66.64
 20
46.039085
 30
0.0
 11
69.36799999999999
 21
45.75738499999999
 31
0.0
  0
LINE
  5
F8
330
1E
100
AcDbEntity
  8
0
100
AcDbLine
 10
70.0
 20
39.207985
 30
0.0
 11
72.40000000000001
 21
39.207985
 31
0.0
  0
LINE
  5
F9
330
1E
100
AcDbEntity
  8
0
100
AcDbLine
 10
71.09999999999999
 20
50.207985
 30
0.0
 11
71.5
 21
50.207985
 31
0.0
  0
LINE
  5
FA
330
1E
100
AcDbEntity
  8
0
100
AcDbLine
 10
71.5
 20
50.207985
 30
0.0
 11
72.2
 21
50.207985
 31
0.0
  0
LINE
  5
FB
330
1E
100
AcDbEntity
  8
0
100
AcDbLine
 10
71.5
 20
22.207985
 30
0.0
 11
75.0
 21
21.207985
 31
0.0
  0
LINE
  5
FF
330
1E
100
AcDbEntity
  8
0
100
AcDbLine
 10
71.0
 20
50.207985
 30
0.0
 11
71.09999999999999
 21
50.207985
 31
0.0
  0
LINE
  5
100
330
1E
100
AcDbEntity
  8
0
100
AcDbLine
 10
69.36799999999999
 20
45.75738499999999
 30
0.0
 11
70.1818929602722
 21
45.7083962814968
 31
0.0
  0
LINE
  5
101
330
1E
100
AcDbEntity
  8
0
100
AcDbLine
 10
53.792
 20
51.747285
 30
0.0
 11
54.0
 21
51.747285
 31
0.0
  0
LINE
  5
102
330
1E
100
AcDbEntity
  8
0
100
AcDbLine
 10
53.26399999999999
 20
51.747285
 30
0.0
 11
53.792
 21
51.747285
 31
0.0
  0
LINE
  5
103
330
1E
100
AcDbEntity
  8
0
100
AcDbLine
 10
54.0
 20
57.207985
 30
0.0
 11
54.0
 21
51.207985
 31
0.0
  0
LINE
  5
104
330
1E
100
AcDbEntity
  8
0
100
AcDbLine
 10
53.528
 20
57.207985
 30
0.0
 11
54.32
 21
57.207985
 31
0.0
  0
LINE
  5
105
330
1E
100
AcDbEntity
  8
0
100
AcDbLine
 10
53.528
 20
57.207985
 30
0.0
 11
54.0
 21
57.207985
 31
0.0
  0
LINE
  5
106
330
1E
100
AcDbEntity
  8
0
100
AcDbLine
 10
53.0
 20
57.80798499999999
 30
0.0
 11
53.0
 21
62.207985
 31
0.0
  0
LINE
  5
107
330
1E
100
AcDbEntity
  8
0
100
AcDbLine
 10
53.0
 20
57.80798499999999
 30
0.0
 11
53.792
 21
57.80798499999999
 31
0.0
  0
LINE
  5
108
330
1E
100
AcDbEntity
  8
0
100
AcDbLine
 10
53.0
 20
57.80798499999999
 30
0.0
 11
53.528
 21
57.207985
 31
0.0
  0
LINE
  5
10B
330
1E
100
AcDbEntity
  8
0
100
AcDbLine
 10
53.0
 20
62.207985
 30
0.0
 11
53.0
 21
57.80798499999999
 31
0.0
  0
LINE
  5
10C
330
1E
100
AcDbEntity
  8
0
100
AcDbLine
 10
53.792
 20
57.80798499999999
 30
0.0
 11
55.90399999999999
 21
57.80798499999999
 31
0.0
  0
LINE
  5
10D
330
1E
100
AcDbEntity
  8
0
100
AcDbLine
 10
69.2
 20
53.207985
 30
0.0
 11
69.8
 21
53.207985
 31
0.0
  0
LINE
  5
10E
330
1E
100
AcDbEntity
  8
0
100
AcDbLine
 10
69.8
 20
53.207985
 30
0.0
 11
70.8
 21
53.207985
 31
0.0
  0
LINE
  5
10F
330
1E
100
AcDbEntity
  8
0
100
AcDbLine
 10
70.8
 20
53.207985
 30
0.0
 11
72.0
 21
53.207985
 31
0.0
  0
LINE
  5
110
330
1E
100
AcDbEntity
  8
0
100
AcDbLine
 10
72.0
 20
53.207985
 30
0.0
 11
73.5
 21
53.207985
 31
0.0
  0
LINE
  5
111
330
1E
100
AcDbEntity
  8
0
100
AcDbLine
 10
69.0
 20
53.207985
 30
0.0
 11
71.0
 21
50.207985
 31
0.0
  0
LINE
  5
112
330
1E
100
AcDbEntity
  8
0
100
AcDbLine
 10
69.0
 20
53.207985
 30
0.0
 11
69.2
 21
53.207985
 31
0.0
  0
LINE
  5
113
330
1E
100
AcDbEntity
  8
0
100
AcDbLine
 10
54.76359999999999
 20
53.21048499999999
 30
0.0
 11
55.6227
 21
53.21048499999999
 31
0.0
  0
LINE
  5
115
330
1E
100
AcDbEntity
  8
0
100
AcDbLine
 10
54.32
 20
57.207985
 30
0.0
 11
56.432
 21
57.207985
 31
0.0
  0
LINE
  5
116
330
1E
100
AcDbEntity
  8
0
100
AcDbLine
 10
60.2045
 20
53.21048499999999
 30
0.0
 11
62.20909999999999
 21
53.21048499999999
 31
0.0
  0
LINE
  5
117
330
1E
100
AcDbEntity
  8
0
100
AcDbLine
 10
62.20909999999999
 20
53.21048499999999
 30
0.0
 11
64.5
 21
53.21048499999999
 31
0.0
  0
LINE
  5
118
330
1E
100
AcDbEntity
  8
0
100
AcDbLine
 10
64.5
 20
53.21048499999999
 30
0.0
 11
66.9818
 21
53.21048499999999
 31
0.0
  0
LINE
  5
119
330
1E
100
AcDbEntity
  8
0
100
AcDbLine
 10
66.9818
 20
53.21048499999999
 30
0.0
 11
68.97999999999989
 21
53.21048499999999
 31
0.0
  0
LINE
  5
11A
330
1E
100
AcDbEntity
  8
0
100
AcDbLine
 10
58.3909
 20
53.21048499999999
 30
0.0
 11
60.2045
 21
53.21048499999999
 31
0.0
  0
LINE
  5
11B
330
1E
100
AcDbEntity
  8
0
100
AcDbLine
 10
56.432
 20
57.207985
 30
0.0
 11
59.86399999999999
 21
57.207985
 31
0.0
  0
LINE
  5
11C
330
1E
100
AcDbEntity
  8
0
100
AcDbLine
 10
55.6765
 20
75.20798499999999
 30
0.0
 11
65.2059
 21
75.20798499999999
 31
0.0
  0
LINE
  5
123
330
1E
100
AcDbEntity
  8
0
100
AcDbLine
 10
55.90399999999999
 20
57.80798499999999
 30
0.0
 11
59.424
 21
57.80798499999999
 31
0.0
  0
LINE
  5
125
330
1E
100
AcDbEntity
  8
0
100
AcDbLine
 10
60.0
 20
55.207985
 30
0.0
 11
60.0
 21
62.207985
 31
0.0
  0
LINE
  5
126
330
1E
100
AcDbEntity
  8
0
100
AcDbLine
 10
60.0
 20
55.207985
 30
0.0
 11
60.5
 21
55.207985
 31
0.0
  0
LINE
  5
127
330
1E
100
AcDbEntity
  8
0
100
AcDbLine
 10
60.0
 20
55.207985
 30
0.0
 11
61.0
 21
54.207985
 31
0.0
  0
LINE
  5
128
330
1E
100
AcDbEntity
  8
0
100
AcDbLine
 10
60.5
 20
55.207985
 30
0.0
 11
62.0
 21
55.207985
 31
0.0
  0
LINE
  5
136
330
1E
100
AcDbEntity
  8
0
100
AcDbLine
 10
62.0
 20
55.207985
 30
0.0
 11
64.40000000000001
 21
55.207985
 31
0.0
  0
LINE
  5
139
330
1E
100
AcDbEntity
  8
0
100
AcDbLine
 10
64.40000000000001
 20
55.207985
 30
0.0
 11
67.5
 21
55.207985
 31
0.0
  0
LINE
  5
13A
330
1E
100
AcDbEntity
  8
0
100
AcDbLine
 10
67.5
 20
55.207985
 30
0.0
 11
71.09999999999999
 21
55.207985
 31
0.0
  0
LINE
  5
13C
330
1E
100
AcDbEntity
  8
0
100
AcDbLine
 10
71.09999999999999
 20
55.207985
 30
0.0
 11
75.0
 21
55.207985
 31
0.0
  0
LINE
  5
13E
330
1E
100
AcDbEntity
  8
0
100
AcDbLine
 10
61.0
 20
54.207985
 30
0.0
 11
69.0
 21
53.207985
 31
0.0
  0
LINE
  5
13F
330
1E
100
AcDbEntity
  8
0
100
AcDbLine
 10
60.0
 20
62.207985
 30
0.0
 11
60.0
 21
55.207985
 31
0.0
  0
LINE
  5
14C
330
1E
100
AcDbEntity
  8
0
100
AcDbLine
 10
65.2059
 20
75.20798499999999
 30
0.0
 11
75.0
 21
75.20798499999999
 31
0.0
  0
LINE
  5
15D
330
1E
100
AcDbEntity
  8
0
100
AcDbLine
 10
59.86399999999999
 20
57.207985
 30
0.0
 11
60.0
 21
57.207985
 31
0.0
  0
LINE
  5
15E
330
1E
100
AcDbEntity
  8
0
100
AcDbLine
 10
59.424
 20
57.80798499999999
 30
0.0
 11
60.0
 21
57.80798499999999
 31
0.0
  0
LINE
  5
15F
330
1E
100
AcDbEntity
  8
0
100
AcDbLine
 10
56.7682
 20
53.21048499999999
 30
0.0
 11
58.3909
 21
53.21048499999999
 31
0.0
  0
LINE
  5
160
330
1E
100
AcDbEntity
  8
0
100
AcDbLine
 10
55.6227
 20
53.21048499999999
 30
0.0
 11
56.7682
 21
53.21048499999999
 31
0.0
  0
LINE
  5
161
330
1E
100
AcDbEntity
  8
0
100
AcDbLine
 10
54.1909
 20
53.21048499999999
 30
0.0
 11
54.76359999999999
 21
53.21048499999999
 31
0.0
  0
LINE
  5
162
330
1E
100
AcDbEntity
  8
0
100
AcDbLine
 10
54.0
 20
53.21048499999999
 30
0.0
 11
54.0
 21
51.210485
 31
0.0
  0
LINE
  5
163
330
1E
100
AcDbEntity
  8
0
100
AcDbLine
 10
54.0
 20
53.21048499999999
 30
0.0
 11
54.1909
 21
53.21048499999999
 31
0.0
  0
LINE
  5
164
330
1E
100
AcDbEntity
  8
0
100
AcDbLine
 10
53.0
 20
51.747285
 30
0.0
 11
53.26399999999999
 21
51.747285
 31
0.0
  0
LINE
  5
165
330
1E
100
AcDbEntity
  8
0
100
AcDbLine
 10
53.0
 20
51.747285
 30
0.0
 11
53.26399999999999
 21
50.848185
 31
0.0
  0
LINE
  5
166
330
1E
100
AcDbEntity
  8
0
100
AcDbLine
 10
52.6274
 20
21.776485
 30
0.0
 11
53.0
 21
51.747285
 31
0.0
  0
LINE
  5
167
330
1E
100
AcDbEntity
  8
0
100
AcDbLine
 10
69.1559
 20
16.448485
 30
0.0
 11
72.02670000000001
 21
16.549785
 31
0.0
  0
LINE
  5
168
330
1E
100
AcDbEntity
  8
0
100
AcDbLine
 10
77.4607
 20
-0.174215000000016
 30
0.0
 11
79.9214
 21
-0.0897950000000139
 31
0.0
  0
LINE
  5
169
330
1E
100
AcDbEntity
  8
0
100
AcDbLine
 10
75.0
 20
-0.207985000000015
 30
0.0
 11
77.4607
 21
-0.174215000000016
 31
0.0
  0
LINE
  5
16D
330
1E
100
AcDbEntity
  8
0
100
AcDbLine
 10
75.0
 20
21.207985
 30
0.0
 11
78.5
 21
22.207985
 31
0.0
  0
LINE
  5
16E
330
1E
100
AcDbEntity
  8
0
100
AcDbLine
 10
72.40000000000001
 20
39.207985
 30
0.0
 11
75.0
 21
39.207985
 31
0.0
  0
LINE
  5
16F
330
1E
100
AcDbEntity
  8
0
100
AcDbLine
 10
72.2
 20
50.207985
 30
0.0
 11
73.0
 21
50.207985
 31
0.0
  0
LINE
  5
170
330
1E
100
AcDbEntity
  8
0
100
AcDbLine
 10
73.0
 20
50.207985
 30
0.0
 11
74.0
 21
50.207985
 31
0.0
  0
LINE
  5
171
330
1E
100
AcDbEntity
  8
0
100
AcDbLine
 10
74.0
 20
50.207985
 30
0.0
 11
75.0
 21
50.207985
 31
0.0
  0
LINE
  5
173
330
1E
100
AcDbEntity
  8
0
100
AcDbLine
 10
75.0
 20
39.207985
 30
0.0
 11
77.59999999999999
 21
39.207985
 31
0.0
  0
LINE
  5
174
330
1E
100
AcDbEntity
  8
0
100
AcDbLine
 10
73.5
 20
53.207985
 30
0.0
 11
75.0
 21
53.207985
 31
0.0
  0
LINE
  5
175
330
1E
100
AcDbEntity
  8
0
100
AcDbLine
 10
75.0
 20
50.207985
 30
0.0
 11
76.0
 21
50.207985
 31
0.0
  0
LINE
  5
176
330
1E
100
AcDbEntity
  8
0
100
AcDbLine
 10
75.0
 20
53.207985
 30
0.0
 11
76.5
 21
53.207985
 31
0.0
  0
LINE
  5
17A
330
1E
100
AcDbEntity
  8
0
100
AcDbLine
 10
75.0
 20
55.207985
 30
0.0
 11
78.9
 21
55.207985
 31
0.0
  0
LINE
  5
182
330
1E
100
AcDbEntity
  8
0
100
AcDbLine
 10
75.0
 20
75.20798499999999
 30
0.0
 11
84.79409999999999
 21
75.20798499999999
 31
0.0
  0
LINE
  5
184
330
1E
100
AcDbEntity
  8
0
100
AcDbLine
 10
79.9214
 20
-0.0897950000000139
 30
0.0
 11
82.27960000000001
 21
0.0452749999999862
 31
0.0
  0
LINE
  5
185
330
1E
100
AcDbEntity
  8
0
100
AcDbLine
 10
86.0898
 20
11.971485
 30
0.0
 11
86.34579999999999
 21
11.965185
 31
0.0
  0
LINE
  5
186
330
1E
100
AcDbEntity
  8
0
100
AcDbLine
 10
85.84979999999999
 20
11.98808499999999
 30
0.0
 11
86.0898
 21
11.971485
 31
0.0
  0
LINE
  5
187
330
1E
100
AcDbEntity
  8
0
100
AcDbLine
 10
85.63779999999999
 20
12.015885
 30
0.0
 11
85.84979999999999
 21
11.98808499999999
 31
0.0
  0
LINE
  5
188
330
1E
100
AcDbEntity
  8
0
100
AcDbLine
 10
85.47780000000001
 20
12.052685
 30
0.0
 11
85.63779999999999
 21
12.015885
 31
0.0
  0
LINE
  5
189
330
1E
100
AcDbEntity
  8
0
100
AcDbLine
 10
85.3818
 20
12.094385
 30
0.0
 11
85.47780000000001
 21
12.052685
 31
0.0
  0
LINE
  5
18A
330
1E
100
AcDbEntity
  8
0
100
AcDbLine
 10
86.0898
 20
12.306285
 30
0.0
 11
86.34579999999999
 21
12.312485
 31
0.0
  0
LINE
  5
18B
330
1E
100
AcDbEntity
  8
0
100
AcDbLine
 10
85.84979999999999
 20
12.289585
 30
0.0
 11
86.0898
 21
12.306285
 31
0.0
  0
LINE
  5
18C
330
1E
100
AcDbEntity
  8
0
100
AcDbLine
 10
85.63779999999999
 20
12.261785
 30
0.0
 11
85.84979999999999
 21
12.289585
 31
0.0
  0
LINE
  5
18D
330
1E
100
AcDbEntity
  8
0
100
AcDbLine
 10
85.47780000000001
 20
12.224985
 30
0.0
 11
85.63779999999999
 21
12.261785
 31
0.0
  0
LINE
  5
18E
330
1E
100
AcDbEntity
  8
0
100
AcDbLine
 10
85.3818
 20
12.183285
 30
0.0
 11
85.47780000000001
 21
12.224985
 31
0.0
  0
LINE
  5
18F
330
1E
100
AcDbEntity
  8
0
100
AcDbLine
 10
85.3458
 20
12.138885
 30
0.0
 11
85.3818
 21
12.094385
 31
0.0
  0
LINE
  5
190
330
1E
100
AcDbEntity
  8
0
100
AcDbLine
 10
85.3458
 20
12.138885
 30
0.0
 11
85.3818
 21
12.183285
 31
0.0
  0
LINE
  5
191
330
1E
100
AcDbEntity
  8
0
100
AcDbLine
 10
84.53520000000001
 20
0.214104999999986
 30
0.0
 11
86.5858
 21
0.450474999999986
 31
0.0
  0
LINE
  5
192
330
1E
100
AcDbEntity
  8
0
100
AcDbLine
 10
82.27960000000001
 20
0.0452749999999862
 30
0.0
 11
84.53520000000001
 21
0.214104999999986
 31
0.0
  0
LINE
  5
193
330
1E
100
AcDbEntity
  8
0
100
AcDbLine
 10
86.34579999999999
 20
12.312485
 30
0.0
 11
86.6018
 21
12.306285
 31
0.0
  0
LINE
  5
194
330
1E
100
AcDbEntity
  8
0
100
AcDbLine
 10
86.34579999999999
 20
11.965185
 30
0.0
 11
86.6018
 21
11.971485
 31
0.0
  0
LINE
  5
195
330
1E
100
AcDbEntity
  8
0
100
AcDbLine
 10
88.53379999999999
 20
0.7206049999999859
 30
0.0
 11
90.1743
 21
1.04139499999999
 31
0.0
  0
LINE
  5
196
330
1E
100
AcDbEntity
  8
0
100
AcDbLine
 10
90.1743
 20
1.04139499999999
 30
0.0
 11
91.6097
 21
1.379064999999989
 31
0.0
  0
LINE
  5
198
330
1E
100
AcDbEntity
  8
0
100
AcDbLine
 10
91.91729999999999
 20
1.47745499999999
 30
0.0
 11
92.94259999999999
 21
1.84889499999998
 31
0.0
  0
LINE
  5
199
330
1E
100
AcDbEntity
  8
0
100
AcDbLine
 10
91.6097
 20
1.379064999999989
 30
0.0
 11
91.91729999999999
 21
1.47745499999999
 31
0.0
  0
LINE
  5
19A
330
1E
100
AcDbEntity
  8
0
100
AcDbLine
 10
92.94259999999999
 20
1.84889499999998
 30
0.0
 11
93.76279999999999
 21
2.25409499999999
 31
0.0
  0
LINE
  5
19B
330
1E
100
AcDbEntity
  8
0
100
AcDbLine
 10
93.76279999999999
 20
2.25409499999999
 30
0.0
 11
94.2754
 21
2.65930499999999
 31
0.0
  0
LINE
  5
19C
330
1E
100
AcDbEntity
  8
0
100
AcDbLine
 10
86.6018
 20
11.971485
 30
0.0
 11
86.84180000000001
 21
11.98808499999999
 31
0.0
  0
LINE
  5
19D
330
1E
100
AcDbEntity
  8
0
100
AcDbLine
 10
86.84180000000001
 20
11.98808499999999
 30
0.0
 11
87.05379999999999
 21
12.015885
 31
0.0
  0
LINE
  5
19E
330
1E
100
AcDbEntity
  8
0
100
AcDbLine
 10
87.05379999999999
 20
12.015885
 30
0.0
 11
87.21380000000001
 21
12.052685
 31
0.0
  0
LINE
  5
19F
330
1E
100
AcDbEntity
  8
0
100
AcDbLine
 10
87.21380000000001
 20
12.052685
 30
0.0
 11
87.3098
 21
12.094385
 31
0.0
  0
LINE
  5
1A0
330
1E
100
AcDbEntity
  8
0
100
AcDbLine
 10
86.6018
 20
12.306285
 30
0.0
 11
86.84180000000001
 21
12.289585
 31
0.0
  0
LINE
  5
1A1
330
1E
100
AcDbEntity
  8
0
100
AcDbLine
 10
86.84180000000001
 20
12.289585
 30
0.0
 11
87.05379999999999
 21
12.261785
 31
0.0
  0
LINE
  5
1A2
330
1E
100
AcDbEntity
  8
0
100
AcDbLine
 10
87.05379999999999
 20
12.261785
 30
0.0
 11
87.21380000000001
 21
12.224985
 31
0.0
  0
LINE
  5
1A3
330
1E
100
AcDbEntity
  8
0
100
AcDbLine
 10
87.21380000000001
 20
12.224985
 30
0.0
 11
87.3098
 21
12.183285
 31
0.0
  0
LINE
  5
1A4
330
1E
100
AcDbEntity
  8
0
100
AcDbLine
 10
87.3098
 20
12.183285
 30
0.0
 11
87.34579999999999
 21
12.138885
 31
0.0
  0
LINE
  5
1A5
330
1E
100
AcDbEntity
  8
0
100
AcDbLine
 10
87.3098
 20
12.094385
 30
0.0
 11
87.34579999999999
 21
12.138885
 31
0.0
  0
LINE
  5
1A6
330
1E
100
AcDbEntity
  8
0
100
AcDbLine
 10
94.4805
 20
3.08139499999999
 30
0.0
 11
97.55639999999999
 21
12.869185
 31
0.0
  0
LINE
  5
1A8
330
1E
100
AcDbEntity
  8
0
100
AcDbLine
 10
94.2754
 20
2.65930499999999
 30
0.0
 11
94.4805
 21
3.08139499999999
 31
0.0
  0
LINE
  5
1A9
330
1E
100
AcDbEntity
  8
0
100
AcDbLine
 10
86.5858
 20
0.450474999999986
 30
0.0
 11
88.53379999999999
 21
0.7206049999999859
 31
0.0
  0
LINE
  5
1AA
330
1E
100
AcDbEntity
  8
0
100
AcDbLine
 10
90.89200000000001
 20
15.486085
 30
0.0
 11
92.84
 21
15.131585
 31
0.0
  0
LINE
  5
1AB
330
1E
100
AcDbEntity
  8
0
100
AcDbLine
 10
92.84
 20
15.131585
 30
0.0
 11
94.58299999999999
 21
14.726385
 31
0.0
  0
LINE
  5
1AC
330
1E
100
AcDbEntity
  8
0
100
AcDbLine
 10
94.58299999999999
 20
14.726385
 30
0.0
 11
95.8134
 21
14.287385
 31
0.0
  0
LINE
  5
1AD
330
1E
100
AcDbEntity
  8
0
100
AcDbLine
 10
95.8134
 20
14.287385
 30
0.0
 11
96.7361
 21
13.831485
 31
0.0
  0
LINE
  5
1AE
330
1E
100
AcDbEntity
  8
0
100
AcDbLine
 10
96.7361
 20
13.831485
 30
0.0
 11
97.35129999999999
 21
13.358785
 31
0.0
  0
LINE
  5
1AF
330
1E
100
AcDbEntity
  8
0
100
AcDbLine
 10
97.35129999999999
 20
13.358785
 30
0.0
 11
97.55639999999999
 21
12.869185
 31
0.0
  0
LINE
  5
1B0
330
1E
100
AcDbEntity
  8
0
100
AcDbLine
 10
88.73890000000001
 20
15.806885
 30
0.0
 11
90.89200000000001
 21
15.486085
 31
0.0
  0
LINE
  5
1B1
330
1E
100
AcDbEntity
  8
0
100
AcDbLine
 10
86.27819999999999
 20
16.093885
 30
0.0
 11
88.73890000000001
 21
15.806885
 31
0.0
  0
LINE
  5
1B2
330
1E
100
AcDbEntity
  8
0
100
AcDbLine
 10
83.6124
 20
16.296485
 30
0.0
 11
86.27819999999999
 21
16.093885
 31
0.0
  0
LINE
  5
1B3
330
1E
100
AcDbEntity
  8
0
100
AcDbLine
 10
80.8441
 20
16.448485
 30
0.0
 11
83.6124
 21
16.296485
 31
0.0
  0
LINE
  5
1B7
330
1E
100
AcDbEntity
  8
0
100
AcDbLine
 10
78.5
 20
22.207985
 30
0.0
 11
82.5
 21
27.20798499999999
 31
0.0
  0
LINE
  5
1BA
330
1E
100
AcDbEntity
  8
0
100
AcDbLine
 10
82.5
 20
27.20798499999999
 30
0.0
 11
84.0
 21
32.207985
 31
0.0
  0
LINE
  5
1BB
330
1E
100
AcDbEntity
  8
0
100
AcDbLine
 10
84.0
 20
32.207985
 30
0.0
 11
85.0
 21
39.207985
 31
0.0
  0
LINE
  5
1BC
330
1E
100
AcDbEntity
  8
0
100
AcDbLine
 10
84.59999999999999
 20
39.207985
 30
0.0
 11
85.0
 21
39.207985
 31
0.0
  0
LINE
  5
1BD
330
1E
100
AcDbEntity
  8
0
100
AcDbLine
 10
83.7
 20
39.207985
 30
0.0
 11
84.59999999999999
 21
39.207985
 31
0.0
  0
LINE
  5
1BE
330
1E
100
AcDbEntity
  8
0
100
AcDbLine
 10
82.09999999999999
 20
39.207985
 30
0.0
 11
83.7
 21
39.207985
 31
0.0
  0
LINE
  5
1BF
330
1E
100
AcDbEntity
  8
0
100
AcDbLine
 10
80.0
 20
39.207985
 30
0.0
 11
82.09999999999999
 21
39.207985
 31
0.0
  0
LINE
  5
1C0
330
1E
100
AcDbEntity
  8
0
100
AcDbLine
 10
77.59999999999999
 20
39.207985
 30
0.0
 11
80.0
 21
39.207985
 31
0.0
  0
LINE
  5
1C1
330
1E
100
AcDbEntity
  8
0
100
AcDbLine
 10
79.0
 20
50.207985
 30
0.0
 11
81.0
 21
53.207985
 31
0.0
  0
LINE
  5
1C2
330
1E
100
AcDbEntity
  8
0
100
AcDbLine
 10
79.0
 20
50.207985
 30
0.0
 11
81.0
 21
39.207985
 31
0.0
  0
LINE
  5
1C3
330
1E
100
AcDbEntity
  8
0
100
AcDbLine
 10
78.9
 20
50.207985
 30
0.0
 11
79.0
 21
50.207985
 31
0.0
  0
LINE
  5
1C4
330
1E
100
AcDbEntity
  8
0
100
AcDbLine
 10
78.5
 20
50.207985
 30
0.0
 11
78.9
 21
50.207985
 31
0.0
  0
LINE
  5
1C5
330
1E
100
AcDbEntity
  8
0
100
AcDbLine
 10
77.8
 20
50.207985
 30
0.0
 11
78.5
 21
50.207985
 31
0.0
  0
LINE
  5
1C6
330
1E
100
AcDbEntity
  8
0
100
AcDbLine
 10
77.0
 20
50.207985
 30
0.0
 11
77.8
 21
50.207985
 31
0.0
  0
LINE
  5
1C7
330
1E
100
AcDbEntity
  8
0
100
AcDbLine
 10
76.0
 20
50.207985
 30
0.0
 11
77.0
 21
50.207985
 31
0.0
  0
LINE
  5
1C8
330
1E
100
AcDbEntity
  8
0
100
AcDbLine
 10
95.7641157060539
 20
49.7253684447136
 30
0.0
 11
96.0
 21
51.207985
 31
0.0
  0
LINE
  5
1C9
330
1E
100
AcDbEntity
  8
0
100
AcDbLine
 10
96.0
 20
51.207985
 30
0.0
 11
96.0
 21
57.207985
 31
0.0
  0
LINE
  5
1CA
330
1E
100
AcDbEntity
  8
0
100
AcDbLine
 10
95.7636643755038
 20
49.72503167192799
 30
0.0
 11
96.0
 21
51.210485
 31
0.0
  0
LINE
  5
1CB
330
1E
100
AcDbEntity
  8
0
100
AcDbLine
 10
96.0
 20
51.210485
 30
0.0
 11
96.0
 21
53.21048499999999
 31
0.0
  0
LINE
  5
1CC
330
1E
100
AcDbEntity
  8
0
100
AcDbLine
 10
95.23999999999999
 20
49.33428499999999
 30
0.0
 11
96.208
 21
50.056585
 31
0.0
  0
LINE
  5
1CD
330
1E
100
AcDbEntity
  8
0
100
AcDbLine
 10
94.09600000000001
 20
48.601285
 30
0.0
 11
95.23999999999999
 21
49.33428499999999
 31
0.0
  0
LINE
  5
1CE
330
1E
100
AcDbEntity
  8
0
100
AcDbLine
 10
92.42399999999999
 20
47.912585
 30
0.0
 11
94.09600000000001
 21
48.601285
 31
0.0
  0
LINE
  5
1CF
330
1E
100
AcDbEntity
  8
0
100
AcDbLine
 10
90.48799999999999
 20
47.34498499999999
 30
0.0
 11
92.42399999999999
 21
47.912585
 31
0.0
  0
LINE
  5
1D0
330
1E
100
AcDbEntity
  8
0
100
AcDbLine
 10
88.376
 20
46.791285
 30
0.0
 11
90.48799999999999
 21
47.34498499999999
 31
0.0
  0
LINE
  5
1D1
330
1E
100
AcDbEntity
  8
0
100
AcDbLine
 10
85.912
 20
46.346385
 30
0.0
 11
88.376
 21
46.791285
 31
0.0
  0
LINE
  5
1D2
330
1E
100
AcDbEntity
  8
0
100
AcDbLine
 10
83.36
 20
46.039085
 30
0.0
 11
85.912
 21
46.346385
 31
0.0
  0
LINE
  5
1D3
330
1E
100
AcDbEntity
  8
0
100
AcDbLine
 10
80.632
 20
45.75738499999999
 30
0.0
 11
83.36
 21
46.039085
 31
0.0
  0
LINE
  5
1D4
330
1E
100
AcDbEntity
  8
0
100
AcDbLine
 10
79.81810703972779
 20
45.7083962814968
 30
0.0
 11
80.632
 21
45.75738499999999
 31
0.0
  0
LINE
  5
1D5
330
1E
100
AcDbEntity
  8
0
100
AcDbLine
 10
96.736
 20
50.848185
 30
0.0
 11
97.0
 21
51.747285
 31
0.0
  0
LINE
  5
1D6
330
1E
100
AcDbEntity
  8
0
100
AcDbLine
 10
96.208
 20
50.056585
 30
0.0
 11
96.736
 21
50.848185
 31
0.0
  0
LINE
  5
1D7
330
1E
100
AcDbEntity
  8
0
100
AcDbLine
 10
96.0
 20
51.747285
 30
0.0
 11
96.208
 21
51.747285
 31
0.0
  0
LINE
  5
1D8
330
1E
100
AcDbEntity
  8
0
100
AcDbLine
 10
81.0
 20
53.207985
 30
0.0
 11
89.0
 21
54.207985
 31
0.0
  0
LINE
  5
1D9
330
1E
100
AcDbEntity
  8
0
100
AcDbLine
 10
80.8
 20
53.207985
 30
0.0
 11
81.0
 21
53.207985
 31
0.0
  0
LINE
  5
1DA
330
1E
100
AcDbEntity
  8
0
100
AcDbLine
 10
80.20000000000001
 20
53.207985
 30
0.0
 11
80.8
 21
53.207985
 31
0.0
  0
LINE
  5
1DB
330
1E
100
AcDbEntity
  8
0
100
AcDbLine
 10
79.2
 20
53.207985
 30
0.0
 11
80.20000000000001
 21
53.207985
 31
0.0
  0
LINE
  5
1DC
330
1E
100
AcDbEntity
  8
0
100
AcDbLine
 10
78.0
 20
53.207985
 30
0.0
 11
79.2
 21
53.207985
 31
0.0
  0
LINE
  5
1DD
330
1E
100
AcDbEntity
  8
0
100
AcDbLine
 10
76.5
 20
53.207985
 30
0.0
 11
78.0
 21
53.207985
 31
0.0
  0
LINE
  5
1DE
330
1E
100
AcDbEntity
  8
0
100
AcDbLine
 10
95.2364
 20
53.21048499999999
 30
0.0
 11
95.80910000000001
 21
53.21048499999999
 31
0.0
  0
LINE
  5
1DF
330
1E
100
AcDbEntity
  8
0
100
AcDbLine
 10
87.7909
 20
53.21048499999999
 30
0.0
 11
89.79550000000001
 21
53.21048499999999
 31
0.0
  0
LINE
  5
1E0
330
1E
100
AcDbEntity
  8
0
100
AcDbLine
 10
85.5
 20
53.21048499999999
 30
0.0
 11
87.7909
 21
53.21048499999999
 31
0.0
  0
LINE
  5
1E1
330
1E
100
AcDbEntity
  8
0
100
AcDbLine
 10
83.01819999999999
 20
53.21048499999999
 30
0.0
 11
85.5
 21
53.21048499999999
 31
0.0
  0
LINE
  5
1E2
330
1E
100
AcDbEntity
  8
0
100
AcDbLine
 10
81.02000000000009
 20
53.21048499999999
 30
0.0
 11
83.01819999999999
 21
53.21048499999999
 31
0.0
  0
LINE
  5
1E3
330
1E
100
AcDbEntity
  8
0
100
AcDbLine
 10
89.79550000000001
 20
53.21048499999999
 30
0.0
 11
91.60909999999999
 21
53.21048499999999
 31
0.0
  0
LINE
  5
1E4
330
1E
100
AcDbEntity
  8
0
100
AcDbLine
 10
91.60909999999999
 20
53.21048499999999
 30
0.0
 11
93.2318
 21
53.21048499999999
 31
0.0
  0
LINE
  5
1EE
330
1E
100
AcDbEntity
  8
0
100
AcDbLine
 10
78.9
 20
55.207985
 30
0.0
 11
82.5
 21
55.207985
 31
0.0
  0
LINE
  5
1EF
330
1E
100
AcDbEntity
  8
0
100
AcDbLine
 10
82.5
 20
55.207985
 30
0.0
 11
85.6
 21
55.207985
 31
0.0
  0
LINE
  5
1F5
330
1E
100
AcDbEntity
  8
0
100
AcDbLine
 10
89.0
 20
54.207985
 30
0.0
 11
90.0
 21
55.207985
 31
0.0
  0
LINE
  5
1F9
330
1E
100
AcDbEntity
  8
0
100
AcDbLine
 10
85.6
 20
55.207985
 30
0.0
 11
88.0
 21
55.207985
 31
0.0
  0
LINE
  5
1FA
330
1E
100
AcDbEntity
  8
0
100
AcDbLine
 10
88.0
 20
55.207985
 30
0.0
 11
89.50000000000001
 21
55.207985
 31
0.0
  0
LINE
  5
1FB
330
1E
100
AcDbEntity
  8
0
100
AcDbLine
 10
90.0
 20
55.207985
 30
0.0
 11
90.0
 21
62.207985
 31
0.0
  0
LINE
  5
1FC
330
1E
100
AcDbEntity
  8
0
100
AcDbLine
 10
89.50000000000001
 20
55.207985
 30
0.0
 11
90.0
 21
55.207985
 31
0.0
  0
LINE
  5
221
330
1E
100
AcDbEntity
  8
0
100
AcDbLine
 10
90.0
 20
62.207985
 30
0.0
 11
90.0
 21
55.207985
 31
0.0
  0
LINE
  5
222
330
1E
100
AcDbEntity
  8
0
100
AcDbLine
 10
84.79409999999999
 20
75.20798499999999
 30
0.0
 11
94.32349999999999
 21
75.20798499999999
 31
0.0
  0
LINE
  5
223
330
1E
100
AcDbEntity
  8
0
100
AcDbLine
 10
90.0
 20
57.207985
 30
0.0
 11
90.13600000000002
 21
57.207985
 31
0.0
  0
LINE
  5
224
330
1E
100
AcDbEntity
  8
0
100
AcDbLine
 10
93.56799999999999
 20
57.207985
 30
0.0
 11
95.68000000000001
 21
57.207985
 31
0.0
  0
LINE
  5
225
330
1E
100
AcDbEntity
  8
0
100
AcDbLine
 10
90.13600000000002
 20
57.207985
 30
0.0
 11
93.56799999999999
 21
57.207985
 31
0.0
  0
LINE
  5
226
330
1E
100
AcDbEntity
  8
0
100
AcDbLine
 10
94.09600000000001
 20
57.80798499999999
 30
0.0
 11
96.208
 21
57.80798499999999
 31
0.0
  0
LINE
  5
22C
330
1E
100
AcDbEntity
  8
0
100
AcDbLine
 10
94.32349999999999
 20
75.20798499999999
 30
0.0
 11
103.676
 21
75.20798499999999
 31
0.0
  0
LINE
  5
22D
330
1E
100
AcDbEntity
  8
0
100
AcDbLine
 10
90.576
 20
57.80798499999999
 30
0.0
 11
94.09600000000001
 21
57.80798499999999
 31
0.0
  0
LINE
  5
22E
330
1E
100
AcDbEntity
  8
0
100
AcDbLine
 10
90.0
 20
57.80798499999999
 30
0.0
 11
90.576
 21
57.80798499999999
 31
0.0
  0
LINE
  5
22F
330
1E
100
AcDbEntity
  8
0
100
AcDbLine
 10
93.2318
 20
53.21048499999999
 30
0.0
 11
94.3773
 21
53.21048499999999
 31
0.0
  0
LINE
  5
230
330
1E
100
AcDbEntity
  8
0
100
AcDbLine
 10
95.68000000000001
 20
57.207985
 30
0.0
 11
96.47200000000001
 21
57.207985
 31
0.0
  0
LINE
  5
232
330
1E
100
AcDbEntity
  8
0
100
AcDbLine
 10
96.0
 20
57.207985
 30
0.0
 11
96.47200000000001
 21
57.207985
 31
0.0
  0
LINE
  5
233
330
1E
100
AcDbEntity
  8
0
100
AcDbLine
 10
96.0
 20
57.207985
 30
0.0
 11
96.0
 21
51.207985
 31
0.0
  0
LINE
  5
234
330
1E
100
AcDbEntity
  8
0
100
AcDbLine
 10
94.3773
 20
53.21048499999999
 30
0.0
 11
95.2364
 21
53.21048499999999
 31
0.0
  0
LINE
  5
235
330
1E
100
AcDbEntity
  8
0
100
AcDbLine
 10
95.80910000000001
 20
53.21048499999999
 30
0.0
 11
96.0
 21
53.21048499999999
 31
0.0
  0
LINE
  5
236
330
1E
100
AcDbEntity
  8
0
100
AcDbLine
 10
96.208
 20
57.80798499999999
 30
0.0
 11
97.0
 21
57.80798499999999
 31
0.0
  0
LINE
  5
237
330
1E
100
AcDbEntity
  8
0
100
AcDbLine
 10
96.47200000000001
 20
57.207985
 30
0.0
 11
97.0
 21
57.80798499999999
 31
0.0
  0
LINE
  5
238
330
1E
100
AcDbEntity
  8
0
100
AcDbLine
 10
96.0
 20
53.21048499999999
 30
0.0
 11
96.0
 21
51.210485
 31
0.0
  0
LINE
  5
239
330
1E
100
AcDbEntity
  8
0
100
AcDbLine
 10
96.208
 20
51.747285
 30
0.0
 11
96.736
 21
51.747285
 31
0.0
  0
LINE
  5
23A
330
1E
100
AcDbEntity
  8
0
100
AcDbLine
 10
97.38890000000001
 20
19.620385
 30
0.0
 11
97.55639999999999
 21
12.869185
 31
0.0
  0
LINE
  5
23B
330
1E
100
AcDbEntity
  8
0
100
AcDbLine
 10
97.3726
 20
21.776485
 30
0.0
 11
97.38890000000001
 21
19.620385
 31
0.0
  0
LINE
  5
23C
330
1E
100
AcDbEntity
  8
0
100
AcDbLine
 10
97.0
 20
62.207985
 30
0.0
 11
102.6179999999999
 21
62.207985
 31
0.0
  0
LINE
  5
23D
330
1E
100
AcDbEntity
  8
0
100
AcDbLine
 10
97.0
 20
62.207985
 30
0.0
 11
97.0
 21
57.80798499999999
 31
0.0
  0
LINE
  5
23E
330
1E
100
AcDbEntity
  8
0
100
AcDbLine
 10
102.6179999999999
 20
62.207985
 30
0.0
 11
111.0
 21
62.207985
 31
0.0
  0
LINE
  5
23F
330
1E
100
AcDbEntity
  8
0
100
AcDbLine
 10
111.0
 20
62.207985
 30
0.0
 11
118.941
 21
62.207985
 31
0.0
  0
LINE
  5
241
330
1E
100
AcDbEntity
  8
0
100
AcDbLine
 10
118.941
 20
62.207985
 30
0.0
 11
126.088
 21
62.207985
 31
0.0
  0
LINE
  5
242
330
1E
100
AcDbEntity
  8
0
100
AcDbLine
 10
103.676
 20
75.20798499999999
 30
0.0
 11
112.324
 21
75.20798499999999
 31
0.0
  0
LINE
  5
243
330
1E
100
AcDbEntity
  8
0
100
AcDbLine
 10
112.324
 20
75.20798499999999
 30
0.0
 11
120.618
 21
75.20798499999999
 31
0.0
  0
LINE
  5
244
330
1E
100
AcDbEntity
  8
0
100
AcDbLine
 10
126.088
 20
62.207985
 30
0.0
 11
132.3529999999999
 21
62.207985
 31
0.0
  0
LINE
  5
245
330
1E
100
AcDbEntity
  8
0
100
AcDbLine
 10
137.647
 20
62.207985
 30
0.0
 11
141.706
 21
62.207985
 31
0.0
  0
LINE
  5
246
330
1E
100
AcDbEntity
  8
0
100
AcDbLine
 10
132.3529999999999
 20
62.207985
 30
0.0
 11
137.647
 21
62.207985
 31
0.0
  0
LINE
  5
247
330
1E
100
AcDbEntity
  8
0
100
AcDbLine
 10
127.941
 20
75.20798499999999
 30
0.0
 11
134.382
 21
75.20798499999999
 31
0.0
  0
LINE
  5
248
330
1E
100
AcDbEntity
  8
0
100
AcDbLine
 10
134.382
 20
75.20798499999999
 30
0.0
 11
139.941
 21
75.20798499999999
 31
0.0
  0
LINE
  5
249
330
1E
100
AcDbEntity
  8
0
100
AcDbLine
 10
146.647
 20
62.207985
 30
0.0
 11
147.3529999999999
 21
62.207985
 31
0.0
  0
LINE
  5
24A
330
1E
100
AcDbEntity
  8
0
100
AcDbLine
 10
144.706
 20
62.207985
 30
0.0
 11
146.647
 21
62.207985
 31
0.0
  0
LINE
  5
24B
330
1E
100
AcDbEntity
  8
0
100
AcDbLine
 10
141.706
 20
62.207985
 30
0.0
 11
144.706
 21
62.207985
 31
0.0
  0
LINE
  5
24C
330
1E
100
AcDbEntity
  8
0
100
AcDbLine
 10
139.941
 20
75.20798499999999
 30
0.0
 11
144.176
 21
75.20798499999999
 31
0.0
  0
LINE
  5
24D
330
1E
100
AcDbEntity
  8
0
100
AcDbLine
 10
144.176
 20
75.20798499999999
 30
0.0
 11
147.2649999999999
 21
75.20798499999999
 31
0.0
  0
LINE
  5
24E
330
1E
100
AcDbEntity
  8
0
100
AcDbLine
 10
150.0
 20
65.20798499999999
 30
0.0
 11
150.0
 21
75.20798499999999
 31
0.0
  0
LINE
  5
24F
330
1E
100
AcDbEntity
  8
0
100
AcDbLine
 10
147.2649999999999
 20
75.20798499999999
 30
0.0
 11
149.206
 21
75.20798499999999
 31
0.0
  0
LINE
  5
250
330
1E
100
AcDbEntity
  8
0
100
AcDbLine
 10
149.206
 20
75.20798499999999
 30
0.0
 11
150.0
 21
75.20798499999999
 31
0.0
  0
LINE
  5
251
330
1E
100
AcDbEntity
  8
0
100
AcDbLine
 10
120.618
 20
75.20798499999999
 30
0.0
 11
127.941
 21
75.20798499999999
 31
0.0
  0
LINE
  5
2A5
330
1E
100
AcDbEntity
  8
0
100
AcDbLine
 10
150.0
 20
75.20798499999999
 30
0.0
 11
150.0
 21
65.20798499999999
 31
0.0
  0
LINE
  5
2A6
330
1E
100
AcDbEntity
  8
0
100
AcDbLine
 10
97.0
 20
57.80798499999999
 30
0.0
 11
97.0
 21
62.207985
 31
0.0
  0
LINE
  5
2A7
330
1E
100
AcDbEntity
  8
0
100
AcDbLine
 10
97.0
 20
51.747285
 30
0.0
 11
97.3726
 21
21.776485
 31
0.0
  0
LINE
  5
2A8
330
1E
100
AcDbEntity
  8
0
100
AcDbLine
 10
96.736
 20
51.747285
 30
0.0
 11
97.0
 21
51.747285
 31
0.0
  0
LINE
  5
2A9
330
1E
100
AcDbEntity
  8
0
100
AcDbLine
 10
77.97329999999999
 20
16.549785
 30
0.0
 11
80.8441
 21
16.448485
 31
0.0
  0
LINE
  5
2AA
330
1E
100
AcDbEntity
  8
0
100
AcDbLine
 10
75.0
 20
16.583585
 30
0.0
 11
77.97329999999999
 21
16.549785
 31
0.0
  0
LINE
  5
2AB
330
1E
100
AcDbEntity
  8
0
100
AcDbLine
 10
72.5393
 20
-0.174215000000016
 30
0.0
 11
75.0
 21
-0.207985000000015
 31
0.0
  0
LINE
  5
2AC
330
1E
100
AcDbEntity
  8
0
100
AcDbLine
 10
72.02670000000001
 20
16.549785
 30
0.0
 11
75.0
 21
16.583585
 31
0.0
  0
LINE
  5
2B1
330
1E
100
AcDbEntity
  8
0
100
AcDbLine
 10
147.3529999999999
 20
62.207985
 30
0.0
 11
148.5692379235882
 21
62.49668142974371
 31
0.0
  0
LINE
  5
2B2
330
1E
100
AcDbEntity
  8
0
100
AcDbLine
 10
148.5692379235882
 20
62.49668142974371
 30
0.0
 11
149.5164104084946
 21
63.23498543461017
 31
0.0
  0
LINE
  5
2B3
330
1E
100
AcDbEntity
  8
0
100
AcDbLine
 10
149.5164104084946
 20
63.23498543461017
 30
0.0
 11
149.9710523624893
 21
64.10580533394051
 31
0.0
  0
LINE
  5
2B4
330
1E
100
AcDbEntity
  8
0
100
AcDbLine
 10
149.9710523624893
 20
64.10580533394051
 30
0.0
 11
150.0
 21
65.20798499999999
 31
0.0
  0
ENDSEC
  0
SECTION
  2
OBJECTS
  0
DICTIONARY
  5
C
330
0
100
AcDbDictionary
281
     1
  3
ACAD_GROUP
350
D
  3
ACAD_LAYOUT
350
19
  3
ACAD_MLINESTYLE
350
16
  3
ACAD_PLOTSETTINGS
350
18
  3
ACAD_PLOTSTYLENAME
350
E
  3
AcDbVariableDictionary
350
2B5
  0
DICTIONARY
  5
D
102
{ACAD_REACTORS
330
C
102
}
330
C
100
AcDbDictionary
281
     1
  0
DICTIONARY
  5
19
102
{ACAD_REACTORS
330
C
102
}
330
C
100
AcDbDictionary
281
     1
  3
Layout1
350
1D
  3
Model
350
21
  0
DICTIONARY
  5
16
102
{ACAD_REACTORS
330
C
102
}
330
C
100
AcDbDictionary
281
     1
  3
Standard
350
17
  0
DICTIONARY
  5
18
102
{ACAD_REACTORS
330
C
102
}
330
C
100
AcDbDictionary
281
     1
  0
ACDBDICTIONARYWDFLT
  5
E
102
{ACAD_REACTORS
330
C
102
}
330
C
100
AcDbDictionary
281
     1
  3
Normal
350
F
100
AcDbDictionaryWithDefault
340
F
  0
DICTIONARY
  5
2B5
102
{ACAD_REACTORS
330
C
102
}
330
C
100
AcDbDictionary
281
     1
  3
DIMASSOC
350
2B6
  0
LAYOUT
  5
1D
102
{ACAD_REACTORS
330
19
102
}
330
19
100
AcDbPlotSettings
  1

  2
hp deskjet 980c series
  4

  6

 40
0.0
 41
0.0
 42
0.0
 43
0.0
 44
0.0
 45
0.0
 46
0.0
 47
0.0
 48
0.0
 49
0.0
140
0.0
141
0.0
142
1.0
143
1.0
 70
   688
 72
     0
 73
     0
 74
     5
  7

 75
    16
147
1.0
148
0.0
149
0.0
100
AcDbLayout
  1
Layout1
 70
     1
 71
     1
 10
0.0
 20
0.0
 11
12.0
 21
9.0
 12
0.0
 22
0.0
 32
0.0
 14
1.000000000000000E+20
 24
1.000000000000000E+20
 34
1.000000000000000E+20
 15
-1.000000000000000E+20
 25
-1.000000000000000E+20
 35
-1.000000000000000E+20
146
0.0
 13
0.0
 23
0.0
 33
0.0
 16
1.0
 26
0.0
 36
0.0
 17
0.0
 27
1.0
 37
0.0
 76
     0
330
1A
  0
LAYOUT
  5
21
102
{ACAD_REACTORS
330
19
102
}
330
19
100
AcDbPlotSettings
  1

  2
hp deskjet 980c series
  4

  6

 40
0.0
 41
0.0
 42
0.0
 43
0.0
 44
0.0
 45
0.0
 46
0.0
 47
0.0
 48
0.0
 49
0.0
140
0.0
141
0.0
142
1.0
143
1.0
 70
  1712
 72
     0
 73
     0
 74
     0
  7

 75
     0
147
1.0
148
0.0
149
0.0
100
AcDbLayout
  1
Model
 70
     1
 71
     0
 10
0.0
 20
0.0
 11
12.0
 21
9.0
 12
0.0
 22
0.0
 32
0.0
 14
0.0
 24
0.0
 34
0.0
 15
0.0
 25
0.0
 35
0.0
146
0.0
 13
0.0
 23
0.0
 33
0.0
 16
1.0
 26
0.0
 36
0.0
 17
0.0
 27
1.0
 37
0.0
 76
     0
330
1E
  0
MLINESTYLE
  5
17
102
{ACAD_REACTORS
330
16
102
}
330
16
100
AcDbMlineStyle
  2
STANDARD
 70
     0
  3

 62
   256
 51
90.0
 52
90.0
 71
     2
 49
0.5
 62
   256
  6
BYLAYER
 49
-0.5
 62
   256
  6
BYLAYER
  0
ACDBPLACEHOLDER
  5
F
102
{ACAD_REACTORS
330
E
102
}
330
E
  0
DICTIONARYVAR
  5
2B6
102
{ACAD_REACTORS
330
2B5
102
}
330
2B5
100
DictionaryVariables
280
     0
  1
1
  0
ENDSEC
  0
EOF
