  0
SECTION
  2
HEADER
  9
$ACADVER
  1
AC1015
  9
$ACADMAINTVER
 70
    13
  9
$DWGCODEPAGE
  3
ANSI_1252
  9
$INSBASE
 10
0.0
 20
0.0
 30
0.0
  9
$EXTMIN
 10
-0.0000000000000153
 20
0.0000000000000021
 30
0.0
  9
$EXTMAX
 10
221.0
 20
189.0
 30
0.0
  9
$LIMMIN
 10
0.0
 20
0.0
  9
$LIMMAX
 10
12.0
 20
9.0
  9
$ORTHOMODE
 70
     0
  9
$REGENMODE
 70
     1
  9
$FILLMODE
 70
     1
  9
$QTEXTMODE
 70
     0
  9
$MIRRTEXT
 70
     1
  9
$LTSCALE
 40
1.0
  9
$ATTMODE
 70
     1
  9
$TEXTSIZE
 40
0.2
  9
$TRACEWID
 40
0.05
  9
$TEXTSTYLE
  7
Standard
  9
$CLAYER
  8
0
  9
$CELTYPE
  6
Continuous
  9
$CECOLOR
 62
   256
  9
$CELTSCALE
 40
1.0
  9
$DISPSILH
 70
     0
  9
$DIMSCALE
 40
1.0
  9
$DIMASZ
 40
0.18
  9
$DIMEXO
 40
0.0625
  9
$DIMDLI
 40
0.38
  9
$DIMRND
 40
0.0
  9
$DIMDLE
 40
0.0
  9
$DIMEXE
 40
0.18
  9
$DIMTP
 40
0.0
  9
$DIMTM
 40
0.0
  9
$DIMTXT
 40
0.18
  9
$DIMCEN
 40
0.09
  9
$DIMTSZ
 40
0.0
  9
$DIMTOL
 70
     0
  9
$DIMLIM
 70
     0
  9
$DIMTIH
 70
     1
  9
$DIMTOH
 70
     1
  9
$DIMSE1
 70
     0
  9
$DIMSE2
 70
     0
  9
$DIMTAD
 70
     0
  9
$DIMZIN
 70
     0
  9
$DIMBLK
  1

  9
$DIMASO
 70
     1
  9
$DIMSHO
 70
     1
  9
$DIMPOST
  1

  9
$DIMAPOST
  1

  9
$DIMALT
 70
     0
  9
$DIMALTD
 70
     2
  9
$DIMALTF
 40
25.4
  9
$DIMLFAC
 40
1.0
  9
$DIMTOFL
 70
     0
  9
$DIMTVP
 40
0.0
  9
$DIMTIX
 70
     0
  9
$DIMSOXD
 70
     0
  9
$DIMSAH
 70
     0
  9
$DIMBLK1
  1

  9
$DIMBLK2
  1

  9
$DIMSTYLE
  2
Standard
  9
$DIMCLRD
 70
     0
  9
$DIMCLRE
 70
     0
  9
$DIMCLRT
 70
     0
  9
$DIMTFAC
 40
1.0
  9
$DIMGAP
 40
0.09
  9
$DIMJUST
 70
     0
  9
$DIMSD1
 70
     0
  9
$DIMSD2
 70
     0
  9
$DIMTOLJ
 70
     1
  9
$DIMTZIN
 70
     0
  9
$DIMALTZ
 70
     0
  9
$DIMALTTZ
 70
     0
  9
$DIMUPT
 70
     0
  9
$DIMDEC
 70
     4
  9
$DIMTDEC
 70
     4
  9
$DIMALTU
 70
     2
  9
$DIMALTTD
 70
     2
  9
$DIMTXSTY
  7
Standard
  9
$DIMAUNIT
 70
     0
  9
$DIMADEC
 70
     0
  9
$DIMALTRND
 40
0.0
  9
$DIMAZIN
 70
     0
  9
$DIMDSEP
 70
    46
  9
$DIMATFIT
 70
     3
  9
$DIMFRAC
 70
     0
  9
$DIMLDRBLK
  1

  9
$DIMLUNIT
 70
     2
  9
$DIMLWD
 70
    -2
  9
$DIMLWE
 70
    -2
  9
$DIMTMOVE
 70
     0
  9
$LUNITS
 70
     2
  9
$LUPREC
 70
     4
  9
$SKETCHINC
 40
0.1
  9
$FILLETRAD
 40
0.0
  9
$AUNITS
 70
     0
  9
$AUPREC
 70
     0
  9
$MENU
  1
.
  9
$ELEVATION
 40
0.0
  9
$PELEVATION
 40
0.0
  9
$THICKNESS
 40
0.0
  9
$LIMCHECK
 70
     0
  9
$CHAMFERA
 40
0.0
  9
$CHAMFERB
 40
0.0
  9
$CHAMFERC
 40
0.0
  9
$CHAMFERD
 40
0.0
  9
$SKPOLY
 70
     0
  9
$TDCREATE
 40
2454835.604263958
  9
$TDUCREATE
 40
2454835.562597291
  9
$TDUPDATE
 40
2454835.605995000
  9
$TDUUPDATE
 40
2454835.564328333
  9
$TDINDWG
 40
0.0017312269
  9
$TDUSRTIMER
 40
0.0017312269
  9
$USRTIMER
 70
     1
  9
$ANGBASE
 50
0.0
  9
$ANGDIR
 70
     0
  9
$PDMODE
 70
     0
  9
$PDSIZE
 40
0.0
  9
$PLINEWID
 40
0.0
  9
$SPLFRAME
 70
     0
  9
$SPLINETYPE
 70
     6
  9
$SPLINESEGS
 70
     8
  9
$HANDSEED
  5
312
  9
$SURFTAB1
 70
     6
  9
$SURFTAB2
 70
     6
  9
$SURFTYPE
 70
     6
  9
$SURFU
 70
     6
  9
$SURFV
 70
     6
  9
$UCSBASE
  2

  9
$UCSNAME
  2

  9
$UCSORG
 10
0.0
 20
0.0
 30
0.0
  9
$UCSXDIR
 10
1.0
 20
0.0
 30
0.0
  9
$UCSYDIR
 10
0.0
 20
1.0
 30
0.0
  9
$UCSORTHOREF
  2

  9
$UCSORTHOVIEW
 70
     1
  9
$UCSORGTOP
 10
0.0
 20
0.0
 30
0.0
  9
$UCSORGBOTTOM
 10
0.0
 20
0.0
 30
0.0
  9
$UCSORGLEFT
 10
0.0
 20
0.0
 30
0.0
  9
$UCSORGRIGHT
 10
0.0
 20
0.0
 30
0.0
  9
$UCSORGFRONT
 10
0.0
 20
0.0
 30
0.0
  9
$UCSORGBACK
 10
0.0
 20
0.0
 30
0.0
  9
$PUCSBASE
  2

  9
$PUCSNAME
  2

  9
$PUCSORG
 10
0.0
 20
0.0
 30
0.0
  9
$PUCSXDIR
 10
1.0
 20
0.0
 30
0.0
  9
$PUCSYDIR
 10
0.0
 20
1.0
 30
0.0
  9
$PUCSORTHOREF
  2

  9
$PUCSORTHOVIEW
 70
     0
  9
$PUCSORGTOP
 10
0.0
 20
0.0
 30
0.0
  9
$PUCSORGBOTTOM
 10
0.0
 20
0.0
 30
0.0
  9
$PUCSORGLEFT
 10
0.0
 20
0.0
 30
0.0
  9
$PUCSORGRIGHT
 10
0.0
 20
0.0
 30
0.0
  9
$PUCSORGFRONT
 10
0.0
 20
0.0
 30
0.0
  9
$PUCSORGBACK
 10
0.0
 20
0.0
 30
0.0
  9
$USERI1
 70
     0
  9
$USERI2
 70
     0
  9
$USERI3
 70
     0
  9
$USERI4
 70
     0
  9
$USERI5
 70
     0
  9
$USERR1
 40
0.0
  9
$USERR2
 40
0.0
  9
$USERR3
 40
0.0
  9
$USERR4
 40
0.0
  9
$USERR5
 40
0.0
  9
$WORLDVIEW
 70
     1
  9
$SHADEDGE
 70
     3
  9
$SHADEDIF
 70
    70
  9
$TILEMODE
 70
     1
  9
$MAXACTVP
 70
    64
  9
$PINSBASE
 10
0.0
 20
0.0
 30
0.0
  9
$PLIMCHECK
 70
     0
  9
$PEXTMIN
 10
1.000000000000000E+20
 20
1.000000000000000E+20
 30
1.000000000000000E+20
  9
$PEXTMAX
 10
-1.000000000000000E+20
 20
-1.000000000000000E+20
 30
-1.000000000000000E+20
  9
$PLIMMIN
 10
0.0
 20
0.0
  9
$PLIMMAX
 10
12.0
 20
9.0
  9
$UNITMODE
 70
     0
  9
$VISRETAIN
 70
     1
  9
$PLINEGEN
 70
     0
  9
$PSLTSCALE
 70
     1
  9
$TREEDEPTH
 70
  3020
  9
$CMLSTYLE
  2
Standard
  9
$CMLJUST
 70
     0
  9
$CMLSCALE
 40
1.0
  9
$PROXYGRAPHICS
 70
     1
  9
$MEASUREMENT
 70
     0
  9
$CELWEIGHT
370
    -1
  9
$ENDCAPS
280
     0
  9
$JOINSTYLE
280
     0
  9
$LWDISPLAY
290
     0
  9
$INSUNITS
 70
     0
  9
$HYPERLINKBASE
  1

  9
$STYLESHEET
  1

  9
$XEDIT
290
     1
  9
$CEPSNTYPE
380
     0
  9
$PSTYLEMODE
290
     1
  9
$FINGERPRINTGUID
  2
{3BDCA16B-BE17-433F-AEF9-F54D5ABEC490}
  9
$VERSIONGUID
  2
{187892F5-9F5A-4CCF-A8EA-4642E4928DD0}
  9
$EXTNAMES
290
     1
  9
$PSVPSCALE
 40
0.0
  9
$OLESTARTUP
290
     0
  0
ENDSEC
  0
SECTION
  2
CLASSES
  0
CLASS
  1
ACDBDICTIONARYWDFLT
  2
AcDbDictionaryWithDefault
  3
AutoCAD 2000
 90
        0
280
     0
281
     0
  0
CLASS
  1
ACDBPLACEHOLDER
  2
AcDbPlaceHolder
  3
AutoCAD 2000
 90
        0
280
     0
281
     0
  0
CLASS
  1
LAYOUT
  2
AcDbLayout
  3
AutoCAD 2000
 90
        0
280
     0
281
     0
  0
CLASS
  1
DICTIONARYVAR
  2
AcDbDictionaryVar
  3
AutoCAD 2000
 90
        0
280
     0
281
     0
  0
ENDSEC
  0
SECTION
  2
TABLES
  0
TABLE
  2
VPORT
  5
8
330
0
100
AcDbSymbolTable
 70
     2
  0
VPORT
  5
311
330
8
100
AcDbSymbolTableRecord
100
AcDbViewportTableRecord
  2
*Active
 70
     0
 10
0.0
 20
0.0
 11
1.0
 21
1.0
 12
110.5
 22
94.50000000000001
 13
0.0
 23
0.0
 14
1.0
 24
1.0
 15
0.0
 25
0.0
 16
0.0
 26
0.0
 36
1.0
 17
0.0
 27
0.0
 37
0.0
 40
190.4501278772378
 41
2.078104993597951
 42
50.0
 43
0.0
 44
0.0
 50
0.0
 51
0.0
 71
     0
 72
   100
 73
     1
 74
     3
 75
     0
 76
     0
 77
     0
 78
     0
281
     0
 65
     1
110
0.0
120
0.0
130
0.0
111
1.0
121
0.0
131
0.0
112
0.0
122
1.0
132
0.0
 79
     1
146
0.0
  0
ENDTAB
  0
TABLE
  2
LTYPE
  5
5
330
0
100
AcDbSymbolTable
 70
     1
  0
LTYPE
  5
13
330
5
100
AcDbSymbolTableRecord
100
AcDbLinetypeTableRecord
  2
ByBlock
 70
     0
  3

 72
    65
 73
     0
 40
0.0
  0
LTYPE
  5
14
330
5
100
AcDbSymbolTableRecord
100
AcDbLinetypeTableRecord
  2
ByLayer
 70
     0
  3

 72
    65
 73
     0
 40
0.0
  0
LTYPE
  5
15
330
5
100
AcDbSymbolTableRecord
100
AcDbLinetypeTableRecord
  2
Continuous
 70
     0
  3
Solid line
 72
    65
 73
     0
 40
0.0
  0
ENDTAB
  0
TABLE
  2
LAYER
  5
2
330
0
100
AcDbSymbolTable
 70
     1
  0
LAYER
  5
10
330
2
100
AcDbSymbolTableRecord
100
AcDbLayerTableRecord
  2
0
 70
     0
 62
     7
  6
Continuous
370
    -3
390
F
  0
ENDTAB
  0
TABLE
  2
STYLE
  5
3
330
0
100
AcDbSymbolTable
 70
     1
  0
STYLE
  5
11
330
3
100
AcDbSymbolTableRecord
100
AcDbTextStyleTableRecord
  2
Standard
 70
     0
 40
0.0
 41
1.0
 50
0.0
 71
     0
 42
0.2
  3
txt
  4

  0
ENDTAB
  0
TABLE
  2
VIEW
  5
6
330
0
100
AcDbSymbolTable
 70
     0
  0
ENDTAB
  0
TABLE
  2
UCS
  5
7
330
0
100
AcDbSymbolTable
 70
     0
  0
ENDTAB
  0
TABLE
  2
APPID
  5
9
330
0
100
AcDbSymbolTable
 70
     1
  0
APPID
  5
12
330
9
100
AcDbSymbolTableRecord
100
AcDbRegAppTableRecord
  2
ACAD
 70
     0
  0
ENDTAB
  0
TABLE
  2
DIMSTYLE
  5
A
330
0
100
AcDbSymbolTable
 70
     1
100
AcDbDimStyleTable
 71
     0
  0
DIMSTYLE
105
23F
330
A
100
AcDbSymbolTableRecord
100
AcDbDimStyleTableRecord
  2
Standard
 70
     0
340
11
  0
ENDTAB
  0
TABLE
  2
BLOCK_RECORD
  5
1
330
0
100
AcDbSymbolTable
 70
     0
  0
BLOCK_RECORD
  5
1E
330
1
100
AcDbSymbolTableRecord
100
AcDbBlockTableRecord
  2
*Model_Space
340
21
  0
BLOCK_RECORD
  5
1A
330
1
100
AcDbSymbolTableRecord
100
AcDbBlockTableRecord
  2
*Paper_Space
340
1D
  0
ENDTAB
  0
ENDSEC
  0
SECTION
  2
BLOCKS
  0
BLOCK
  5
1F
330
1E
100
AcDbEntity
  8
0
100
AcDbBlockBegin
  2
*Model_Space
 70
     0
 10
0.0
 20
0.0
 30
0.0
  3
*Model_Space
  1

  0
ENDBLK
  5
20
330
1E
100
AcDbEntity
  8
0
100
AcDbBlockEnd
  0
BLOCK
  5
1B
330
1A
100
AcDbEntity
 67
     1
  8
0
100
AcDbBlockBegin
  2
*Paper_Space
 70
     0
 10
0.0
 20
0.0
 30
0.0
  3
*Paper_Space
  1

  0
ENDBLK
  5
1C
330
1A
100
AcDbEntity
 67
     1
  8
0
100
AcDbBlockEnd
  0
ENDSEC
  0
SECTION
  2
ENTITIES
  0
LINE
  5
22
330
1E
100
AcDbEntity
  8
0
100
AcDbLine
 10
91.2246
 20
55.0022
 30
0.0
 11
91.73720000000001
 21
52.6687
 31
0.0
  0
LINE
  5
23
330
1E
100
AcDbEntity
  8
0
100
AcDbLine
 10
91.0195
 20
57.4329
 30
0.0
 11
91.2246
 21
55.0022
 31
0.0
  0
LINE
  5
24
330
1E
100
AcDbEntity
  8
0
100
AcDbLine
 10
91.69999999999999
 20
16.2493
 30
0.0
 11
92.2
 21
13.8858
 31
0.0
  0
LINE
  5
26
330
1E
100
AcDbEntity
  8
0
100
AcDbLine
 10
92.2
 20
13.8858
 30
0.0
 11
93.0
 21
11.5223
 31
0.0
  0
LINE
  5
28
330
1E
100
AcDbEntity
  8
0
100
AcDbLine
 10
91.5
 20
18.7113
 30
0.0
 11
91.69999999999999
 21
16.2493
 31
0.0
  0
LINE
  5
2A
330
1E
100
AcDbEntity
  8
0
100
AcDbLine
 10
92.55740000000001
 20
50.33529999999999
 30
0.0
 11
93.5827
 21
48.1963
 31
0.0
  0
LINE
  5
2B
330
1E
100
AcDbEntity
  8
0
100
AcDbLine
 10
91.73720000000001
 20
52.6687
 30
0.0
 11
92.55740000000001
 21
50.33529999999999
 31
0.0
  0
LINE
  5
2D
330
1E
100
AcDbEntity
  8
0
100
AcDbLine
 10
94.0
 20
9.355670000000008
 30
0.0
 11
95.5
 21
7.28758
 31
0.0
  0
LINE
  5
2F
330
1E
100
AcDbEntity
  8
0
100
AcDbLine
 10
93.0
 20
11.5223
 30
0.0
 11
94.0
 21
9.355670000000008
 31
0.0
  0
LINE
  5
30
330
1E
100
AcDbEntity
  8
0
100
AcDbLine
 10
95.12069999999999
 20
46.1545
 30
0.0
 11
96.76110000000001
 21
44.4044
 31
0.0
  0
LINE
  5
31
330
1E
100
AcDbEntity
  8
0
100
AcDbLine
 10
93.5827
 20
48.1963
 30
0.0
 11
95.12069999999999
 21
46.1545
 31
0.0
  0
LINE
  5
33
330
1E
100
AcDbEntity
  8
0
100
AcDbLine
 10
95.5
 20
7.28758
 30
0.0
 11
97.1
 21
5.51492
 31
0.0
  0
LINE
  5
34
330
1E
100
AcDbEntity
  8
0
100
AcDbLine
 10
96.76110000000001
 20
44.4044
 30
0.0
 11
98.60660000000001
 21
42.8487
 31
0.0
  0
LINE
  5
3A
330
1E
100
AcDbEntity
  8
0
100
AcDbLine
 10
88.0295
 20
109.714
 30
0.0
 11
88.1356
 21
106.0589999999999
 31
0.0
  0
LINE
  5
3B
330
1E
100
AcDbEntity
  8
0
100
AcDbLine
 10
88.1356
 20
106.0589999999999
 30
0.0
 11
88.3031
 21
101.8589999999999
 31
0.0
  0
LINE
  5
3C
330
1E
100
AcDbEntity
  8
0
100
AcDbLine
 10
88.3031
 20
101.8589999999999
 30
0.0
 11
88.4913
 21
97.56070000000001
 31
0.0
  0
LINE
  5
3D
330
1E
100
AcDbEntity
  8
0
100
AcDbLine
 10
88.4913
 20
97.56070000000001
 30
0.0
 11
88.66662387484948
 21
94.41745950665801
 31
0.0
  0
LINE
  5
3E
330
1E
100
AcDbEntity
  8
0
100
AcDbLine
 10
88.66662387484948
 20
94.41745950665801
 30
0.0
 11
91.0195
 21
57.4329
 31
0.0
  0
LINE
  5
40
330
1E
100
AcDbEntity
  8
0
100
AcDbLine
 10
97.1
 20
5.51492
 30
0.0
 11
98.9
 21
3.93923
 31
0.0
  0
LINE
  5
43
330
1E
100
AcDbEntity
  8
0
100
AcDbLine
 10
88.1487
 20
116.693
 30
0.0
 11
88.7639
 21
119.4159999999999
 31
0.0
  0
LINE
  5
44
330
1E
100
AcDbEntity
  8
0
100
AcDbLine
 10
88.1487
 20
116.693
 30
0.0
 11
88.764
 21
123.713
 31
0.0
  0
LINE
  5
45
330
1E
100
AcDbEntity
  8
0
100
AcDbLine
 10
87.94360000000001
 20
113.874
 30
0.0
 11
88.1487
 21
116.693
 31
0.0
  0
LINE
  5
47
330
1E
100
AcDbEntity
  8
0
100
AcDbLine
 10
87.94360000000001
 20
113.874
 30
0.0
 11
88.0295
 21
109.714
 31
0.0
  0
LINE
  5
48
330
1E
100
AcDbEntity
  8
0
100
AcDbLine
 10
21.1
 20
119.0
 30
0.0
 11
85.8726889819828
 21
119.0
 31
0.0
  0
LINE
  5
4A
330
1E
100
AcDbEntity
  8
0
100
AcDbLine
 10
20.5
 20
119.48
 30
0.0
 11
20.5
 21
120.1999999999999
 31
0.0
  0
LINE
  5
4B
330
1E
100
AcDbEntity
  8
0
100
AcDbLine
 10
20.5
 20
119.48
 30
0.0
 11
21.1
 21
119.0
 31
0.0
  0
LINE
  5
4C
330
1E
100
AcDbEntity
  8
0
100
AcDbLine
 10
20.5
 20
120.1999999999999
 30
0.0
 11
20.5
 21
122.12
 31
0.0
  0
LINE
  5
4D
330
1E
100
AcDbEntity
  8
0
100
AcDbLine
 10
20.5
 20
120.1999999999999
 30
0.0
 11
20.5
 21
119.48
 31
0.0
  0
LINE
  5
4E
330
1E
100
AcDbEntity
  8
0
100
AcDbLine
 10
20.5
 20
122.12
 30
0.0
 11
20.5
 21
125.2399999999999
 31
0.0
  0
LINE
  5
4F
330
1E
100
AcDbEntity
  8
0
100
AcDbLine
 10
20.5
 20
122.12
 30
0.0
 11
20.5
 21
120.1999999999999
 31
0.0
  0
LINE
  5
50
330
1E
100
AcDbEntity
  8
0
100
AcDbLine
 10
20.5
 20
125.2399999999999
 30
0.0
 11
20.5
 21
129.3199999999999
 31
0.0
  0
LINE
  5
51
330
1E
100
AcDbEntity
  8
0
100
AcDbLine
 10
20.5
 20
125.2399999999999
 30
0.0
 11
20.5
 21
122.12
 31
0.0
  0
LINE
  5
52
330
1E
100
AcDbEntity
  8
0
100
AcDbLine
 10
-0.0000000000000153
 20
184.0
 30
0.0
 11
21.3
 21
164.0
 31
0.0
  0
LINE
  5
53
330
1E
100
AcDbEntity
  8
0
100
AcDbLine
 10
-0.0000000000000142
 20
184.0
 30
0.0
 11
21.3
 21
164.0
 31
0.0
  0
LINE
  5
54
330
1E
100
AcDbEntity
  8
0
100
AcDbLine
 10
-0.0000000000000142
 20
184.0
 30
0.0
 11
1.31856999999999
 21
184.0
 31
0.0
  0
LINE
  5
55
330
1E
100
AcDbEntity
  8
0
100
AcDbLine
 10
-0.0000000000000142
 20
184.0
 30
0.0
 11
-0.0000000000000142
 21
189.0
 31
0.0
  0
LINE
  5
56
330
1E
100
AcDbEntity
  8
0
100
AcDbLine
 10
1.31856999999999
 20
184.0
 30
0.0
 11
4.76713999999999
 21
184.0
 31
0.0
  0
LINE
  5
57
330
1E
100
AcDbEntity
  8
0
100
AcDbLine
 10
4.76713999999999
 20
184.0
 30
0.0
 11
10.4471
 21
184.0
 31
0.0
  0
LINE
  5
58
330
1E
100
AcDbEntity
  8
0
100
AcDbLine
 10
10.4471
 20
184.0
 30
0.0
 11
17.8514
 21
184.0
 31
0.0
  0
LINE
  5
59
330
1E
100
AcDbEntity
  8
0
100
AcDbLine
 10
-0.0000000000000142
 20
189.0
 30
0.0
 11
-0.0000000000000142
 21
184.0
 31
0.0
  0
LINE
  5
5A
330
1E
100
AcDbEntity
  8
0
100
AcDbLine
 10
-0.0000000000000142
 20
189.0
 30
0.0
 11
1.31856999999999
 21
189.0
 31
0.0
  0
LINE
  5
5B
330
1E
100
AcDbEntity
  8
0
100
AcDbLine
 10
1.31856999999999
 20
189.0
 30
0.0
 11
4.76713999999999
 21
189.0
 31
0.0
  0
LINE
  5
5C
330
1E
100
AcDbEntity
  8
0
100
AcDbLine
 10
4.76713999999999
 20
189.0
 30
0.0
 11
10.4471
 21
189.0
 31
0.0
  0
LINE
  5
5D
330
1E
100
AcDbEntity
  8
0
100
AcDbLine
 10
10.4471
 20
189.0
 30
0.0
 11
17.8514
 21
189.0
 31
0.0
  0
LINE
  5
5E
330
1E
100
AcDbEntity
  8
0
100
AcDbLine
 10
17.8514
 20
189.0
 30
0.0
 11
26.3714
 21
189.0
 31
0.0
  0
LINE
  5
5F
330
1E
100
AcDbEntity
  8
0
100
AcDbLine
 10
17.8514
 20
184.0
 30
0.0
 11
26.3714
 21
184.0
 31
0.0
  0
LINE
  5
60
330
1E
100
AcDbEntity
  8
0
100
AcDbLine
 10
20.5
 20
149.0
 30
0.0
 11
20.5
 21
144.0399999999999
 31
0.0
  0
LINE
  5
61
330
1E
100
AcDbEntity
  8
0
100
AcDbLine
 10
20.5
 20
149.0
 30
0.0
 11
21.1
 21
149.0
 31
0.0
  0
LINE
  5
62
330
1E
100
AcDbEntity
  8
0
100
AcDbLine
 10
20.5
 20
144.0399999999999
 30
0.0
 11
20.5
 21
139.0
 31
0.0
  0
LINE
  5
63
330
1E
100
AcDbEntity
  8
0
100
AcDbLine
 10
20.5
 20
144.0399999999999
 30
0.0
 11
20.5
 21
149.0
 31
0.0
  0
LINE
  5
64
330
1E
100
AcDbEntity
  8
0
100
AcDbLine
 10
20.5
 20
139.0
 30
0.0
 11
20.5
 21
133.96
 31
0.0
  0
LINE
  5
65
330
1E
100
AcDbEntity
  8
0
100
AcDbLine
 10
20.5
 20
139.0
 30
0.0
 11
20.5
 21
144.0399999999999
 31
0.0
  0
LINE
  5
66
330
1E
100
AcDbEntity
  8
0
100
AcDbLine
 10
20.5
 20
129.3199999999999
 30
0.0
 11
20.5
 21
133.96
 31
0.0
  0
LINE
  5
67
330
1E
100
AcDbEntity
  8
0
100
AcDbLine
 10
20.5
 20
129.3199999999999
 30
0.0
 11
20.5
 21
125.2399999999999
 31
0.0
  0
LINE
  5
72
330
1E
100
AcDbEntity
  8
0
100
AcDbLine
 10
88.7639
 20
119.4159999999999
 30
0.0
 11
89.68659999999999
 21
122.0409999999999
 31
0.0
  0
LINE
  5
74
330
1E
100
AcDbEntity
  8
0
100
AcDbLine
 10
88.764
 20
123.713
 30
0.0
 11
89.29199999999999
 21
126.814
 31
0.0
  0
LINE
  5
77
330
1E
100
AcDbEntity
  8
0
100
AcDbLine
 10
85.87268898198278
 20
119.0
 30
0.0
 11
91.5
 21
18.7113
 31
0.0
  0
LINE
  5
7C
330
1E
100
AcDbEntity
  8
0
100
AcDbLine
 10
90.91700000000001
 20
124.5689999999999
 30
0.0
 11
92.66
 21
126.902
 31
0.0
  0
LINE
  5
7D
330
1E
100
AcDbEntity
  8
0
100
AcDbLine
 10
89.68659999999999
 20
122.0409999999999
 30
0.0
 11
90.91700000000001
 21
124.5689999999999
 31
0.0
  0
LINE
  5
7E
330
1E
100
AcDbEntity
  8
0
100
AcDbLine
 10
90.26000000000001
 20
128.77
 30
0.0
 11
91.40399999999999
 21
131.1229999999999
 31
0.0
  0
LINE
  5
7F
330
1E
100
AcDbEntity
  8
0
100
AcDbLine
 10
91.40399999999999
 20
131.1229999999999
 30
0.0
 11
93.076
 21
133.418
 31
0.0
  0
LINE
  5
80
330
1E
100
AcDbEntity
  8
0
100
AcDbLine
 10
93.076
 20
133.418
 30
0.0
 11
95.012
 21
135.367
 31
0.0
  0
LINE
  5
81
330
1E
100
AcDbEntity
  8
0
100
AcDbLine
 10
92.66
 20
126.902
 30
0.0
 11
94.60799999999998
 21
128.9439999999999
 31
0.0
  0
LINE
  5
82
330
1E
100
AcDbEntity
  8
0
100
AcDbLine
 10
95.012
 20
135.367
 30
0.0
 11
97.124
 21
137.187
 31
0.0
  0
LINE
  5
83
330
1E
100
AcDbEntity
  8
0
100
AcDbLine
 10
94.60799999999998
 20
128.9439999999999
 30
0.0
 11
96.76110000000001
 21
130.7919999999999
 31
0.0
  0
LINE
  5
84
330
1E
100
AcDbEntity
  8
0
100
AcDbLine
 10
96.76110000000001
 20
130.7919999999999
 30
0.0
 11
99.2218
 21
132.4439999999999
 31
0.0
  0
LINE
  5
87
330
1E
100
AcDbEntity
  8
0
100
AcDbLine
 10
97.124
 20
137.187
 30
0.0
 11
99.588
 21
138.6949999999999
 31
0.0
  0
LINE
  5
88
330
1E
100
AcDbEntity
  8
0
100
AcDbLine
 10
94.92399999999999
 20
136.607
 30
0.0
 11
99.588
 21
140.0739999999999
 31
0.0
  0
LINE
  5
89
330
1E
100
AcDbEntity
  8
0
100
AcDbLine
 10
91.40399999999999
 20
132.014
 30
0.0
 11
94.92399999999999
 21
136.607
 31
0.0
  0
LINE
  5
8A
330
1E
100
AcDbEntity
  8
0
100
AcDbLine
 10
89.29199999999999
 20
126.814
 30
0.0
 11
91.40399999999999
 21
132.014
 31
0.0
  0
LINE
  5
8B
330
1E
100
AcDbEntity
  8
0
100
AcDbLine
 10
88.764
 20
123.713
 30
0.0
 11
89.29199999999999
 21
126.814
 31
0.0
  0
LINE
  5
92
330
1E
100
AcDbEntity
  8
0
100
AcDbLine
 10
21.1
 20
149.0
 30
0.0
 11
110.4999999999999
 21
149.0
 31
0.0
  0
LINE
  5
93
330
1E
100
AcDbEntity
  8
0
100
AcDbLine
 10
46.65709999999999
 20
149.0
 30
0.0
 11
48.6857
 21
151.0
 31
0.0
  0
LINE
  5
96
330
1E
100
AcDbEntity
  8
0
100
AcDbLine
 10
22.3143
 20
151.0
 30
0.0
 11
24.3429
 21
149.0
 31
0.0
  0
LINE
  5
97
330
1E
100
AcDbEntity
  8
0
100
AcDbLine
 10
22.3143
 20
151.0
 30
0.0
 11
22.3143
 21
153.0
 31
0.0
  0
LINE
  5
98
330
1E
100
AcDbEntity
  8
0
100
AcDbLine
 10
22.3143
 20
151.0
 30
0.0
 11
22.8214
 21
151.0
 31
0.0
  0
LINE
  5
99
330
1E
100
AcDbEntity
  8
0
100
AcDbLine
 10
48.6857
 20
151.0
 30
0.0
 11
48.6857
 21
153.0
 31
0.0
  0
LINE
  5
9A
330
1E
100
AcDbEntity
  8
0
100
AcDbLine
 10
22.8214
 20
151.0
 30
0.0
 11
48.6857
 21
151.0
 31
0.0
  0
LINE
  5
9C
330
1E
100
AcDbEntity
  8
0
100
AcDbLine
 10
22.3143
 20
156.0
 30
0.0
 11
22.3143
 21
153.0
 31
0.0
  0
LINE
  5
9D
330
1E
100
AcDbEntity
  8
0
100
AcDbLine
 10
22.3143
 20
156.0
 30
0.0
 11
22.3143
 21
159.0
 31
0.0
  0
LINE
  5
9E
330
1E
100
AcDbEntity
  8
0
100
AcDbLine
 10
22.3143
 20
153.0
 30
0.0
 11
22.3143
 21
151.0
 31
0.0
  0
LINE
  5
9F
330
1E
100
AcDbEntity
  8
0
100
AcDbLine
 10
22.3143
 20
153.0
 30
0.0
 11
22.3143
 21
156.0
 31
0.0
  0
LINE
  5
A0
330
1E
100
AcDbEntity
  8
0
100
AcDbLine
 10
22.3143
 20
159.0
 30
0.0
 11
22.3143
 21
161.0
 31
0.0
  0
LINE
  5
A1
330
1E
100
AcDbEntity
  8
0
100
AcDbLine
 10
22.3143
 20
159.0
 30
0.0
 11
22.3143
 21
156.0
 31
0.0
  0
LINE
  5
A3
330
1E
100
AcDbEntity
  8
0
100
AcDbLine
 10
24.7486
 20
163.0
 30
0.0
 11
25.8643
 21
163.0
 31
0.0
  0
LINE
  5
A4
330
1E
100
AcDbEntity
  8
0
100
AcDbLine
 10
25.8643
 20
163.0
 30
0.0
 11
27.5886
 21
163.0
 31
0.0
  0
LINE
  5
A5
330
1E
100
AcDbEntity
  8
0
100
AcDbLine
 10
27.5886
 20
163.0
 30
0.0
 11
29.9214
 21
163.0
 31
0.0
  0
LINE
  5
A6
330
1E
100
AcDbEntity
  8
0
100
AcDbLine
 10
29.9214
 20
163.0
 30
0.0
 11
32.66
 21
163.0
 31
0.0
  0
LINE
  5
A8
330
1E
100
AcDbEntity
  8
0
100
AcDbLine
 10
32.66
 20
163.0
 30
0.0
 11
35.5
 21
163.0
 31
0.0
  0
LINE
  5
A9
330
1E
100
AcDbEntity
  8
0
100
AcDbLine
 10
24.3429
 20
163.0
 30
0.0
 11
24.3429
 21
164.0
 31
0.0
  0
LINE
  5
AA
330
1E
100
AcDbEntity
  8
0
100
AcDbLine
 10
24.3429
 20
163.0
 30
0.0
 11
24.7486
 21
163.0
 31
0.0
  0
LINE
  5
AB
330
1E
100
AcDbEntity
  8
0
100
AcDbLine
 10
22.3143
 20
161.0
 30
0.0
 11
24.3429
 21
163.0
 31
0.0
  0
LINE
  5
AC
330
1E
100
AcDbEntity
  8
0
100
AcDbLine
 10
22.3143
 20
161.0
 30
0.0
 11
22.8214
 21
161.0
 31
0.0
  0
LINE
  5
AD
330
1E
100
AcDbEntity
  8
0
100
AcDbLine
 10
22.3143
 20
161.0
 30
0.0
 11
22.3143
 21
159.0
 31
0.0
  0
LINE
  5
AE
330
1E
100
AcDbEntity
  8
0
100
AcDbLine
 10
38.34
 20
163.0
 30
0.0
 11
41.0786
 21
163.0
 31
0.0
  0
LINE
  5
AF
330
1E
100
AcDbEntity
  8
0
100
AcDbLine
 10
48.6857
 20
161.0
 30
0.0
 11
48.6857
 21
156.0
 31
0.0
  0
LINE
  5
B0
330
1E
100
AcDbEntity
  8
0
100
AcDbLine
 10
22.8214
 20
161.0
 30
0.0
 11
48.6857
 21
161.0
 31
0.0
  0
LINE
  5
B1
330
1E
100
AcDbEntity
  8
0
100
AcDbLine
 10
46.2514
 20
163.0
 30
0.0
 11
46.65709999999999
 21
163.0
 31
0.0
  0
LINE
  5
B2
330
1E
100
AcDbEntity
  8
0
100
AcDbLine
 10
46.65709999999999
 20
163.0
 30
0.0
 11
48.6857
 21
161.0
 31
0.0
  0
LINE
  5
B3
330
1E
100
AcDbEntity
  8
0
100
AcDbLine
 10
46.65709999999999
 20
163.0
 30
0.0
 11
46.65709999999999
 21
164.0
 31
0.0
  0
LINE
  5
B4
330
1E
100
AcDbEntity
  8
0
100
AcDbLine
 10
45.1357
 20
163.0
 30
0.0
 11
46.2514
 21
163.0
 31
0.0
  0
LINE
  5
B5
330
1E
100
AcDbEntity
  8
0
100
AcDbLine
 10
43.4114
 20
163.0
 30
0.0
 11
45.1357
 21
163.0
 31
0.0
  0
LINE
  5
B6
330
1E
100
AcDbEntity
  8
0
100
AcDbLine
 10
41.0786
 20
163.0
 30
0.0
 11
43.4114
 21
163.0
 31
0.0
  0
LINE
  5
B9
330
1E
100
AcDbEntity
  8
0
100
AcDbLine
 10
24.3429
 20
164.0
 30
0.0
 11
24.7486
 21
164.0
 31
0.0
  0
LINE
  5
BA
330
1E
100
AcDbEntity
  8
0
100
AcDbLine
 10
24.3429
 20
164.0
 30
0.0
 11
24.3429
 21
163.0
 31
0.0
  0
LINE
  5
BB
330
1E
100
AcDbEntity
  8
0
100
AcDbLine
 10
21.3
 20
164.0
 30
0.0
 11
21.80709999999999
 21
164.0
 31
0.0
  0
LINE
  5
BC
330
1E
100
AcDbEntity
  8
0
100
AcDbLine
 10
24.7486
 20
164.0
 30
0.0
 11
25.8643
 21
164.0
 31
0.0
  0
LINE
  5
BD
330
1E
100
AcDbEntity
  8
0
100
AcDbLine
 10
21.80709999999999
 20
164.0
 30
0.0
 11
23.2271
 21
164.0
 31
0.0
  0
LINE
  5
BE
330
1E
100
AcDbEntity
  8
0
100
AcDbLine
 10
25.8643
 20
164.0
 30
0.0
 11
27.5886
 21
164.0
 31
0.0
  0
LINE
  5
BF
330
1E
100
AcDbEntity
  8
0
100
AcDbLine
 10
23.2271
 20
164.0
 30
0.0
 11
25.4586
 21
164.0
 31
0.0
  0
LINE
  5
C0
330
1E
100
AcDbEntity
  8
0
100
AcDbLine
 10
23.2271
 20
164.0
 30
0.0
 11
24.3429
 21
164.0
 31
0.0
  0
LINE
  5
C1
330
1E
100
AcDbEntity
  8
0
100
AcDbLine
 10
27.5886
 20
164.0
 30
0.0
 11
29.9214
 21
164.0
 31
0.0
  0
LINE
  5
C2
330
1E
100
AcDbEntity
  8
0
100
AcDbLine
 10
25.4586
 20
164.0
 30
0.0
 11
28.39999999999999
 21
164.0
 31
0.0
  0
LINE
  5
C3
330
1E
100
AcDbEntity
  8
0
100
AcDbLine
 10
29.9214
 20
164.0
 30
0.0
 11
32.66
 21
164.0
 31
0.0
  0
LINE
  5
C4
330
1E
100
AcDbEntity
  8
0
100
AcDbLine
 10
28.39999999999999
 20
164.0
 30
0.0
 11
31.8486
 21
164.0
 31
0.0
  0
LINE
  5
C5
330
1E
100
AcDbEntity
  8
0
100
AcDbLine
 10
32.66
 20
164.0
 30
0.0
 11
35.5
 21
164.0
 31
0.0
  0
LINE
  5
C6
330
1E
100
AcDbEntity
  8
0
100
AcDbLine
 10
31.8486
 20
164.0
 30
0.0
 11
35.5
 21
164.0
 31
0.0
  0
LINE
  5
C7
330
1E
100
AcDbEntity
  8
0
100
AcDbLine
 10
42.6
 20
164.0
 30
0.0
 11
45.5414
 21
164.0
 31
0.0
  0
LINE
  5
C8
330
1E
100
AcDbEntity
  8
0
100
AcDbLine
 10
39.1514
 20
164.0
 30
0.0
 11
42.6
 21
164.0
 31
0.0
  0
LINE
  5
C9
330
1E
100
AcDbEntity
  8
0
100
AcDbLine
 10
45.5414
 20
164.0
 30
0.0
 11
47.77289999999999
 21
164.0
 31
0.0
  0
LINE
  5
CA
330
1E
100
AcDbEntity
  8
0
100
AcDbLine
 10
46.2514
 20
164.0
 30
0.0
 11
46.65709999999999
 21
164.0
 31
0.0
  0
LINE
  5
CB
330
1E
100
AcDbEntity
  8
0
100
AcDbLine
 10
45.1357
 20
164.0
 30
0.0
 11
46.2514
 21
164.0
 31
0.0
  0
LINE
  5
CC
330
1E
100
AcDbEntity
  8
0
100
AcDbLine
 10
43.4114
 20
164.0
 30
0.0
 11
45.1357
 21
164.0
 31
0.0
  0
LINE
  5
CD
330
1E
100
AcDbEntity
  8
0
100
AcDbLine
 10
41.0786
 20
164.0
 30
0.0
 11
43.4114
 21
164.0
 31
0.0
  0
LINE
  5
CE
330
1E
100
AcDbEntity
  8
0
100
AcDbLine
 10
38.34
 20
164.0
 30
0.0
 11
41.0786
 21
164.0
 31
0.0
  0
LINE
  5
CF
330
1E
100
AcDbEntity
  8
0
100
AcDbLine
 10
26.3714
 20
189.0
 30
0.0
 11
35.5
 21
189.0
 31
0.0
  0
LINE
  5
D0
330
1E
100
AcDbEntity
  8
0
100
AcDbLine
 10
26.3714
 20
184.0
 30
0.0
 11
35.5
 21
184.0
 31
0.0
  0
LINE
  5
D1
330
1E
100
AcDbEntity
  8
0
100
AcDbLine
 10
35.5
 20
189.0
 30
0.0
 11
44.6286
 21
189.0
 31
0.0
  0
LINE
  5
D2
330
1E
100
AcDbEntity
  8
0
100
AcDbLine
 10
44.6286
 20
189.0
 30
0.0
 11
53.1486
 21
189.0
 31
0.0
  0
LINE
  5
D3
330
1E
100
AcDbEntity
  8
0
100
AcDbLine
 10
44.6286
 20
184.0
 30
0.0
 11
53.1486
 21
184.0
 31
0.0
  0
LINE
  5
D4
330
1E
100
AcDbEntity
  8
0
100
AcDbLine
 10
35.5
 20
184.0
 30
0.0
 11
44.6286
 21
184.0
 31
0.0
  0
LINE
  5
D5
330
1E
100
AcDbEntity
  8
0
100
AcDbLine
 10
35.5
 20
164.0
 30
0.0
 11
38.34
 21
164.0
 31
0.0
  0
LINE
  5
D6
330
1E
100
AcDbEntity
  8
0
100
AcDbLine
 10
35.5
 20
164.0
 30
0.0
 11
39.1514
 21
164.0
 31
0.0
  0
LINE
  5
D7
330
1E
100
AcDbEntity
  8
0
100
AcDbLine
 10
47.77289999999999
 20
164.0
 30
0.0
 11
49.1929
 21
164.0
 31
0.0
  0
LINE
  5
D8
330
1E
100
AcDbEntity
  8
0
100
AcDbLine
 10
46.65709999999999
 20
164.0
 30
0.0
 11
46.65709999999999
 21
163.0
 31
0.0
  0
LINE
  5
D9
330
1E
100
AcDbEntity
  8
0
100
AcDbLine
 10
46.65709999999999
 20
164.0
 30
0.0
 11
47.77289999999999
 21
164.0
 31
0.0
  0
LINE
  5
DA
330
1E
100
AcDbEntity
  8
0
100
AcDbLine
 10
35.5
 20
163.0
 30
0.0
 11
38.34
 21
163.0
 31
0.0
  0
LINE
  5
DB
330
1E
100
AcDbEntity
  8
0
100
AcDbLine
 10
48.6857
 20
156.0
 30
0.0
 11
48.6857
 21
153.0
 31
0.0
  0
LINE
  5
DC
330
1E
100
AcDbEntity
  8
0
100
AcDbLine
 10
48.6857
 20
156.0
 30
0.0
 11
48.6857
 21
161.0
 31
0.0
  0
LINE
  5
DE
330
1E
100
AcDbEntity
  8
0
100
AcDbLine
 10
49.7
 20
164.0
 30
0.0
 11
71.0
 21
184.0
 31
0.0
  0
LINE
  5
DF
330
1E
100
AcDbEntity
  8
0
100
AcDbLine
 10
71.0
 20
184.0
 30
0.0
 11
71.0
 21
189.0
 31
0.0
  0
LINE
  5
E0
330
1E
100
AcDbEntity
  8
0
100
AcDbLine
 10
69.6814
 20
184.0
 30
0.0
 11
71.0
 21
184.0
 31
0.0
  0
LINE
  5
E1
330
1E
100
AcDbEntity
  8
0
100
AcDbLine
 10
66.2329
 20
184.0
 30
0.0
 11
69.6814
 21
184.0
 31
0.0
  0
LINE
  5
E2
330
1E
100
AcDbEntity
  8
0
100
AcDbLine
 10
60.5529
 20
184.0
 30
0.0
 11
66.2329
 21
184.0
 31
0.0
  0
LINE
  5
E3
330
1E
100
AcDbEntity
  8
0
100
AcDbLine
 10
69.6814
 20
189.0
 30
0.0
 11
71.0
 21
189.0
 31
0.0
  0
LINE
  5
E4
330
1E
100
AcDbEntity
  8
0
100
AcDbLine
 10
66.2329
 20
189.0
 30
0.0
 11
69.6814
 21
189.0
 31
0.0
  0
LINE
  5
E5
330
1E
100
AcDbEntity
  8
0
100
AcDbLine
 10
60.5529
 20
189.0
 30
0.0
 11
66.2329
 21
189.0
 31
0.0
  0
LINE
  5
E6
330
1E
100
AcDbEntity
  8
0
100
AcDbLine
 10
53.1486
 20
189.0
 30
0.0
 11
60.5529
 21
189.0
 31
0.0
  0
LINE
  5
E7
330
1E
100
AcDbEntity
  8
0
100
AcDbLine
 10
53.1486
 20
184.0
 30
0.0
 11
60.5529
 21
184.0
 31
0.0
  0
LINE
  5
E8
330
1E
100
AcDbEntity
  8
0
100
AcDbLine
 10
71.0
 20
189.0
 30
0.0
 11
71.0
 21
184.0
 31
0.0
  0
LINE
  5
E9
330
1E
100
AcDbEntity
  8
0
100
AcDbLine
 10
49.1929
 20
164.0
 30
0.0
 11
49.7
 21
164.0
 31
0.0
  0
LINE
  5
EA
330
1E
100
AcDbEntity
  8
0
100
AcDbLine
 10
48.6857
 20
153.0
 30
0.0
 11
48.6857
 21
151.0
 31
0.0
  0
LINE
  5
EB
330
1E
100
AcDbEntity
  8
0
100
AcDbLine
 10
48.6857
 20
153.0
 30
0.0
 11
48.6857
 21
156.0
 31
0.0
  0
LINE
  5
EC
330
1E
100
AcDbEntity
  8
0
100
AcDbLine
 10
21.1
 20
149.0
 30
0.0
 11
110.4999999999999
 21
149.0
 31
0.0
  0
LINE
  5
F1
330
1E
100
AcDbEntity
  8
0
100
AcDbLine
 10
20.5
 20
133.96
 30
0.0
 11
20.5
 21
139.0
 31
0.0
  0
LINE
  5
F2
330
1E
100
AcDbEntity
  8
0
100
AcDbLine
 10
20.5
 20
133.96
 30
0.0
 11
20.5
 21
129.3199999999999
 31
0.0
  0
LINE
  5
F3
330
1E
100
AcDbEntity
  8
0
100
AcDbLine
 10
21.1
 20
119.0
 30
0.0
 11
85.8726889819828
 21
119.0
 31
0.0
  0
LINE
  5
F4
330
1E
100
AcDbEntity
  8
0
100
AcDbLine
 10
98.60660000000001
 20
42.8487
 30
0.0
 11
100.76
 21
41.3903
 31
0.0
  0
LINE
  5
F6
330
1E
100
AcDbEntity
  8
0
100
AcDbLine
 10
98.9
 20
3.93923
 30
0.0
 11
101.0
 21
2.462019999999999
 31
0.0
  0
LINE
  5
F8
330
1E
100
AcDbEntity
  8
0
100
AcDbLine
 10
99.15420000000001
 20
109.929
 30
0.0
 11
99.41020000000001
 21
109.965
 31
0.0
  0
LINE
  5
F9
330
1E
100
AcDbEntity
  8
0
100
AcDbLine
 10
105.6
 20
0.689366000000002
 30
0.0
 11
108.0
 21
0.196962000000002
 31
0.0
  0
LINE
  5
FA
330
1E
100
AcDbEntity
  8
0
100
AcDbLine
 10
105.6
 20
0.689366000000002
 30
0.0
 11
108.0
 21
0.196962000000002
 31
0.0
  0
LINE
  5
FB
330
1E
100
AcDbEntity
  8
0
100
AcDbLine
 10
101.0
 20
2.462019999999999
 30
0.0
 11
103.2
 21
1.47721
 31
0.0
  0
LINE
  5
FD
330
1E
100
AcDbEntity
  8
0
100
AcDbLine
 10
103.2
 20
1.47721
 30
0.0
 11
105.6
 21
0.689366000000002
 31
0.0
  0
LINE
  5
FE
330
1E
100
AcDbEntity
  8
0
100
AcDbLine
 10
103.2
 20
1.47721
 30
0.0
 11
105.6
 21
0.689366000000002
 31
0.0
  0
LINE
  5
104
330
1E
100
AcDbEntity
  8
0
100
AcDbLine
 10
108.0
 20
0.196962000000002
 30
0.0
 11
110.4999999999999
 21
0.0000000000000021
 31
0.0
  0
LINE
  5
105
330
1E
100
AcDbEntity
  8
0
100
AcDbLine
 10
108.0
 20
0.196962000000002
 30
0.0
 11
110.4999999999999
 21
0.0000000000000021
 31
0.0
  0
LINE
  5
127
330
1E
100
AcDbEntity
  8
0
100
AcDbLine
 10
107.937
 20
39.15409999999999
 30
0.0
 11
110.4999999999999
 21
38.9596
 31
0.0
  0
LINE
  5
128
330
1E
100
AcDbEntity
  8
0
100
AcDbLine
 10
103.015
 20
40.418
 30
0.0
 11
105.4759999999999
 21
39.6402
 31
0.0
  0
LINE
  5
129
330
1E
100
AcDbEntity
  8
0
100
AcDbLine
 10
105.4759999999999
 20
39.6402
 30
0.0
 11
107.937
 21
39.15409999999999
 31
0.0
  0
LINE
  5
12A
330
1E
100
AcDbEntity
  8
0
100
AcDbLine
 10
100.76
 20
41.3903
 30
0.0
 11
103.015
 21
40.418
 31
0.0
  0
LINE
  5
14D
330
1E
100
AcDbEntity
  8
0
100
AcDbLine
 10
99.41020000000001
 20
109.965
 30
0.0
 11
99.6502
 21
110.061
 31
0.0
  0
LINE
  5
14E
330
1E
100
AcDbEntity
  8
0
100
AcDbLine
 10
99.6502
 20
110.061
 30
0.0
 11
99.86220000000001
 21
110.221
 31
0.0
  0
LINE
  5
153
330
1E
100
AcDbEntity
  8
0
100
AcDbLine
 10
99.86220000000001
 20
110.221
 30
0.0
 11
100.0221999999999
 21
110.433
 31
0.0
  0
LINE
  5
154
330
1E
100
AcDbEntity
  8
0
100
AcDbLine
 10
98.8982
 20
109.965
 30
0.0
 11
99.15420000000001
 21
109.929
 31
0.0
  0
LINE
  5
155
330
1E
100
AcDbEntity
  8
0
100
AcDbLine
 10
98.65819999999999
 20
110.061
 30
0.0
 11
98.8982
 21
109.965
 31
0.0
  0
LINE
  5
156
330
1E
100
AcDbEntity
  8
0
100
AcDbLine
 10
100.0221999999999
 20
110.433
 30
0.0
 11
100.1182
 21
110.6729999999999
 31
0.0
  0
LINE
  5
15B
330
1E
100
AcDbEntity
  8
0
100
AcDbLine
 10
100.1182
 20
110.6729999999999
 30
0.0
 11
100.1542
 21
110.929
 31
0.0
  0
LINE
  5
15C
330
1E
100
AcDbEntity
  8
0
100
AcDbLine
 10
98.4462
 20
110.221
 30
0.0
 11
98.65819999999999
 21
110.061
 31
0.0
  0
LINE
  5
15D
330
1E
100
AcDbEntity
  8
0
100
AcDbLine
 10
98.2862
 20
110.433
 30
0.0
 11
98.4462
 21
110.221
 31
0.0
  0
LINE
  5
15E
330
1E
100
AcDbEntity
  8
0
100
AcDbLine
 10
98.2862
 20
111.4249999999999
 30
0.0
 11
98.4462
 21
111.637
 31
0.0
  0
LINE
  5
15F
330
1E
100
AcDbEntity
  8
0
100
AcDbLine
 10
98.19020000000001
 20
111.185
 30
0.0
 11
98.2862
 21
111.4249999999999
 31
0.0
  0
LINE
  5
160
330
1E
100
AcDbEntity
  8
0
100
AcDbLine
 10
98.65819999999999
 20
111.797
 30
0.0
 11
98.8982
 21
111.8929999999999
 31
0.0
  0
LINE
  5
161
330
1E
100
AcDbEntity
  8
0
100
AcDbLine
 10
98.4462
 20
111.637
 30
0.0
 11
98.65819999999999
 21
111.797
 31
0.0
  0
LINE
  5
162
330
1E
100
AcDbEntity
  8
0
100
AcDbLine
 10
98.8982
 20
111.8929999999999
 30
0.0
 11
99.15420000000001
 21
111.929
 31
0.0
  0
LINE
  5
163
330
1E
100
AcDbEntity
  8
0
100
AcDbLine
 10
99.2218
 20
132.4439999999999
 30
0.0
 11
101.888
 21
133.6109999999999
 31
0.0
  0
LINE
  5
164
330
1E
100
AcDbEntity
  8
0
100
AcDbLine
 10
99.15420000000001
 20
111.929
 30
0.0
 11
99.41020000000001
 21
111.8929999999999
 31
0.0
  0
LINE
  5
166
330
1E
100
AcDbEntity
  8
0
100
AcDbLine
 10
99.588
 20
138.6949999999999
 30
0.0
 11
102.14
 21
139.7429999999999
 31
0.0
  0
LINE
  5
168
330
1E
100
AcDbEntity
  8
0
100
AcDbLine
 10
99.588
 20
140.0739999999999
 30
0.0
 11
104.868
 21
142.1529999999999
 31
0.0
  0
LINE
  5
169
330
1E
100
AcDbEntity
  8
0
100
AcDbLine
 10
99.41020000000001
 20
111.8929999999999
 30
0.0
 11
99.6502
 21
111.797
 31
0.0
  0
LINE
  5
16A
330
1E
100
AcDbEntity
  8
0
100
AcDbLine
 10
99.6502
 20
111.797
 30
0.0
 11
99.86220000000001
 21
111.637
 31
0.0
  0
LINE
  5
16C
330
1E
100
AcDbEntity
  8
0
100
AcDbLine
 10
99.86220000000001
 20
111.637
 30
0.0
 11
100.0221999999999
 21
111.4249999999999
 31
0.0
  0
LINE
  5
16D
330
1E
100
AcDbEntity
  8
0
100
AcDbLine
 10
100.0221999999999
 20
111.4249999999999
 30
0.0
 11
100.1182
 21
111.185
 31
0.0
  0
LINE
  5
16E
330
1E
100
AcDbEntity
  8
0
100
AcDbLine
 10
101.888
 20
133.6109999999999
 30
0.0
 11
104.656
 21
134.4859999999999
 31
0.0
  0
LINE
  5
170
330
1E
100
AcDbEntity
  8
0
100
AcDbLine
 10
102.14
 20
139.7429999999999
 30
0.0
 11
104.868
 21
140.626
 31
0.0
  0
LINE
  5
171
330
1E
100
AcDbEntity
  8
0
100
AcDbLine
 10
104.868
 20
140.626
 30
0.0
 11
107.596
 21
141.1399999999999
 31
0.0
  0
LINE
  5
172
330
1E
100
AcDbEntity
  8
0
100
AcDbLine
 10
104.656
 20
134.4859999999999
 30
0.0
 11
107.5269999999999
 21
135.07
 31
0.0
  0
LINE
  5
1B7
330
1E
100
AcDbEntity
  8
0
100
AcDbLine
 10
107.596
 20
141.1399999999999
 30
0.0
 11
110.4999999999999
 21
141.361
 31
0.0
  0
LINE
  5
1B8
330
1E
100
AcDbEntity
  8
0
100
AcDbLine
 10
107.5269999999999
 20
135.07
 30
0.0
 11
110.4999999999999
 21
135.264
 31
0.0
  0
LINE
  5
23A
330
1E
100
AcDbEntity
  8
0
100
AcDbLine
 10
104.868
 20
142.1529999999999
 30
0.0
 11
110.4999999999999
 21
142.933
 31
0.0
  0
LINE
  5
23B
330
1E
100
AcDbEntity
  8
0
100
AcDbLine
 10
100.1182
 20
111.185
 30
0.0
 11
100.1542
 21
110.929
 31
0.0
  0
LINE
  5
23C
330
1E
100
AcDbEntity
  8
0
100
AcDbLine
 10
98.19020000000001
 20
110.6729999999999
 30
0.0
 11
98.2862
 21
110.433
 31
0.0
  0
LINE
  5
23D
330
1E
100
AcDbEntity
  8
0
100
AcDbLine
 10
98.15420000000001
 20
110.929
 30
0.0
 11
98.19020000000001
 21
110.6729999999999
 31
0.0
  0
LINE
  5
23E
330
1E
100
AcDbEntity
  8
0
100
AcDbLine
 10
98.15420000000001
 20
110.929
 30
0.0
 11
98.19020000000001
 21
111.185
 31
0.0
  0
LINE
  5
243
330
1E
100
AcDbEntity
  8
0
100
AcDbLine
 10
135.1273110180172
 20
119.0
 30
0.0
 11
129.4999999999999
 21
18.7113
 31
0.0
  0
LINE
  5
244
330
1E
100
AcDbEntity
  8
0
100
AcDbLine
 10
132.5087
 20
97.56070000000001
 30
0.0
 11
132.3333761251505
 21
94.41745950665801
 31
0.0
  0
LINE
  5
245
330
1E
100
AcDbEntity
  8
0
100
AcDbLine
 10
125.5
 20
7.28758
 30
0.0
 11
123.9
 21
5.51492
 31
0.0
  0
LINE
  5
246
330
1E
100
AcDbEntity
  8
0
100
AcDbLine
 10
120.0
 20
2.462019999999999
 30
0.0
 11
117.7999999999999
 21
1.47721
 31
0.0
  0
LINE
  5
247
330
1E
100
AcDbEntity
  8
0
100
AcDbLine
 10
123.9
 20
5.51492
 30
0.0
 11
122.0999999999999
 21
3.93923
 31
0.0
  0
LINE
  5
248
330
1E
100
AcDbEntity
  8
0
100
AcDbLine
 10
122.0999999999999
 20
3.93923
 30
0.0
 11
120.0
 21
2.462019999999999
 31
0.0
  0
LINE
  5
249
330
1E
100
AcDbEntity
  8
0
100
AcDbLine
 10
115.4
 20
0.689366000000002
 30
0.0
 11
113.0
 21
0.196962000000002
 31
0.0
  0
LINE
  5
24A
330
1E
100
AcDbEntity
  8
0
100
AcDbLine
 10
115.4
 20
0.689366000000002
 30
0.0
 11
113.0
 21
0.196962000000002
 31
0.0
  0
LINE
  5
24B
330
1E
100
AcDbEntity
  8
0
100
AcDbLine
 10
117.7999999999999
 20
1.47721
 30
0.0
 11
115.4
 21
0.689366000000002
 31
0.0
  0
LINE
  5
24C
330
1E
100
AcDbEntity
  8
0
100
AcDbLine
 10
117.7999999999999
 20
1.47721
 30
0.0
 11
115.4
 21
0.689366000000002
 31
0.0
  0
LINE
  5
24D
330
1E
100
AcDbEntity
  8
0
100
AcDbLine
 10
113.0
 20
0.196962000000002
 30
0.0
 11
110.4999999999999
 21
0.0000000000000021
 31
0.0
  0
LINE
  5
24E
330
1E
100
AcDbEntity
  8
0
100
AcDbLine
 10
113.0
 20
0.196962000000002
 30
0.0
 11
110.4999999999999
 21
0.0000000000000021
 31
0.0
  0
LINE
  5
24F
330
1E
100
AcDbEntity
  8
0
100
AcDbLine
 10
128.0
 20
11.5223
 30
0.0
 11
127.0
 21
9.355670000000008
 31
0.0
  0
LINE
  5
250
330
1E
100
AcDbEntity
  8
0
100
AcDbLine
 10
128.8
 20
13.8858
 30
0.0
 11
128.0
 21
11.5223
 31
0.0
  0
LINE
  5
251
330
1E
100
AcDbEntity
  8
0
100
AcDbLine
 10
129.4999999999999
 20
18.7113
 30
0.0
 11
129.3
 21
16.2493
 31
0.0
  0
LINE
  5
252
330
1E
100
AcDbEntity
  8
0
100
AcDbLine
 10
129.3
 20
16.2493
 30
0.0
 11
128.8
 21
13.8858
 31
0.0
  0
LINE
  5
253
330
1E
100
AcDbEntity
  8
0
100
AcDbLine
 10
127.0
 20
9.355670000000008
 30
0.0
 11
125.5
 21
7.28758
 31
0.0
  0
LINE
  5
254
330
1E
100
AcDbEntity
  8
0
100
AcDbLine
 10
132.3333761251505
 20
94.41745950665801
 30
0.0
 11
129.9805
 21
57.4329
 31
0.0
  0
LINE
  5
255
330
1E
100
AcDbEntity
  8
0
100
AcDbLine
 10
128.4426
 20
50.33529999999999
 30
0.0
 11
127.4173
 21
48.1963
 31
0.0
  0
LINE
  5
256
330
1E
100
AcDbEntity
  8
0
100
AcDbLine
 10
129.7753999999999
 20
55.0022
 30
0.0
 11
129.2628
 21
52.6687
 31
0.0
  0
LINE
  5
257
330
1E
100
AcDbEntity
  8
0
100
AcDbLine
 10
129.2628
 20
52.6687
 30
0.0
 11
128.4426
 21
50.33529999999999
 31
0.0
  0
LINE
  5
258
330
1E
100
AcDbEntity
  8
0
100
AcDbLine
 10
129.9805
 20
57.4329
 30
0.0
 11
129.7753999999999
 21
55.0022
 31
0.0
  0
LINE
  5
259
330
1E
100
AcDbEntity
  8
0
100
AcDbLine
 10
120.2399999999999
 20
41.3903
 30
0.0
 11
117.985
 21
40.418
 31
0.0
  0
LINE
  5
25A
330
1E
100
AcDbEntity
  8
0
100
AcDbLine
 10
122.3934
 20
42.8487
 30
0.0
 11
120.2399999999999
 21
41.3903
 31
0.0
  0
LINE
  5
25B
330
1E
100
AcDbEntity
  8
0
100
AcDbLine
 10
124.2388999999999
 20
44.4044
 30
0.0
 11
122.3934
 21
42.8487
 31
0.0
  0
LINE
  5
25C
330
1E
100
AcDbEntity
  8
0
100
AcDbLine
 10
127.4173
 20
48.1963
 30
0.0
 11
125.8793
 21
46.1545
 31
0.0
  0
LINE
  5
25D
330
1E
100
AcDbEntity
  8
0
100
AcDbLine
 10
125.8793
 20
46.1545
 30
0.0
 11
124.2388999999999
 21
44.4044
 31
0.0
  0
LINE
  5
25E
330
1E
100
AcDbEntity
  8
0
100
AcDbLine
 10
115.524
 20
39.6402
 30
0.0
 11
113.0629999999999
 21
39.15409999999999
 31
0.0
  0
LINE
  5
25F
330
1E
100
AcDbEntity
  8
0
100
AcDbLine
 10
117.985
 20
40.418
 30
0.0
 11
115.524
 21
39.6402
 31
0.0
  0
LINE
  5
260
330
1E
100
AcDbEntity
  8
0
100
AcDbLine
 10
113.0629999999999
 20
39.15409999999999
 30
0.0
 11
110.4999999999999
 21
38.9596
 31
0.0
  0
LINE
  5
261
330
1E
100
AcDbEntity
  8
0
100
AcDbLine
 10
198.1785999999999
 20
151.0
 30
0.0
 11
172.3143
 21
151.0
 31
0.0
  0
LINE
  5
262
330
1E
100
AcDbEntity
  8
0
100
AcDbLine
 10
198.1785999999999
 20
161.0
 30
0.0
 11
172.3143
 21
161.0
 31
0.0
  0
LINE
  5
263
330
1E
100
AcDbEntity
  8
0
100
AcDbLine
 10
199.9
 20
119.0
 30
0.0
 11
135.1273110180172
 21
119.0
 31
0.0
  0
LINE
  5
264
330
1E
100
AcDbEntity
  8
0
100
AcDbLine
 10
199.9
 20
149.0
 30
0.0
 11
110.4999999999999
 21
149.0
 31
0.0
  0
LINE
  5
265
330
1E
100
AcDbEntity
  8
0
100
AcDbLine
 10
185.5
 20
184.0
 30
0.0
 11
176.3714
 21
184.0
 31
0.0
  0
LINE
  5
266
330
1E
100
AcDbEntity
  8
0
100
AcDbLine
 10
185.5
 20
189.0
 30
0.0
 11
176.3714
 21
189.0
 31
0.0
  0
LINE
  5
267
330
1E
100
AcDbEntity
  8
0
100
AcDbLine
 10
179.9214
 20
164.0
 30
0.0
 11
177.5885999999999
 21
164.0
 31
0.0
  0
LINE
  5
268
330
1E
100
AcDbEntity
  8
0
100
AcDbLine
 10
181.8486
 20
164.0
 30
0.0
 11
178.3999999999999
 21
164.0
 31
0.0
  0
LINE
  5
269
330
1E
100
AcDbEntity
  8
0
100
AcDbLine
 10
179.9214
 20
163.0
 30
0.0
 11
177.5885999999999
 21
163.0
 31
0.0
  0
LINE
  5
26A
330
1E
100
AcDbEntity
  8
0
100
AcDbLine
 10
199.9
 20
149.0
 30
0.0
 11
110.4999999999999
 21
149.0
 31
0.0
  0
LINE
  5
26B
330
1E
100
AcDbEntity
  8
0
100
AcDbLine
 10
199.9
 20
119.0
 30
0.0
 11
135.1273110180172
 21
119.0
 31
0.0
  0
LINE
  5
26C
330
1E
100
AcDbEntity
  8
0
100
AcDbLine
 10
198.6857
 20
153.0
 30
0.0
 11
198.6857
 21
156.0
 31
0.0
  0
LINE
  5
26D
330
1E
100
AcDbEntity
  8
0
100
AcDbLine
 10
198.6857
 20
156.0
 30
0.0
 11
198.6857
 21
153.0
 31
0.0
  0
LINE
  5
26E
330
1E
100
AcDbEntity
  8
0
100
AcDbLine
 10
200.4999999999999
 20
125.2399999999999
 30
0.0
 11
200.4999999999999
 21
122.12
 31
0.0
  0
LINE
  5
26F
330
1E
100
AcDbEntity
  8
0
100
AcDbLine
 10
200.4999999999999
 20
122.12
 30
0.0
 11
200.4999999999999
 21
125.2399999999999
 31
0.0
  0
LINE
  5
270
330
1E
100
AcDbEntity
  8
0
100
AcDbLine
 10
200.4999999999999
 20
122.12
 30
0.0
 11
200.4999999999999
 21
120.1999999999999
 31
0.0
  0
LINE
  5
271
330
1E
100
AcDbEntity
  8
0
100
AcDbLine
 10
200.4999999999999
 20
120.1999999999999
 30
0.0
 11
200.4999999999999
 21
122.12
 31
0.0
  0
LINE
  5
272
330
1E
100
AcDbEntity
  8
0
100
AcDbLine
 10
200.4999999999999
 20
120.1999999999999
 30
0.0
 11
200.4999999999999
 21
119.48
 31
0.0
  0
LINE
  5
273
330
1E
100
AcDbEntity
  8
0
100
AcDbLine
 10
200.4999999999999
 20
119.48
 30
0.0
 11
199.9
 21
119.0
 31
0.0
  0
LINE
  5
274
330
1E
100
AcDbEntity
  8
0
100
AcDbLine
 10
200.4999999999999
 20
119.48
 30
0.0
 11
200.4999999999999
 21
120.1999999999999
 31
0.0
  0
LINE
  5
275
330
1E
100
AcDbEntity
  8
0
100
AcDbLine
 10
198.6857
 20
151.0
 30
0.0
 11
196.6571
 21
149.0
 31
0.0
  0
LINE
  5
276
330
1E
100
AcDbEntity
  8
0
100
AcDbLine
 10
200.4999999999999
 20
133.96
 30
0.0
 11
200.4999999999999
 21
139.0
 31
0.0
  0
LINE
  5
277
330
1E
100
AcDbEntity
  8
0
100
AcDbLine
 10
200.4999999999999
 20
139.0
 30
0.0
 11
200.4999999999999
 21
133.96
 31
0.0
  0
LINE
  5
278
330
1E
100
AcDbEntity
  8
0
100
AcDbLine
 10
200.4999999999999
 20
133.96
 30
0.0
 11
200.4999999999999
 21
129.3199999999999
 31
0.0
  0
LINE
  5
279
330
1E
100
AcDbEntity
  8
0
100
AcDbLine
 10
200.4999999999999
 20
129.3199999999999
 30
0.0
 11
200.4999999999999
 21
133.96
 31
0.0
  0
LINE
  5
27A
330
1E
100
AcDbEntity
  8
0
100
AcDbLine
 10
200.4999999999999
 20
129.3199999999999
 30
0.0
 11
200.4999999999999
 21
125.2399999999999
 31
0.0
  0
LINE
  5
27B
330
1E
100
AcDbEntity
  8
0
100
AcDbLine
 10
200.4999999999999
 20
125.2399999999999
 30
0.0
 11
200.4999999999999
 21
129.3199999999999
 31
0.0
  0
LINE
  5
27C
330
1E
100
AcDbEntity
  8
0
100
AcDbLine
 10
200.4999999999999
 20
144.0399999999999
 30
0.0
 11
200.4999999999999
 21
149.0
 31
0.0
  0
LINE
  5
27D
330
1E
100
AcDbEntity
  8
0
100
AcDbLine
 10
200.4999999999999
 20
149.0
 30
0.0
 11
200.4999999999999
 21
144.0399999999999
 31
0.0
  0
LINE
  5
27E
330
1E
100
AcDbEntity
  8
0
100
AcDbLine
 10
200.4999999999999
 20
139.0
 30
0.0
 11
200.4999999999999
 21
144.0399999999999
 31
0.0
  0
LINE
  5
27F
330
1E
100
AcDbEntity
  8
0
100
AcDbLine
 10
200.4999999999999
 20
144.0399999999999
 30
0.0
 11
200.4999999999999
 21
139.0
 31
0.0
  0
LINE
  5
280
330
1E
100
AcDbEntity
  8
0
100
AcDbLine
 10
200.4999999999999
 20
149.0
 30
0.0
 11
199.9
 21
149.0
 31
0.0
  0
LINE
  5
281
330
1E
100
AcDbEntity
  8
0
100
AcDbLine
 10
198.6857
 20
153.0
 30
0.0
 11
198.6857
 21
151.0
 31
0.0
  0
LINE
  5
282
330
1E
100
AcDbEntity
  8
0
100
AcDbLine
 10
198.6857
 20
151.0
 30
0.0
 11
198.1785999999999
 21
151.0
 31
0.0
  0
LINE
  5
283
330
1E
100
AcDbEntity
  8
0
100
AcDbLine
 10
198.6857
 20
151.0
 30
0.0
 11
198.6857
 21
153.0
 31
0.0
  0
LINE
  5
284
330
1E
100
AcDbEntity
  8
0
100
AcDbLine
 10
216.23286
 20
189.0
 30
0.0
 11
210.5528999999999
 21
189.0
 31
0.0
  0
LINE
  5
285
330
1E
100
AcDbEntity
  8
0
100
AcDbLine
 10
216.23286
 20
184.0
 30
0.0
 11
210.5528999999999
 21
184.0
 31
0.0
  0
LINE
  5
286
330
1E
100
AcDbEntity
  8
0
100
AcDbLine
 10
221.0
 20
184.0
 30
0.0
 11
199.6999999999999
 21
164.0
 31
0.0
  0
LINE
  5
287
330
1E
100
AcDbEntity
  8
0
100
AcDbLine
 10
221.0
 20
184.0
 30
0.0
 11
199.6999999999999
 21
164.0
 31
0.0
  0
LINE
  5
288
330
1E
100
AcDbEntity
  8
0
100
AcDbLine
 10
219.68143
 20
189.0
 30
0.0
 11
216.23286
 21
189.0
 31
0.0
  0
LINE
  5
289
330
1E
100
AcDbEntity
  8
0
100
AcDbLine
 10
219.68143
 20
184.0
 30
0.0
 11
216.23286
 21
184.0
 31
0.0
  0
LINE
  5
28A
330
1E
100
AcDbEntity
  8
0
100
AcDbLine
 10
221.0
 20
189.0
 30
0.0
 11
221.0
 21
184.0
 31
0.0
  0
LINE
  5
28B
330
1E
100
AcDbEntity
  8
0
100
AcDbLine
 10
221.0
 20
184.0
 30
0.0
 11
221.0
 21
189.0
 31
0.0
  0
LINE
  5
28C
330
1E
100
AcDbEntity
  8
0
100
AcDbLine
 10
221.0
 20
184.0
 30
0.0
 11
219.68143
 21
184.0
 31
0.0
  0
LINE
  5
28D
330
1E
100
AcDbEntity
  8
0
100
AcDbLine
 10
221.0
 20
189.0
 30
0.0
 11
219.68143
 21
189.0
 31
0.0
  0
LINE
  5
28E
330
1E
100
AcDbEntity
  8
0
100
AcDbLine
 10
197.7729
 20
164.0
 30
0.0
 11
196.6571
 21
164.0
 31
0.0
  0
LINE
  5
28F
330
1E
100
AcDbEntity
  8
0
100
AcDbLine
 10
197.7729
 20
164.0
 30
0.0
 11
195.5414
 21
164.0
 31
0.0
  0
LINE
  5
290
330
1E
100
AcDbEntity
  8
0
100
AcDbLine
 10
198.6857
 20
161.0
 30
0.0
 11
196.6571
 21
163.0
 31
0.0
  0
LINE
  5
291
330
1E
100
AcDbEntity
  8
0
100
AcDbLine
 10
198.6857
 20
161.0
 30
0.0
 11
198.6857
 21
159.0
 31
0.0
  0
LINE
  5
292
330
1E
100
AcDbEntity
  8
0
100
AcDbLine
 10
198.6857
 20
159.0
 30
0.0
 11
198.6857
 21
161.0
 31
0.0
  0
LINE
  5
293
330
1E
100
AcDbEntity
  8
0
100
AcDbLine
 10
198.6857
 20
159.0
 30
0.0
 11
198.6857
 21
156.0
 31
0.0
  0
LINE
  5
294
330
1E
100
AcDbEntity
  8
0
100
AcDbLine
 10
198.6857
 20
156.0
 30
0.0
 11
198.6857
 21
159.0
 31
0.0
  0
LINE
  5
295
330
1E
100
AcDbEntity
  8
0
100
AcDbLine
 10
199.1929
 20
164.0
 30
0.0
 11
197.7729
 21
164.0
 31
0.0
  0
LINE
  5
296
330
1E
100
AcDbEntity
  8
0
100
AcDbLine
 10
199.6999999999999
 20
164.0
 30
0.0
 11
199.1929
 21
164.0
 31
0.0
  0
LINE
  5
297
330
1E
100
AcDbEntity
  8
0
100
AcDbLine
 10
198.6857
 20
161.0
 30
0.0
 11
198.1785999999999
 21
161.0
 31
0.0
  0
LINE
  5
298
330
1E
100
AcDbEntity
  8
0
100
AcDbLine
 10
189.1513999999999
 20
164.0
 30
0.0
 11
185.5
 21
164.0
 31
0.0
  0
LINE
  5
299
330
1E
100
AcDbEntity
  8
0
100
AcDbLine
 10
188.3399999999999
 20
164.0
 30
0.0
 11
185.5
 21
164.0
 31
0.0
  0
LINE
  5
29A
330
1E
100
AcDbEntity
  8
0
100
AcDbLine
 10
188.3399999999999
 20
163.0
 30
0.0
 11
185.5
 21
163.0
 31
0.0
  0
LINE
  5
29B
330
1E
100
AcDbEntity
  8
0
100
AcDbLine
 10
192.5999999999999
 20
164.0
 30
0.0
 11
189.1513999999999
 21
164.0
 31
0.0
  0
LINE
  5
29C
330
1E
100
AcDbEntity
  8
0
100
AcDbLine
 10
193.4114
 20
164.0
 30
0.0
 11
191.0785999999999
 21
164.0
 31
0.0
  0
LINE
  5
29D
330
1E
100
AcDbEntity
  8
0
100
AcDbLine
 10
193.4114
 20
163.0
 30
0.0
 11
191.0785999999999
 21
163.0
 31
0.0
  0
LINE
  5
29E
330
1E
100
AcDbEntity
  8
0
100
AcDbLine
 10
195.5414
 20
164.0
 30
0.0
 11
192.5999999999999
 21
164.0
 31
0.0
  0
LINE
  5
29F
330
1E
100
AcDbEntity
  8
0
100
AcDbLine
 10
195.1356999999999
 20
164.0
 30
0.0
 11
193.4114
 21
164.0
 31
0.0
  0
LINE
  5
2A0
330
1E
100
AcDbEntity
  8
0
100
AcDbLine
 10
195.1356999999999
 20
163.0
 30
0.0
 11
193.4114
 21
163.0
 31
0.0
  0
LINE
  5
2A1
330
1E
100
AcDbEntity
  8
0
100
AcDbLine
 10
196.2513999999999
 20
164.0
 30
0.0
 11
195.1356999999999
 21
164.0
 31
0.0
  0
LINE
  5
2A2
330
1E
100
AcDbEntity
  8
0
100
AcDbLine
 10
196.6571
 20
164.0
 30
0.0
 11
196.6571
 21
163.0
 31
0.0
  0
LINE
  5
2A3
330
1E
100
AcDbEntity
  8
0
100
AcDbLine
 10
196.6571
 20
164.0
 30
0.0
 11
196.2513999999999
 21
164.0
 31
0.0
  0
LINE
  5
2A4
330
1E
100
AcDbEntity
  8
0
100
AcDbLine
 10
196.6571
 20
163.0
 30
0.0
 11
196.2513999999999
 21
163.0
 31
0.0
  0
LINE
  5
2A5
330
1E
100
AcDbEntity
  8
0
100
AcDbLine
 10
196.6571
 20
163.0
 30
0.0
 11
196.6571
 21
164.0
 31
0.0
  0
LINE
  5
2A6
330
1E
100
AcDbEntity
  8
0
100
AcDbLine
 10
196.2513999999999
 20
163.0
 30
0.0
 11
195.1356999999999
 21
163.0
 31
0.0
  0
LINE
  5
2A7
330
1E
100
AcDbEntity
  8
0
100
AcDbLine
 10
191.0785999999999
 20
164.0
 30
0.0
 11
188.3399999999999
 21
164.0
 31
0.0
  0
LINE
  5
2A8
330
1E
100
AcDbEntity
  8
0
100
AcDbLine
 10
191.0785999999999
 20
163.0
 30
0.0
 11
188.3399999999999
 21
163.0
 31
0.0
  0
LINE
  5
2A9
330
1E
100
AcDbEntity
  8
0
100
AcDbLine
 10
185.5
 20
163.0
 30
0.0
 11
182.66
 21
163.0
 31
0.0
  0
LINE
  5
2AA
330
1E
100
AcDbEntity
  8
0
100
AcDbLine
 10
185.5
 20
164.0
 30
0.0
 11
181.8486
 21
164.0
 31
0.0
  0
LINE
  5
2AB
330
1E
100
AcDbEntity
  8
0
100
AcDbLine
 10
185.5
 20
164.0
 30
0.0
 11
182.66
 21
164.0
 31
0.0
  0
LINE
  5
2AC
330
1E
100
AcDbEntity
  8
0
100
AcDbLine
 10
182.66
 20
164.0
 30
0.0
 11
179.9214
 21
164.0
 31
0.0
  0
LINE
  5
2AD
330
1E
100
AcDbEntity
  8
0
100
AcDbLine
 10
182.66
 20
163.0
 30
0.0
 11
179.9214
 21
163.0
 31
0.0
  0
LINE
  5
2AE
330
1E
100
AcDbEntity
  8
0
100
AcDbLine
 10
203.1486
 20
184.0
 30
0.0
 11
194.6286
 21
184.0
 31
0.0
  0
LINE
  5
2AF
330
1E
100
AcDbEntity
  8
0
100
AcDbLine
 10
203.1486
 20
189.0
 30
0.0
 11
194.6286
 21
189.0
 31
0.0
  0
LINE
  5
2B0
330
1E
100
AcDbEntity
  8
0
100
AcDbLine
 10
210.5528999999999
 20
189.0
 30
0.0
 11
203.1486
 21
189.0
 31
0.0
  0
LINE
  5
2B1
330
1E
100
AcDbEntity
  8
0
100
AcDbLine
 10
210.5528999999999
 20
184.0
 30
0.0
 11
203.1486
 21
184.0
 31
0.0
  0
LINE
  5
2B2
330
1E
100
AcDbEntity
  8
0
100
AcDbLine
 10
194.6286
 20
184.0
 30
0.0
 11
185.5
 21
184.0
 31
0.0
  0
LINE
  5
2B3
330
1E
100
AcDbEntity
  8
0
100
AcDbLine
 10
194.6286
 20
189.0
 30
0.0
 11
185.5
 21
189.0
 31
0.0
  0
LINE
  5
2B4
330
1E
100
AcDbEntity
  8
0
100
AcDbLine
 10
172.3143
 20
153.0
 30
0.0
 11
172.3143
 21
156.0
 31
0.0
  0
LINE
  5
2B5
330
1E
100
AcDbEntity
  8
0
100
AcDbLine
 10
172.3143
 20
156.0
 30
0.0
 11
172.3143
 21
153.0
 31
0.0
  0
LINE
  5
2B6
330
1E
100
AcDbEntity
  8
0
100
AcDbLine
 10
174.3428999999999
 20
149.0
 30
0.0
 11
172.3143
 21
151.0
 31
0.0
  0
LINE
  5
2B7
330
1E
100
AcDbEntity
  8
0
100
AcDbLine
 10
172.3143
 20
153.0
 30
0.0
 11
172.3143
 21
151.0
 31
0.0
  0
LINE
  5
2B8
330
1E
100
AcDbEntity
  8
0
100
AcDbLine
 10
172.3143
 20
151.0
 30
0.0
 11
172.3143
 21
153.0
 31
0.0
  0
LINE
  5
2B9
330
1E
100
AcDbEntity
  8
0
100
AcDbLine
 10
132.2359999999999
 20
123.713
 30
0.0
 11
131.708
 21
126.814
 31
0.0
  0
LINE
  5
2BA
330
1E
100
AcDbEntity
  8
0
100
AcDbLine
 10
132.2359999999999
 20
123.713
 30
0.0
 11
131.708
 21
126.814
 31
0.0
  0
LINE
  5
2BB
330
1E
100
AcDbEntity
  8
0
100
AcDbLine
 10
131.3134
 20
122.0409999999999
 30
0.0
 11
130.0829999999999
 21
124.5689999999999
 31
0.0
  0
LINE
  5
2BC
330
1E
100
AcDbEntity
  8
0
100
AcDbLine
 10
132.9705
 20
109.714
 30
0.0
 11
132.8643999999999
 21
106.0589999999999
 31
0.0
  0
LINE
  5
2BD
330
1E
100
AcDbEntity
  8
0
100
AcDbLine
 10
132.8643999999999
 20
106.0589999999999
 30
0.0
 11
132.6969
 21
101.8589999999999
 31
0.0
  0
LINE
  5
2BE
330
1E
100
AcDbEntity
  8
0
100
AcDbLine
 10
132.6969
 20
101.8589999999999
 30
0.0
 11
132.5087
 21
97.56070000000001
 31
0.0
  0
LINE
  5
2BF
330
1E
100
AcDbEntity
  8
0
100
AcDbLine
 10
133.0564
 20
113.874
 30
0.0
 11
132.8512999999999
 21
116.693
 31
0.0
  0
LINE
  5
2C0
330
1E
100
AcDbEntity
  8
0
100
AcDbLine
 10
133.0564
 20
113.874
 30
0.0
 11
132.9705
 21
109.714
 31
0.0
  0
LINE
  5
2C1
330
1E
100
AcDbEntity
  8
0
100
AcDbLine
 10
132.2360999999999
 20
119.4159999999999
 30
0.0
 11
131.3134
 21
122.0409999999999
 31
0.0
  0
LINE
  5
2C2
330
1E
100
AcDbEntity
  8
0
100
AcDbLine
 10
132.8512999999999
 20
116.693
 30
0.0
 11
132.2359999999999
 21
123.713
 31
0.0
  0
LINE
  5
2C3
330
1E
100
AcDbEntity
  8
0
100
AcDbLine
 10
132.8512999999999
 20
116.693
 30
0.0
 11
132.2360999999999
 21
119.4159999999999
 31
0.0
  0
LINE
  5
2C4
330
1E
100
AcDbEntity
  8
0
100
AcDbLine
 10
121.3497999999999
 20
111.797
 30
0.0
 11
121.1378
 21
111.637
 31
0.0
  0
LINE
  5
2C5
330
1E
100
AcDbEntity
  8
0
100
AcDbLine
 10
121.3497999999999
 20
110.061
 30
0.0
 11
121.1378
 21
110.221
 31
0.0
  0
LINE
  5
2C6
330
1E
100
AcDbEntity
  8
0
100
AcDbLine
 10
122.8458
 20
110.929
 30
0.0
 11
122.8097999999999
 21
111.185
 31
0.0
  0
LINE
  5
2C7
330
1E
100
AcDbEntity
  8
0
100
AcDbLine
 10
122.8458
 20
110.929
 30
0.0
 11
122.8097999999999
 21
110.6729999999999
 31
0.0
  0
LINE
  5
2C8
330
1E
100
AcDbEntity
  8
0
100
AcDbLine
 10
122.8097999999999
 20
110.6729999999999
 30
0.0
 11
122.7138
 21
110.433
 31
0.0
  0
LINE
  5
2C9
330
1E
100
AcDbEntity
  8
0
100
AcDbLine
 10
121.5897999999999
 20
111.8929999999999
 30
0.0
 11
121.3497999999999
 21
111.797
 31
0.0
  0
LINE
  5
2CA
330
1E
100
AcDbEntity
  8
0
100
AcDbLine
 10
121.8458
 20
111.929
 30
0.0
 11
121.5897999999999
 21
111.8929999999999
 31
0.0
  0
LINE
  5
2CB
330
1E
100
AcDbEntity
  8
0
100
AcDbLine
 10
122.1017999999999
 20
111.8929999999999
 30
0.0
 11
121.8458
 21
111.929
 31
0.0
  0
LINE
  5
2CC
330
1E
100
AcDbEntity
  8
0
100
AcDbLine
 10
122.5538
 20
111.637
 30
0.0
 11
122.3418
 21
111.797
 31
0.0
  0
LINE
  5
2CD
330
1E
100
AcDbEntity
  8
0
100
AcDbLine
 10
122.3418
 20
111.797
 30
0.0
 11
122.1017999999999
 21
111.8929999999999
 31
0.0
  0
LINE
  5
2CE
330
1E
100
AcDbEntity
  8
0
100
AcDbLine
 10
122.8097999999999
 20
111.185
 30
0.0
 11
122.7138
 21
111.4249999999999
 31
0.0
  0
LINE
  5
2CF
330
1E
100
AcDbEntity
  8
0
100
AcDbLine
 10
122.7138
 20
111.4249999999999
 30
0.0
 11
122.5538
 21
111.637
 31
0.0
  0
LINE
  5
2D0
330
1E
100
AcDbEntity
  8
0
100
AcDbLine
 10
122.7138
 20
110.433
 30
0.0
 11
122.5538
 21
110.221
 31
0.0
  0
LINE
  5
2D1
330
1E
100
AcDbEntity
  8
0
100
AcDbLine
 10
122.5538
 20
110.221
 30
0.0
 11
122.3418
 21
110.061
 31
0.0
  0
LINE
  5
2D2
330
1E
100
AcDbEntity
  8
0
100
AcDbLine
 10
122.3418
 20
110.061
 30
0.0
 11
122.1017999999999
 21
109.965
 31
0.0
  0
LINE
  5
2D3
330
1E
100
AcDbEntity
  8
0
100
AcDbLine
 10
122.1017999999999
 20
109.965
 30
0.0
 11
121.8458
 21
109.929
 31
0.0
  0
LINE
  5
2D4
330
1E
100
AcDbEntity
  8
0
100
AcDbLine
 10
121.5897999999999
 20
109.965
 30
0.0
 11
121.3497999999999
 21
110.061
 31
0.0
  0
LINE
  5
2D5
330
1E
100
AcDbEntity
  8
0
100
AcDbLine
 10
121.8458
 20
109.929
 30
0.0
 11
121.5897999999999
 21
109.965
 31
0.0
  0
LINE
  5
2D6
330
1E
100
AcDbEntity
  8
0
100
AcDbLine
 10
120.8817999999999
 20
111.185
 30
0.0
 11
120.8458
 21
110.929
 31
0.0
  0
LINE
  5
2D7
330
1E
100
AcDbEntity
  8
0
100
AcDbLine
 10
120.9778
 20
111.4249999999999
 30
0.0
 11
120.8817999999999
 21
111.185
 31
0.0
  0
LINE
  5
2D8
330
1E
100
AcDbEntity
  8
0
100
AcDbLine
 10
121.1378
 20
111.637
 30
0.0
 11
120.9778
 21
111.4249999999999
 31
0.0
  0
LINE
  5
2D9
330
1E
100
AcDbEntity
  8
0
100
AcDbLine
 10
120.8817999999999
 20
110.6729999999999
 30
0.0
 11
120.8458
 21
110.929
 31
0.0
  0
LINE
  5
2DA
330
1E
100
AcDbEntity
  8
0
100
AcDbLine
 10
120.9778
 20
110.433
 30
0.0
 11
120.8817999999999
 21
110.6729999999999
 31
0.0
  0
LINE
  5
2DB
330
1E
100
AcDbEntity
  8
0
100
AcDbLine
 10
121.1378
 20
110.221
 30
0.0
 11
120.9778
 21
110.433
 31
0.0
  0
LINE
  5
2DC
330
1E
100
AcDbEntity
  8
0
100
AcDbLine
 10
129.596
 20
132.014
 30
0.0
 11
126.076
 21
136.607
 31
0.0
  0
LINE
  5
2DD
330
1E
100
AcDbEntity
  8
0
100
AcDbLine
 10
128.34
 20
126.902
 30
0.0
 11
126.392
 21
128.9439999999999
 31
0.0
  0
LINE
  5
2DE
330
1E
100
AcDbEntity
  8
0
100
AcDbLine
 10
127.9239999999999
 20
133.418
 30
0.0
 11
125.988
 21
135.367
 31
0.0
  0
LINE
  5
2DF
330
1E
100
AcDbEntity
  8
0
100
AcDbLine
 10
131.708
 20
126.814
 30
0.0
 11
129.596
 21
132.014
 31
0.0
  0
LINE
  5
2E0
330
1E
100
AcDbEntity
  8
0
100
AcDbLine
 10
129.596
 20
131.1229999999999
 30
0.0
 11
127.9239999999999
 21
133.418
 31
0.0
  0
LINE
  5
2E1
330
1E
100
AcDbEntity
  8
0
100
AcDbLine
 10
130.0829999999999
 20
124.5689999999999
 30
0.0
 11
128.34
 21
126.902
 31
0.0
  0
LINE
  5
2E2
330
1E
100
AcDbEntity
  8
0
100
AcDbLine
 10
130.74
 20
128.77
 30
0.0
 11
129.596
 21
131.1229999999999
 31
0.0
  0
LINE
  5
2E3
330
1E
100
AcDbEntity
  8
0
100
AcDbLine
 10
121.412
 20
138.6949999999999
 30
0.0
 11
118.86
 21
139.7429999999999
 31
0.0
  0
LINE
  5
2E4
330
1E
100
AcDbEntity
  8
0
100
AcDbLine
 10
126.076
 20
136.607
 30
0.0
 11
121.412
 21
140.0739999999999
 31
0.0
  0
LINE
  5
2E5
330
1E
100
AcDbEntity
  8
0
100
AcDbLine
 10
121.7781999999999
 20
132.4439999999999
 30
0.0
 11
119.112
 21
133.6109999999999
 31
0.0
  0
LINE
  5
2E6
330
1E
100
AcDbEntity
  8
0
100
AcDbLine
 10
124.2388999999999
 20
130.7919999999999
 30
0.0
 11
121.7781999999999
 21
132.4439999999999
 31
0.0
  0
LINE
  5
2E7
330
1E
100
AcDbEntity
  8
0
100
AcDbLine
 10
126.392
 20
128.9439999999999
 30
0.0
 11
124.2388999999999
 21
130.7919999999999
 31
0.0
  0
LINE
  5
2E8
330
1E
100
AcDbEntity
  8
0
100
AcDbLine
 10
123.876
 20
137.187
 30
0.0
 11
121.412
 21
138.6949999999999
 31
0.0
  0
LINE
  5
2E9
330
1E
100
AcDbEntity
  8
0
100
AcDbLine
 10
125.988
 20
135.367
 30
0.0
 11
123.876
 21
137.187
 31
0.0
  0
LINE
  5
2EA
330
1E
100
AcDbEntity
  8
0
100
AcDbLine
 10
116.344
 20
134.4859999999999
 30
0.0
 11
113.473
 21
135.07
 31
0.0
  0
LINE
  5
2EB
330
1E
100
AcDbEntity
  8
0
100
AcDbLine
 10
119.112
 20
133.6109999999999
 30
0.0
 11
116.344
 21
134.4859999999999
 31
0.0
  0
LINE
  5
2EC
330
1E
100
AcDbEntity
  8
0
100
AcDbLine
 10
113.473
 20
135.07
 30
0.0
 11
110.4999999999999
 21
135.264
 31
0.0
  0
LINE
  5
2ED
330
1E
100
AcDbEntity
  8
0
100
AcDbLine
 10
121.412
 20
140.0739999999999
 30
0.0
 11
116.132
 21
142.1529999999999
 31
0.0
  0
LINE
  5
2EE
330
1E
100
AcDbEntity
  8
0
100
AcDbLine
 10
116.132
 20
142.1529999999999
 30
0.0
 11
110.4999999999999
 21
142.933
 31
0.0
  0
LINE
  5
2EF
330
1E
100
AcDbEntity
  8
0
100
AcDbLine
 10
116.132
 20
140.626
 30
0.0
 11
113.4039999999999
 21
141.1399999999999
 31
0.0
  0
LINE
  5
2F0
330
1E
100
AcDbEntity
  8
0
100
AcDbLine
 10
118.86
 20
139.7429999999999
 30
0.0
 11
116.132
 21
140.626
 31
0.0
  0
LINE
  5
2F1
330
1E
100
AcDbEntity
  8
0
100
AcDbLine
 10
113.4039999999999
 20
141.1399999999999
 30
0.0
 11
110.4999999999999
 21
141.361
 31
0.0
  0
LINE
  5
2F2
330
1E
100
AcDbEntity
  8
0
100
AcDbLine
 10
171.3
 20
164.0
 30
0.0
 11
150.0
 21
184.0
 31
0.0
  0
LINE
  5
2F3
330
1E
100
AcDbEntity
  8
0
100
AcDbLine
 10
172.3143
 20
156.0
 30
0.0
 11
172.3143
 21
161.0
 31
0.0
  0
LINE
  5
2F4
330
1E
100
AcDbEntity
  8
0
100
AcDbLine
 10
172.3143
 20
161.0
 30
0.0
 11
172.3143
 21
156.0
 31
0.0
  0
LINE
  5
2F5
330
1E
100
AcDbEntity
  8
0
100
AcDbLine
 10
175.8643
 20
164.0
 30
0.0
 11
174.7486
 21
164.0
 31
0.0
  0
LINE
  5
2F6
330
1E
100
AcDbEntity
  8
0
100
AcDbLine
 10
175.4585999999999
 20
164.0
 30
0.0
 11
173.2271
 21
164.0
 31
0.0
  0
LINE
  5
2F7
330
1E
100
AcDbEntity
  8
0
100
AcDbLine
 10
175.8643
 20
163.0
 30
0.0
 11
174.7486
 21
163.0
 31
0.0
  0
LINE
  5
2F8
330
1E
100
AcDbEntity
  8
0
100
AcDbLine
 10
177.5885999999999
 20
164.0
 30
0.0
 11
175.8643
 21
164.0
 31
0.0
  0
LINE
  5
2F9
330
1E
100
AcDbEntity
  8
0
100
AcDbLine
 10
178.3999999999999
 20
164.0
 30
0.0
 11
175.4585999999999
 21
164.0
 31
0.0
  0
LINE
  5
2FA
330
1E
100
AcDbEntity
  8
0
100
AcDbLine
 10
177.5885999999999
 20
163.0
 30
0.0
 11
175.8643
 21
163.0
 31
0.0
  0
LINE
  5
2FB
330
1E
100
AcDbEntity
  8
0
100
AcDbLine
 10
173.2271
 20
164.0
 30
0.0
 11
171.8070999999999
 21
164.0
 31
0.0
  0
LINE
  5
2FC
330
1E
100
AcDbEntity
  8
0
100
AcDbLine
 10
174.3428999999999
 20
163.0
 30
0.0
 11
172.3143
 21
161.0
 31
0.0
  0
LINE
  5
2FD
330
1E
100
AcDbEntity
  8
0
100
AcDbLine
 10
174.3428999999999
 20
164.0
 30
0.0
 11
173.2271
 21
164.0
 31
0.0
  0
LINE
  5
2FE
330
1E
100
AcDbEntity
  8
0
100
AcDbLine
 10
174.3428999999999
 20
164.0
 30
0.0
 11
174.3428999999999
 21
163.0
 31
0.0
  0
LINE
  5
2FF
330
1E
100
AcDbEntity
  8
0
100
AcDbLine
 10
174.7486
 20
164.0
 30
0.0
 11
174.3428999999999
 21
164.0
 31
0.0
  0
LINE
  5
300
330
1E
100
AcDbEntity
  8
0
100
AcDbLine
 10
174.3428999999999
 20
163.0
 30
0.0
 11
174.3428999999999
 21
164.0
 31
0.0
  0
LINE
  5
301
330
1E
100
AcDbEntity
  8
0
100
AcDbLine
 10
174.7486
 20
163.0
 30
0.0
 11
174.3428999999999
 21
163.0
 31
0.0
  0
LINE
  5
302
330
1E
100
AcDbEntity
  8
0
100
AcDbLine
 10
171.8070999999999
 20
164.0
 30
0.0
 11
171.3
 21
164.0
 31
0.0
  0
LINE
  5
303
330
1E
100
AcDbEntity
  8
0
100
AcDbLine
 10
167.8514
 20
184.0
 30
0.0
 11
160.4471
 21
184.0
 31
0.0
  0
LINE
  5
304
330
1E
100
AcDbEntity
  8
0
100
AcDbLine
 10
167.8514
 20
189.0
 30
0.0
 11
160.4471
 21
189.0
 31
0.0
  0
LINE
  5
305
330
1E
100
AcDbEntity
  8
0
100
AcDbLine
 10
176.3714
 20
184.0
 30
0.0
 11
167.8514
 21
184.0
 31
0.0
  0
LINE
  5
306
330
1E
100
AcDbEntity
  8
0
100
AcDbLine
 10
176.3714
 20
189.0
 30
0.0
 11
167.8514
 21
189.0
 31
0.0
  0
LINE
  5
307
330
1E
100
AcDbEntity
  8
0
100
AcDbLine
 10
154.7671
 20
189.0
 30
0.0
 11
151.3186
 21
189.0
 31
0.0
  0
LINE
  5
308
330
1E
100
AcDbEntity
  8
0
100
AcDbLine
 10
154.7671
 20
184.0
 30
0.0
 11
151.3186
 21
184.0
 31
0.0
  0
LINE
  5
309
330
1E
100
AcDbEntity
  8
0
100
AcDbLine
 10
160.4471
 20
189.0
 30
0.0
 11
154.7671
 21
189.0
 31
0.0
  0
LINE
  5
30A
330
1E
100
AcDbEntity
  8
0
100
AcDbLine
 10
160.4471
 20
184.0
 30
0.0
 11
154.7671
 21
184.0
 31
0.0
  0
LINE
  5
30B
330
1E
100
AcDbEntity
  8
0
100
AcDbLine
 10
150.0
 20
189.0
 30
0.0
 11
150.0
 21
184.0
 31
0.0
  0
LINE
  5
30C
330
1E
100
AcDbEntity
  8
0
100
AcDbLine
 10
150.0
 20
184.0
 30
0.0
 11
150.0
 21
189.0
 31
0.0
  0
LINE
  5
30D
330
1E
100
AcDbEntity
  8
0
100
AcDbLine
 10
151.3186
 20
184.0
 30
0.0
 11
150.0
 21
184.0
 31
0.0
  0
LINE
  5
30E
330
1E
100
AcDbEntity
  8
0
100
AcDbLine
 10
151.3186
 20
189.0
 30
0.0
 11
150.0
 21
189.0
 31
0.0
  0
ENDSEC
  0
SECTION
  2
OBJECTS
  0
DICTIONARY
  5
C
330
0
100
AcDbDictionary
281
     1
  3
ACAD_GROUP
350
D
  3
ACAD_LAYOUT
350
19
  3
ACAD_MLINESTYLE
350
16
  3
ACAD_PLOTSETTINGS
350
18
  3
ACAD_PLOTSTYLENAME
350
E
  3
AcDbVariableDictionary
350
30F
  0
DICTIONARY
  5
D
102
{ACAD_REACTORS
330
C
102
}
330
C
100
AcDbDictionary
281
     1
  0
DICTIONARY
  5
19
102
{ACAD_REACTORS
330
C
102
}
330
C
100
AcDbDictionary
281
     1
  3
Layout1
350
1D
  3
Model
350
21
  0
DICTIONARY
  5
16
102
{ACAD_REACTORS
330
C
102
}
330
C
100
AcDbDictionary
281
     1
  3
Standard
350
17
  0
DICTIONARY
  5
18
102
{ACAD_REACTORS
330
C
102
}
330
C
100
AcDbDictionary
281
     1
  0
ACDBDICTIONARYWDFLT
  5
E
102
{ACAD_REACTORS
330
C
102
}
330
C
100
AcDbDictionary
281
     1
  3
Normal
350
F
100
AcDbDictionaryWithDefault
340
F
  0
DICTIONARY
  5
30F
102
{ACAD_REACTORS
330
C
102
}
330
C
100
AcDbDictionary
281
     1
  3
DIMASSOC
350
310
  0
LAYOUT
  5
1D
102
{ACAD_REACTORS
330
19
102
}
330
19
100
AcDbPlotSettings
  1

  2
hp deskjet 980c series
  4

  6

 40
0.0
 41
0.0
 42
0.0
 43
0.0
 44
0.0
 45
0.0
 46
0.0
 47
0.0
 48
0.0
 49
0.0
140
0.0
141
0.0
142
1.0
143
1.0
 70
   688
 72
     0
 73
     0
 74
     5
  7

 75
    16
147
1.0
148
0.0
149
0.0
100
AcDbLayout
  1
Layout1
 70
     1
 71
     1
 10
0.0
 20
0.0
 11
12.0
 21
9.0
 12
0.0
 22
0.0
 32
0.0
 14
1.000000000000000E+20
 24
1.000000000000000E+20
 34
1.000000000000000E+20
 15
-1.000000000000000E+20
 25
-1.000000000000000E+20
 35
-1.000000000000000E+20
146
0.0
 13
0.0
 23
0.0
 33
0.0
 16
1.0
 26
0.0
 36
0.0
 17
0.0
 27
1.0
 37
0.0
 76
     0
330
1A
  0
LAYOUT
  5
21
102
{ACAD_REACTORS
330
19
102
}
330
19
100
AcDbPlotSettings
  1

  2
hp deskjet 980c series
  4

  6

 40
0.0
 41
0.0
 42
0.0
 43
0.0
 44
0.0
 45
0.0
 46
0.0
 47
0.0
 48
0.0
 49
0.0
140
0.0
141
0.0
142
1.0
143
1.0
 70
  1712
 72
     0
 73
     0
 74
     0
  7

 75
     0
147
1.0
148
0.0
149
0.0
100
AcDbLayout
  1
Model
 70
     1
 71
     0
 10
0.0
 20
0.0
 11
12.0
 21
9.0
 12
0.0
 22
0.0
 32
0.0
 14
0.0
 24
0.0
 34
0.0
 15
0.0
 25
0.0
 35
0.0
146
0.0
 13
0.0
 23
0.0
 33
0.0
 16
1.0
 26
0.0
 36
0.0
 17
0.0
 27
1.0
 37
0.0
 76
     0
330
1E
  0
MLINESTYLE
  5
17
102
{ACAD_REACTORS
330
16
102
}
330
16
100
AcDbMlineStyle
  2
STANDARD
 70
     0
  3

 62
   256
 51
90.0
 52
90.0
 71
     2
 49
0.5
 62
   256
  6
BYLAYER
 49
-0.5
 62
   256
  6
BYLAYER
  0
ACDBPLACEHOLDER
  5
F
102
{ACAD_REACTORS
330
E
102
}
330
E
  0
DICTIONARYVAR
  5
310
102
{ACAD_REACTORS
330
30F
102
}
330
30F
100
DictionaryVariables
280
     0
  1
1
  0
ENDSEC
  0
EOF
