  0
SECTION
  2
HEADER
  9
$ACADVER
  1
AC1015
  9
$ACADMAINTVER
 70
    13
  9
$DWGCODEPAGE
  3
ANSI_1252
  9
$INSBASE
 10
0.0
 20
0.0
 30
0.0
  9
$EXTMIN
 10
-0.164080000000028
 20
-0.0644999999999844
 30
0.0
  9
$EXTMAX
 10
594.16408
 20
586.0644999999999
 30
0.0
  9
$LIMMIN
 10
0.0
 20
0.0
  9
$LIMMAX
 10
12.0
 20
9.0
  9
$ORTHOMODE
 70
     0
  9
$REGENMODE
 70
     1
  9
$FILLMODE
 70
     1
  9
$QTEXTMODE
 70
     0
  9
$MIRRTEXT
 70
     1
  9
$LTSCALE
 40
1.0
  9
$ATTMODE
 70
     1
  9
$TEXTSIZE
 40
0.2
  9
$TRACEWID
 40
0.05
  9
$TEXTSTYLE
  7
Standard
  9
$CLAYER
  8
0
  9
$CELTYPE
  6
Continuous
  9
$CECOLOR
 62
   256
  9
$CELTSCALE
 40
1.0
  9
$DISPSILH
 70
     0
  9
$DIMSCALE
 40
1.0
  9
$DIMASZ
 40
0.18
  9
$DIMEXO
 40
0.0625
  9
$DIMDLI
 40
0.38
  9
$DIMRND
 40
0.0
  9
$DIMDLE
 40
0.0
  9
$DIMEXE
 40
0.18
  9
$DIMTP
 40
0.0
  9
$DIMTM
 40
0.0
  9
$DIMTXT
 40
0.18
  9
$DIMCEN
 40
0.09
  9
$DIMTSZ
 40
0.0
  9
$DIMTOL
 70
     0
  9
$DIMLIM
 70
     0
  9
$DIMTIH
 70
     1
  9
$DIMTOH
 70
     1
  9
$DIMSE1
 70
     0
  9
$DIMSE2
 70
     0
  9
$DIMTAD
 70
     0
  9
$DIMZIN
 70
     0
  9
$DIMBLK
  1

  9
$DIMASO
 70
     1
  9
$DIMSHO
 70
     1
  9
$DIMPOST
  1

  9
$DIMAPOST
  1

  9
$DIMALT
 70
     0
  9
$DIMALTD
 70
     2
  9
$DIMALTF
 40
25.4
  9
$DIMLFAC
 40
1.0
  9
$DIMTOFL
 70
     0
  9
$DIMTVP
 40
0.0
  9
$DIMTIX
 70
     0
  9
$DIMSOXD
 70
     0
  9
$DIMSAH
 70
     0
  9
$DIMBLK1
  1

  9
$DIMBLK2
  1

  9
$DIMSTYLE
  2
Standard
  9
$DIMCLRD
 70
     0
  9
$DIMCLRE
 70
     0
  9
$DIMCLRT
 70
     0
  9
$DIMTFAC
 40
1.0
  9
$DIMGAP
 40
0.09
  9
$DIMJUST
 70
     0
  9
$DIMSD1
 70
     0
  9
$DIMSD2
 70
     0
  9
$DIMTOLJ
 70
     1
  9
$DIMTZIN
 70
     0
  9
$DIMALTZ
 70
     0
  9
$DIMALTTZ
 70
     0
  9
$DIMUPT
 70
     0
  9
$DIMDEC
 70
     4
  9
$DIMTDEC
 70
     4
  9
$DIMALTU
 70
     2
  9
$DIMALTTD
 70
     2
  9
$DIMTXSTY
  7
Standard
  9
$DIMAUNIT
 70
     0
  9
$DIMADEC
 70
     0
  9
$DIMALTRND
 40
0.0
  9
$DIMAZIN
 70
     0
  9
$DIMDSEP
 70
    46
  9
$DIMATFIT
 70
     3
  9
$DIMFRAC
 70
     0
  9
$DIMLDRBLK
  1

  9
$DIMLUNIT
 70
     2
  9
$DIMLWD
 70
    -2
  9
$DIMLWE
 70
    -2
  9
$DIMTMOVE
 70
     0
  9
$LUNITS
 70
     2
  9
$LUPREC
 70
     4
  9
$SKETCHINC
 40
0.1
  9
$FILLETRAD
 40
0.0
  9
$AUNITS
 70
     0
  9
$AUPREC
 70
     0
  9
$MENU
  1
.
  9
$ELEVATION
 40
0.0
  9
$PELEVATION
 40
0.0
  9
$THICKNESS
 40
0.0
  9
$LIMCHECK
 70
     0
  9
$CHAMFERA
 40
0.0
  9
$CHAMFERB
 40
0.0
  9
$CHAMFERC
 40
0.0
  9
$CHAMFERD
 40
0.0
  9
$SKPOLY
 70
     0
  9
$TDCREATE
 40
2454781.437492222
  9
$TDUCREATE
 40
2454781.395825555
  9
$TDUPDATE
 40
2454781.441014711
  9
$TDUUPDATE
 40
2454781.399348044
  9
$TDINDWG
 40
0.0035226736
  9
$TDUSRTIMER
 40
0.0035226736
  9
$USRTIMER
 70
     1
  9
$ANGBASE
 50
0.0
  9
$ANGDIR
 70
     0
  9
$PDMODE
 70
     0
  9
$PDSIZE
 40
0.0
  9
$PLINEWID
 40
0.0
  9
$SPLFRAME
 70
     0
  9
$SPLINETYPE
 70
     6
  9
$SPLINESEGS
 70
     8
  9
$HANDSEED
  5
4FA
  9
$SURFTAB1
 70
     6
  9
$SURFTAB2
 70
     6
  9
$SURFTYPE
 70
     6
  9
$SURFU
 70
     6
  9
$SURFV
 70
     6
  9
$UCSBASE
  2

  9
$UCSNAME
  2

  9
$UCSORG
 10
0.0
 20
0.0
 30
0.0
  9
$UCSXDIR
 10
1.0
 20
0.0
 30
0.0
  9
$UCSYDIR
 10
0.0
 20
1.0
 30
0.0
  9
$UCSORTHOREF
  2

  9
$UCSORTHOVIEW
 70
     1
  9
$UCSORGTOP
 10
0.0
 20
0.0
 30
0.0
  9
$UCSORGBOTTOM
 10
0.0
 20
0.0
 30
0.0
  9
$UCSORGLEFT
 10
0.0
 20
0.0
 30
0.0
  9
$UCSORGRIGHT
 10
0.0
 20
0.0
 30
0.0
  9
$UCSORGFRONT
 10
0.0
 20
0.0
 30
0.0
  9
$UCSORGBACK
 10
0.0
 20
0.0
 30
0.0
  9
$PUCSBASE
  2

  9
$PUCSNAME
  2

  9
$PUCSORG
 10
0.0
 20
0.0
 30
0.0
  9
$PUCSXDIR
 10
1.0
 20
0.0
 30
0.0
  9
$PUCSYDIR
 10
0.0
 20
1.0
 30
0.0
  9
$PUCSORTHOREF
  2

  9
$PUCSORTHOVIEW
 70
     0
  9
$PUCSORGTOP
 10
0.0
 20
0.0
 30
0.0
  9
$PUCSORGBOTTOM
 10
0.0
 20
0.0
 30
0.0
  9
$PUCSORGLEFT
 10
0.0
 20
0.0
 30
0.0
  9
$PUCSORGRIGHT
 10
0.0
 20
0.0
 30
0.0
  9
$PUCSORGFRONT
 10
0.0
 20
0.0
 30
0.0
  9
$PUCSORGBACK
 10
0.0
 20
0.0
 30
0.0
  9
$USERI1
 70
     0
  9
$USERI2
 70
     0
  9
$USERI3
 70
     0
  9
$USERI4
 70
     0
  9
$USERI5
 70
     0
  9
$USERR1
 40
0.0
  9
$USERR2
 40
0.0
  9
$USERR3
 40
0.0
  9
$USERR4
 40
0.0
  9
$USERR5
 40
0.0
  9
$WORLDVIEW
 70
     1
  9
$SHADEDGE
 70
     3
  9
$SHADEDIF
 70
    70
  9
$TILEMODE
 70
     1
  9
$MAXACTVP
 70
    64
  9
$PINSBASE
 10
0.0
 20
0.0
 30
0.0
  9
$PLIMCHECK
 70
     0
  9
$PEXTMIN
 10
1.000000000000000E+20
 20
1.000000000000000E+20
 30
1.000000000000000E+20
  9
$PEXTMAX
 10
-1.000000000000000E+20
 20
-1.000000000000000E+20
 30
-1.000000000000000E+20
  9
$PLIMMIN
 10
0.0
 20
0.0
  9
$PLIMMAX
 10
12.0
 20
9.0
  9
$UNITMODE
 70
     0
  9
$VISRETAIN
 70
     1
  9
$PLINEGEN
 70
     0
  9
$PSLTSCALE
 70
     1
  9
$TREEDEPTH
 70
  3020
  9
$CMLSTYLE
  2
Standard
  9
$CMLJUST
 70
     0
  9
$CMLSCALE
 40
1.0
  9
$PROXYGRAPHICS
 70
     1
  9
$MEASUREMENT
 70
     0
  9
$CELWEIGHT
370
    -1
  9
$ENDCAPS
280
     0
  9
$JOINSTYLE
280
     0
  9
$LWDISPLAY
290
     0
  9
$INSUNITS
 70
     0
  9
$HYPERLINKBASE
  1

  9
$STYLESHEET
  1

  9
$XEDIT
290
     1
  9
$CEPSNTYPE
380
     0
  9
$PSTYLEMODE
290
     1
  9
$FINGERPRINTGUID
  2
{D216B373-9688-446D-B8E6-45D6F9C6F141}
  9
$VERSIONGUID
  2
{21D8EDC3-2419-41EF-9F86-C7F1287E7467}
  9
$EXTNAMES
290
     1
  9
$PSVPSCALE
 40
0.0
  9
$OLESTARTUP
290
     0
  0
ENDSEC
  0
SECTION
  2
CLASSES
  0
CLASS
  1
ACDBDICTIONARYWDFLT
  2
AcDbDictionaryWithDefault
  3
AutoCAD 2000
 90
        0
280
     0
281
     0
  0
CLASS
  1
ACDBPLACEHOLDER
  2
AcDbPlaceHolder
  3
AutoCAD 2000
 90
        0
280
     0
281
     0
  0
CLASS
  1
LAYOUT
  2
AcDbLayout
  3
AutoCAD 2000
 90
        0
280
     0
281
     0
  0
CLASS
  1
DICTIONARYVAR
  2
AcDbDictionaryVar
  3
AutoCAD 2000
 90
        0
280
     0
281
     0
  0
ENDSEC
  0
SECTION
  2
TABLES
  0
TABLE
  2
VPORT
  5
8
330
0
100
AcDbSymbolTable
 70
     2
  0
VPORT
  5
4F9
330
8
100
AcDbSymbolTableRecord
100
AcDbViewportTableRecord
  2
*Active
 70
     0
 10
0.0
 20
0.0
 11
1.0
 21
1.0
 12
297.0
 22
292.9999999999999
 13
0.0
 23
0.0
 14
1.0
 24
1.0
 15
0.0
 25
0.0
 16
0.0
 26
0.0
 36
1.0
 17
0.0
 27
0.0
 37
0.0
 40
590.6261534526853
 41
2.078104993597951
 42
50.0
 43
0.0
 44
0.0
 50
0.0
 51
0.0
 71
     0
 72
   100
 73
     1
 74
     3
 75
     0
 76
     0
 77
     0
 78
     0
281
     0
 65
     1
110
0.0
120
0.0
130
0.0
111
1.0
121
0.0
131
0.0
112
0.0
122
1.0
132
0.0
 79
     1
146
0.0
  0
ENDTAB
  0
TABLE
  2
LTYPE
  5
5
330
0
100
AcDbSymbolTable
 70
     1
  0
LTYPE
  5
13
330
5
100
AcDbSymbolTableRecord
100
AcDbLinetypeTableRecord
  2
ByBlock
 70
     0
  3

 72
    65
 73
     0
 40
0.0
  0
LTYPE
  5
14
330
5
100
AcDbSymbolTableRecord
100
AcDbLinetypeTableRecord
  2
ByLayer
 70
     0
  3

 72
    65
 73
     0
 40
0.0
  0
LTYPE
  5
15
330
5
100
AcDbSymbolTableRecord
100
AcDbLinetypeTableRecord
  2
Continuous
 70
     0
  3
Solid line
 72
    65
 73
     0
 40
0.0
  0
ENDTAB
  0
TABLE
  2
LAYER
  5
2
330
0
100
AcDbSymbolTable
 70
     1
  0
LAYER
  5
10
330
2
100
AcDbSymbolTableRecord
100
AcDbLayerTableRecord
  2
0
 70
     0
 62
     7
  6
Continuous
370
    -3
390
F
  0
ENDTAB
  0
TABLE
  2
STYLE
  5
3
330
0
100
AcDbSymbolTable
 70
     1
  0
STYLE
  5
11
330
3
100
AcDbSymbolTableRecord
100
AcDbTextStyleTableRecord
  2
Standard
 70
     0
 40
0.0
 41
1.0
 50
0.0
 71
     0
 42
0.2
  3
txt
  4

  0
ENDTAB
  0
TABLE
  2
VIEW
  5
6
330
0
100
AcDbSymbolTable
 70
     0
  0
ENDTAB
  0
TABLE
  2
UCS
  5
7
330
0
100
AcDbSymbolTable
 70
     0
  0
ENDTAB
  0
TABLE
  2
APPID
  5
9
330
0
100
AcDbSymbolTable
 70
     1
  0
APPID
  5
12
330
9
100
AcDbSymbolTableRecord
100
AcDbRegAppTableRecord
  2
ACAD
 70
     0
  0
ENDTAB
  0
TABLE
  2
DIMSTYLE
  5
A
330
0
100
AcDbSymbolTable
 70
     1
100
AcDbDimStyleTable
 71
     0
  0
DIMSTYLE
105
4F3
330
A
100
AcDbSymbolTableRecord
100
AcDbDimStyleTableRecord
  2
Standard
 70
     0
340
11
  0
ENDTAB
  0
TABLE
  2
BLOCK_RECORD
  5
1
330
0
100
AcDbSymbolTable
 70
     0
  0
BLOCK_RECORD
  5
1E
330
1
100
AcDbSymbolTableRecord
100
AcDbBlockTableRecord
  2
*Model_Space
340
21
  0
BLOCK_RECORD
  5
1A
330
1
100
AcDbSymbolTableRecord
100
AcDbBlockTableRecord
  2
*Paper_Space
340
1D
  0
ENDTAB
  0
ENDSEC
  0
SECTION
  2
BLOCKS
  0
BLOCK
  5
1F
330
1E
100
AcDbEntity
  8
0
100
AcDbBlockBegin
  2
*Model_Space
 70
     0
 10
0.0
 20
0.0
 30
0.0
  3
*Model_Space
  1

  0
ENDBLK
  5
20
330
1E
100
AcDbEntity
  8
0
100
AcDbBlockEnd
  0
BLOCK
  5
1B
330
1A
100
AcDbEntity
 67
     1
  8
0
100
AcDbBlockBegin
  2
*Paper_Space
 70
     0
 10
0.0
 20
0.0
 30
0.0
  3
*Paper_Space
  1

  0
ENDBLK
  5
1C
330
1A
100
AcDbEntity
 67
     1
  8
0
100
AcDbBlockEnd
  0
ENDSEC
  0
SECTION
  2
ENTITIES
  0
LINE
  5
22
330
1E
100
AcDbEntity
  8
0
100
AcDbLine
 10
235.4860799999999
 20
85.6135
 30
0.0
 11
235.4860799999999
 21
86.54949999999999
 31
0.0
  0
LINE
  5
23
330
1E
100
AcDbEntity
  8
0
100
AcDbLine
 10
235.4860799999999
 20
85.6135
 30
0.0
 11
237.4860799999999
 21
85.6135
 31
0.0
  0
LINE
  5
24
330
1E
100
AcDbEntity
  8
0
100
AcDbLine
 10
221.4860799999999
 20
89.0299
 30
0.0
 11
221.4860799999999
 21
91.6135
 31
0.0
  0
LINE
  5
25
330
1E
100
AcDbEntity
  8
0
100
AcDbLine
 10
221.4860799999999
 20
89.0299
 30
0.0
 11
221.4860799999999
 21
90.0299
 31
0.0
  0
LINE
  5
26
330
1E
100
AcDbEntity
  8
0
100
AcDbLine
 10
221.4860799999999
 20
89.0299
 30
0.0
 11
235.4860799999999
 21
89.0299
 31
0.0
  0
LINE
  5
27
330
1E
100
AcDbEntity
  8
0
100
AcDbLine
 10
221.4860799999999
 20
89.0299
 30
0.0
 11
221.4860799999999
 21
91.62789999999999
 31
0.0
  0
LINE
  5
28
330
1E
100
AcDbEntity
  8
0
100
AcDbLine
 10
221.4860799999999
 20
88.61349999999999
 30
0.0
 11
221.4860799999999
 21
89.4415
 31
0.0
  0
LINE
  5
29
330
1E
100
AcDbEntity
  8
0
100
AcDbLine
 10
221.4860799999999
 20
88.61349999999999
 30
0.0
 11
235.4860799999999
 21
88.61349999999999
 31
0.0
  0
LINE
  5
2A
330
1E
100
AcDbEntity
  8
0
100
AcDbLine
 10
235.4860799999999
 20
89.0299
 30
0.0
 11
235.4860799999999
 21
88.61349999999999
 31
0.0
  0
LINE
  5
2B
330
1E
100
AcDbEntity
  8
0
100
AcDbLine
 10
235.4860799999999
 20
89.0299
 30
0.0
 11
235.4860799999999
 21
90.0299
 31
0.0
  0
LINE
  5
2C
330
1E
100
AcDbEntity
  8
0
100
AcDbLine
 10
235.4860799999999
 20
88.61349999999999
 30
0.0
 11
235.4860799999999
 21
86.54949999999999
 31
0.0
  0
LINE
  5
2D
330
1E
100
AcDbEntity
  8
0
100
AcDbLine
 10
235.4860799999999
 20
88.61349999999999
 30
0.0
 11
235.4860799999999
 21
89.0299
 31
0.0
  0
LINE
  5
2E
330
1E
100
AcDbEntity
  8
0
100
AcDbLine
 10
235.4860799999999
 20
86.54949999999999
 30
0.0
 11
235.4860799999999
 21
89.0455
 31
0.0
  0
LINE
  5
2F
330
1E
100
AcDbEntity
  8
0
100
AcDbLine
 10
235.4860799999999
 20
86.54949999999999
 30
0.0
 11
235.4860799999999
 21
85.6135
 31
0.0
  0
LINE
  5
30
330
1E
100
AcDbEntity
  8
0
100
AcDbLine
 10
235.4860799999999
 20
86.54949999999999
 30
0.0
 11
235.4860799999999
 21
88.61349999999999
 31
0.0
  0
LINE
  5
31
330
1E
100
AcDbEntity
  8
0
100
AcDbLine
 10
235.4860799999999
 20
89.0455
 30
0.0
 11
235.4860799999999
 21
93.2055
 31
0.0
  0
LINE
  5
32
330
1E
100
AcDbEntity
  8
0
100
AcDbLine
 10
235.4860799999999
 20
89.0455
 30
0.0
 11
235.4860799999999
 21
86.54949999999999
 31
0.0
  0
LINE
  5
33
330
1E
100
AcDbEntity
  8
0
100
AcDbLine
 10
237.4860799999999
 20
85.6135
 30
0.0
 11
237.4860799999999
 21
86.54949999999999
 31
0.0
  0
LINE
  5
34
330
1E
100
AcDbEntity
  8
0
100
AcDbLine
 10
237.4860799999999
 20
86.54949999999999
 30
0.0
 11
237.4860799999999
 21
89.0455
 31
0.0
  0
LINE
  5
35
330
1E
100
AcDbEntity
  8
0
100
AcDbLine
 10
237.4860799999999
 20
86.54949999999999
 30
0.0
 11
237.4860799999999
 21
85.6135
 31
0.0
  0
LINE
  5
36
330
1E
100
AcDbEntity
  8
0
100
AcDbLine
 10
142.48608
 20
91.6135
 30
0.0
 11
221.4860799999999
 21
91.6135
 31
0.0
  0
LINE
  5
37
330
1E
100
AcDbEntity
  8
0
100
AcDbLine
 10
221.4860799999999
 20
90.0299
 30
0.0
 11
221.4860799999999
 21
89.0299
 31
0.0
  0
LINE
  5
38
330
1E
100
AcDbEntity
  8
0
100
AcDbLine
 10
221.4860799999999
 20
90.0299
 30
0.0
 11
221.4860799999999
 21
91.6135
 31
0.0
  0
LINE
  5
39
330
1E
100
AcDbEntity
  8
0
100
AcDbLine
 10
221.4860799999999
 20
90.0299
 30
0.0
 11
235.4860799999999
 21
90.0299
 31
0.0
  0
LINE
  5
3A
330
1E
100
AcDbEntity
  8
0
100
AcDbLine
 10
221.4860799999999
 20
90.0299
 30
0.0
 11
221.4860799999999
 21
92.6279
 31
0.0
  0
LINE
  5
3B
330
1E
100
AcDbEntity
  8
0
100
AcDbLine
 10
221.4860799999999
 20
91.62789999999999
 30
0.0
 11
221.4860799999999
 21
89.0299
 31
0.0
  0
LINE
  5
3C
330
1E
100
AcDbEntity
  8
0
100
AcDbLine
 10
221.4860799999999
 20
91.62789999999999
 30
0.0
 11
221.4860799999999
 21
92.6279
 31
0.0
  0
LINE
  5
3D
330
1E
100
AcDbEntity
  8
0
100
AcDbLine
 10
221.4860799999999
 20
91.6135
 30
0.0
 11
221.4860799999999
 21
89.4415
 31
0.0
  0
LINE
  5
3E
330
1E
100
AcDbEntity
  8
0
100
AcDbLine
 10
221.4860799999999
 20
91.6135
 30
0.0
 11
221.4860799999999
 21
90.0299
 31
0.0
  0
LINE
  5
3F
330
1E
100
AcDbEntity
  8
0
100
AcDbLine
 10
221.4860799999999
 20
91.6135
 30
0.0
 11
221.4860799999999
 21
89.0299
 31
0.0
  0
LINE
  5
40
330
1E
100
AcDbEntity
  8
0
100
AcDbLine
 10
235.4860799999999
 20
90.0299
 30
0.0
 11
235.4860799999999
 21
89.0299
 31
0.0
  0
LINE
  5
41
330
1E
100
AcDbEntity
  8
0
100
AcDbLine
 10
235.4860799999999
 20
90.0299
 30
0.0
 11
235.4860799999999
 21
92.6279
 31
0.0
  0
LINE
  5
42
330
1E
100
AcDbEntity
  8
0
100
AcDbLine
 10
221.4860799999999
 20
89.4415
 30
0.0
 11
221.4860799999999
 21
91.64950000000001
 31
0.0
  0
LINE
  5
43
330
1E
100
AcDbEntity
  8
0
100
AcDbLine
 10
221.4860799999999
 20
89.4415
 30
0.0
 11
221.4860799999999
 21
88.61349999999999
 31
0.0
  0
LINE
  5
44
330
1E
100
AcDbEntity
  8
0
100
AcDbLine
 10
221.4860799999999
 20
89.4415
 30
0.0
 11
221.4860799999999
 21
91.6135
 31
0.0
  0
LINE
  5
45
330
1E
100
AcDbEntity
  8
0
100
AcDbLine
 10
221.4860799999999
 20
92.6279
 30
0.0
 11
221.4860799999999
 21
91.62789999999999
 31
0.0
  0
LINE
  5
46
330
1E
100
AcDbEntity
  8
0
100
AcDbLine
 10
221.4860799999999
 20
92.6279
 30
0.0
 11
221.4860799999999
 21
90.0299
 31
0.0
  0
LINE
  5
47
330
1E
100
AcDbEntity
  8
0
100
AcDbLine
 10
221.4860799999999
 20
91.64950000000001
 30
0.0
 11
221.4860799999999
 21
95.32949999999999
 31
0.0
  0
LINE
  5
48
330
1E
100
AcDbEntity
  8
0
100
AcDbLine
 10
221.4860799999999
 20
91.64950000000001
 30
0.0
 11
221.4860799999999
 21
89.4415
 31
0.0
  0
LINE
  5
49
330
1E
100
AcDbEntity
  8
0
100
AcDbLine
 10
235.4860799999999
 20
92.6279
 30
0.0
 11
235.4860799999999
 21
95.32949999999999
 31
0.0
  0
LINE
  5
4A
330
1E
100
AcDbEntity
  8
0
100
AcDbLine
 10
235.4860799999999
 20
92.6279
 30
0.0
 11
235.4860799999999
 21
90.0299
 31
0.0
  0
LINE
  5
4B
330
1E
100
AcDbEntity
  8
0
100
AcDbLine
 10
129.2860799999999
 20
93.35129999999999
 30
0.0
 11
142.48608
 21
91.6135
 31
0.0
  0
LINE
  5
4C
330
1E
100
AcDbEntity
  8
0
100
AcDbLine
 10
116.98608
 20
98.4462
 30
0.0
 11
129.2860799999999
 21
93.35129999999999
 31
0.0
  0
LINE
  5
4D
330
1E
100
AcDbEntity
  8
0
100
AcDbLine
 10
221.4860799999999
 20
95.32949999999999
 30
0.0
 11
221.4860799999999
 21
100.2054999999999
 31
0.0
  0
LINE
  5
4E
330
1E
100
AcDbEntity
  8
0
100
AcDbLine
 10
221.4860799999999
 20
95.32949999999999
 30
0.0
 11
221.4860799999999
 21
91.64950000000001
 31
0.0
  0
LINE
  5
4F
330
1E
100
AcDbEntity
  8
0
100
AcDbLine
 10
235.4860799999999
 20
95.32949999999999
 30
0.0
 11
235.4860799999999
 21
100.2054999999999
 31
0.0
  0
LINE
  5
50
330
1E
100
AcDbEntity
  8
0
100
AcDbLine
 10
235.4860799999999
 20
95.32949999999999
 30
0.0
 11
235.4860799999999
 21
92.6279
 31
0.0
  0
LINE
  5
51
330
1E
100
AcDbEntity
  8
0
100
AcDbLine
 10
235.4860799999999
 20
93.2055
 30
0.0
 11
235.4860799999999
 21
98.7175
 31
0.0
  0
LINE
  5
52
330
1E
100
AcDbEntity
  8
0
100
AcDbLine
 10
235.4860799999999
 20
93.2055
 30
0.0
 11
235.4860799999999
 21
89.0455
 31
0.0
  0
LINE
  5
53
330
1E
100
AcDbEntity
  8
0
100
AcDbLine
 10
237.4860799999999
 20
91.6135
 30
0.0
 11
281.4860799999999
 21
91.6135
 31
0.0
  0
LINE
  5
54
330
1E
100
AcDbEntity
  8
0
100
AcDbLine
 10
235.4860799999999
 20
98.7175
 30
0.0
 11
235.4860799999999
 21
104.9574999999999
 31
0.0
  0
LINE
  5
55
330
1E
100
AcDbEntity
  8
0
100
AcDbLine
 10
235.4860799999999
 20
98.7175
 30
0.0
 11
235.4860799999999
 21
93.2055
 31
0.0
  0
LINE
  5
56
330
1E
100
AcDbEntity
  8
0
100
AcDbLine
 10
237.4860799999999
 20
89.0455
 30
0.0
 11
237.4860799999999
 21
93.2055
 31
0.0
  0
LINE
  5
57
330
1E
100
AcDbEntity
  8
0
100
AcDbLine
 10
237.4860799999999
 20
89.0455
 30
0.0
 11
237.4860799999999
 21
86.54949999999999
 31
0.0
  0
LINE
  5
58
330
1E
100
AcDbEntity
  8
0
100
AcDbLine
 10
237.4860799999999
 20
93.2055
 30
0.0
 11
237.4860799999999
 21
98.7175
 31
0.0
  0
LINE
  5
59
330
1E
100
AcDbEntity
  8
0
100
AcDbLine
 10
237.4860799999999
 20
93.2055
 30
0.0
 11
237.4860799999999
 21
89.0455
 31
0.0
  0
LINE
  5
5A
330
1E
100
AcDbEntity
  8
0
100
AcDbLine
 10
221.4860799999999
 20
100.2054999999999
 30
0.0
 11
221.4860799999999
 21
105.7255
 31
0.0
  0
LINE
  5
5B
330
1E
100
AcDbEntity
  8
0
100
AcDbLine
 10
221.4860799999999
 20
100.2054999999999
 30
0.0
 11
221.4860799999999
 21
95.32949999999999
 31
0.0
  0
LINE
  5
5C
330
1E
100
AcDbEntity
  8
0
100
AcDbLine
 10
106.42408
 20
106.5511
 30
0.0
 11
116.98608
 21
98.4462
 31
0.0
  0
LINE
  5
5D
330
1E
100
AcDbEntity
  8
0
100
AcDbLine
 10
221.4860799999999
 20
110.6135
 30
0.0
 11
235.4860799999999
 21
110.6135
 31
0.0
  0
LINE
  5
5E
330
1E
100
AcDbEntity
  8
0
100
AcDbLine
 10
221.4860799999999
 20
110.6135
 30
0.0
 11
221.4860799999999
 21
112.6135
 31
0.0
  0
LINE
  5
5F
330
1E
100
AcDbEntity
  8
0
100
AcDbLine
 10
221.4860799999999
 20
111.6135
 30
0.0
 11
221.4860799999999
 21
105.7255
 31
0.0
  0
LINE
  5
60
330
1E
100
AcDbEntity
  8
0
100
AcDbLine
 10
221.4860799999999
 20
111.6135
 30
0.0
 11
221.4860799999999
 21
114.6135
 31
0.0
  0
LINE
  5
61
330
1E
100
AcDbEntity
  8
0
100
AcDbLine
 10
235.4860799999999
 20
110.6135
 30
0.0
 11
235.4860799999999
 21
105.7255
 31
0.0
  0
LINE
  5
62
330
1E
100
AcDbEntity
  8
0
100
AcDbLine
 10
235.4860799999999
 20
110.6135
 30
0.0
 11
235.4860799999999
 21
112.6135
 31
0.0
  0
LINE
  5
63
330
1E
100
AcDbEntity
  8
0
100
AcDbLine
 10
221.4860799999999
 20
105.7255
 30
0.0
 11
221.4860799999999
 21
111.6135
 31
0.0
  0
LINE
  5
64
330
1E
100
AcDbEntity
  8
0
100
AcDbLine
 10
221.4860799999999
 20
105.7255
 30
0.0
 11
221.4860799999999
 21
100.2054999999999
 31
0.0
  0
LINE
  5
65
330
1E
100
AcDbEntity
  8
0
100
AcDbLine
 10
235.4860799999999
 20
100.2054999999999
 30
0.0
 11
235.4860799999999
 21
105.7255
 31
0.0
  0
LINE
  5
66
330
1E
100
AcDbEntity
  8
0
100
AcDbLine
 10
235.4860799999999
 20
100.2054999999999
 30
0.0
 11
235.4860799999999
 21
95.32949999999999
 31
0.0
  0
LINE
  5
67
330
1E
100
AcDbEntity
  8
0
100
AcDbLine
 10
235.4860799999999
 20
105.7255
 30
0.0
 11
235.4860799999999
 21
110.6135
 31
0.0
  0
LINE
  5
68
330
1E
100
AcDbEntity
  8
0
100
AcDbLine
 10
235.4860799999999
 20
105.7255
 30
0.0
 11
235.4860799999999
 21
100.2054999999999
 31
0.0
  0
LINE
  5
69
330
1E
100
AcDbEntity
  8
0
100
AcDbLine
 10
221.4860799999999
 20
112.6135
 30
0.0
 11
235.4860799999999
 21
112.6135
 31
0.0
  0
LINE
  5
6A
330
1E
100
AcDbEntity
  8
0
100
AcDbLine
 10
221.4860799999999
 20
112.6135
 30
0.0
 11
221.4860799999999
 21
110.6135
 31
0.0
  0
LINE
  5
6B
330
1E
100
AcDbEntity
  8
0
100
AcDbLine
 10
217.4860799999999
 20
114.6135
 30
0.0
 11
217.4860799999999
 21
114.8654999999999
 31
0.0
  0
LINE
  5
6C
330
1E
100
AcDbEntity
  8
0
100
AcDbLine
 10
217.4860799999999
 20
114.6135
 30
0.0
 11
237.4860799999999
 21
114.6135
 31
0.0
  0
LINE
  5
6D
330
1E
100
AcDbEntity
  8
0
100
AcDbLine
 10
98.31908
 20
117.1135
 30
0.0
 11
106.42408
 21
106.5511
 31
0.0
  0
LINE
  5
6E
330
1E
100
AcDbEntity
  8
0
100
AcDbLine
 10
173.0590799999999
 20
120.3335
 30
0.0
 11
173.38908
 21
121.6134999999999
 31
0.0
  0
LINE
  5
6F
330
1E
100
AcDbEntity
  8
0
100
AcDbLine
 10
172.7490799999999
 20
119.1335
 30
0.0
 11
173.0590799999999
 21
120.3335
 31
0.0
  0
LINE
  5
70
330
1E
100
AcDbEntity
  8
0
100
AcDbLine
 10
172.47608
 20
118.0735
 30
0.0
 11
172.7490799999999
 21
119.1335
 31
0.0
  0
LINE
  5
71
330
1E
100
AcDbEntity
  8
0
100
AcDbLine
 10
172.26908
 20
117.2735
 30
0.0
 11
172.47608
 21
118.0735
 31
0.0
  0
LINE
  5
72
330
1E
100
AcDbEntity
  8
0
100
AcDbLine
 10
172.14508
 20
116.7934999999999
 30
0.0
 11
172.26908
 21
117.2735
 31
0.0
  0
LINE
  5
73
330
1E
100
AcDbEntity
  8
0
100
AcDbLine
 10
172.09908
 20
116.6135
 30
0.0
 11
217.4860799999999
 21
116.6135
 31
0.0
  0
LINE
  5
74
330
1E
100
AcDbEntity
  8
0
100
AcDbLine
 10
172.09908
 20
116.6135
 30
0.0
 11
172.14508
 21
116.7934999999999
 31
0.0
  0
LINE
  5
75
330
1E
100
AcDbEntity
  8
0
100
AcDbLine
 10
173.38908
 20
121.6134999999999
 30
0.0
 11
173.72008
 21
122.8935
 31
0.0
  0
LINE
  5
76
330
1E
100
AcDbEntity
  8
0
100
AcDbLine
 10
174.0290799999999
 20
124.0935
 30
0.0
 11
174.3030799999999
 21
125.1535
 31
0.0
  0
LINE
  5
77
330
1E
100
AcDbEntity
  8
0
100
AcDbLine
 10
174.3030799999999
 20
125.1535
 30
0.0
 11
174.50908
 21
125.9535
 31
0.0
  0
LINE
  5
78
330
1E
100
AcDbEntity
  8
0
100
AcDbLine
 10
173.72008
 20
122.8935
 30
0.0
 11
174.0290799999999
 21
124.0935
 31
0.0
  0
LINE
  5
79
330
1E
100
AcDbEntity
  8
0
100
AcDbLine
 10
174.50908
 20
125.9535
 30
0.0
 11
174.63308
 21
126.4334999999999
 31
0.0
  0
LINE
  5
7A
330
1E
100
AcDbEntity
  8
0
100
AcDbLine
 10
174.63308
 20
126.4334999999999
 30
0.0
 11
174.68008
 21
126.6135
 31
0.0
  0
LINE
  5
7B
330
1E
100
AcDbEntity
  8
0
100
AcDbLine
 10
217.4860799999999
 20
116.6574999999999
 30
0.0
 11
217.4860799999999
 21
115.5375
 31
0.0
  0
LINE
  5
7C
330
1E
100
AcDbEntity
  8
0
100
AcDbLine
 10
217.4860799999999
 20
116.6574999999999
 30
0.0
 11
217.4860799999999
 21
118.1414999999999
 31
0.0
  0
LINE
  5
7D
330
1E
100
AcDbEntity
  8
0
100
AcDbLine
 10
217.4860799999999
 20
115.5375
 30
0.0
 11
217.4860799999999
 21
116.6135
 31
0.0
  0
LINE
  5
7E
330
1E
100
AcDbEntity
  8
0
100
AcDbLine
 10
217.4860799999999
 20
115.5375
 30
0.0
 11
217.4860799999999
 21
114.8654999999999
 31
0.0
  0
LINE
  5
7F
330
1E
100
AcDbEntity
  8
0
100
AcDbLine
 10
217.4860799999999
 20
115.5375
 30
0.0
 11
217.4860799999999
 21
116.6574999999999
 31
0.0
  0
LINE
  5
80
330
1E
100
AcDbEntity
  8
0
100
AcDbLine
 10
217.4860799999999
 20
114.8654999999999
 30
0.0
 11
217.4860799999999
 21
115.5375
 31
0.0
  0
LINE
  5
81
330
1E
100
AcDbEntity
  8
0
100
AcDbLine
 10
217.4860799999999
 20
114.8654999999999
 30
0.0
 11
217.4860799999999
 21
114.6135
 31
0.0
  0
LINE
  5
82
330
1E
100
AcDbEntity
  8
0
100
AcDbLine
 10
217.4860799999999
 20
116.6135
 30
0.0
 11
217.4860799999999
 21
116.7934999999999
 31
0.0
  0
LINE
  5
83
330
1E
100
AcDbEntity
  8
0
100
AcDbLine
 10
217.4860799999999
 20
116.6135
 30
0.0
 11
217.4860799999999
 21
115.5375
 31
0.0
  0
LINE
  5
84
330
1E
100
AcDbEntity
  8
0
100
AcDbLine
 10
217.4860799999999
 20
119.8215
 30
0.0
 11
217.4860799999999
 21
118.1414999999999
 31
0.0
  0
LINE
  5
85
330
1E
100
AcDbEntity
  8
0
100
AcDbLine
 10
217.4860799999999
 20
119.8215
 30
0.0
 11
217.4860799999999
 21
121.6134999999999
 31
0.0
  0
LINE
  5
86
330
1E
100
AcDbEntity
  8
0
100
AcDbLine
 10
217.4860799999999
 20
118.1414999999999
 30
0.0
 11
217.4860799999999
 21
116.6574999999999
 31
0.0
  0
LINE
  5
87
330
1E
100
AcDbEntity
  8
0
100
AcDbLine
 10
217.4860799999999
 20
118.1414999999999
 30
0.0
 11
217.4860799999999
 21
119.8215
 31
0.0
  0
LINE
  5
88
330
1E
100
AcDbEntity
  8
0
100
AcDbLine
 10
217.4860799999999
 20
123.4055
 30
0.0
 11
217.4860799999999
 21
121.6134999999999
 31
0.0
  0
LINE
  5
89
330
1E
100
AcDbEntity
  8
0
100
AcDbLine
 10
217.4860799999999
 20
123.4055
 30
0.0
 11
217.4860799999999
 21
125.0855
 31
0.0
  0
LINE
  5
8A
330
1E
100
AcDbEntity
  8
0
100
AcDbLine
 10
217.4860799999999
 20
122.8935
 30
0.0
 11
217.4860799999999
 21
121.6134999999999
 31
0.0
  0
LINE
  5
8B
330
1E
100
AcDbEntity
  8
0
100
AcDbLine
 10
217.4860799999999
 20
122.8935
 30
0.0
 11
217.4860799999999
 21
124.0935
 31
0.0
  0
LINE
  5
8C
330
1E
100
AcDbEntity
  8
0
100
AcDbLine
 10
217.4860799999999
 20
125.0855
 30
0.0
 11
217.4860799999999
 21
123.4055
 31
0.0
  0
LINE
  5
8D
330
1E
100
AcDbEntity
  8
0
100
AcDbLine
 10
217.4860799999999
 20
125.0855
 30
0.0
 11
217.4860799999999
 21
126.5695
 31
0.0
  0
LINE
  5
8E
330
1E
100
AcDbEntity
  8
0
100
AcDbLine
 10
217.4860799999999
 20
124.0935
 30
0.0
 11
217.4860799999999
 21
122.8935
 31
0.0
  0
LINE
  5
8F
330
1E
100
AcDbEntity
  8
0
100
AcDbLine
 10
217.4860799999999
 20
124.0935
 30
0.0
 11
217.4860799999999
 21
125.1535
 31
0.0
  0
LINE
  5
90
330
1E
100
AcDbEntity
  8
0
100
AcDbLine
 10
217.4860799999999
 20
125.1535
 30
0.0
 11
217.4860799999999
 21
124.0935
 31
0.0
  0
LINE
  5
91
330
1E
100
AcDbEntity
  8
0
100
AcDbLine
 10
217.4860799999999
 20
125.1535
 30
0.0
 11
217.4860799999999
 21
125.9535
 31
0.0
  0
LINE
  5
92
330
1E
100
AcDbEntity
  8
0
100
AcDbLine
 10
217.4860799999999
 20
126.5695
 30
0.0
 11
217.4860799999999
 21
125.0855
 31
0.0
  0
LINE
  5
93
330
1E
100
AcDbEntity
  8
0
100
AcDbLine
 10
217.4860799999999
 20
126.5695
 30
0.0
 11
217.4860799999999
 21
127.6894999999999
 31
0.0
  0
LINE
  5
94
330
1E
100
AcDbEntity
  8
0
100
AcDbLine
 10
217.4860799999999
 20
125.9535
 30
0.0
 11
217.4860799999999
 21
125.1535
 31
0.0
  0
LINE
  5
95
330
1E
100
AcDbEntity
  8
0
100
AcDbLine
 10
217.4860799999999
 20
125.9535
 30
0.0
 11
217.4860799999999
 21
126.4334999999999
 31
0.0
  0
LINE
  5
96
330
1E
100
AcDbEntity
  8
0
100
AcDbLine
 10
217.4860799999999
 20
126.4334999999999
 30
0.0
 11
217.4860799999999
 21
125.9535
 31
0.0
  0
LINE
  5
97
330
1E
100
AcDbEntity
  8
0
100
AcDbLine
 10
217.4860799999999
 20
126.4334999999999
 30
0.0
 11
217.4860799999999
 21
126.6135
 31
0.0
  0
LINE
  5
98
330
1E
100
AcDbEntity
  8
0
100
AcDbLine
 10
217.4860799999999
 20
127.6894999999999
 30
0.0
 11
217.4860799999999
 21
128.3615
 31
0.0
  0
LINE
  5
99
330
1E
100
AcDbEntity
  8
0
100
AcDbLine
 10
217.4860799999999
 20
127.6894999999999
 30
0.0
 11
217.4860799999999
 21
126.6135
 31
0.0
  0
LINE
  5
9A
330
1E
100
AcDbEntity
  8
0
100
AcDbLine
 10
217.4860799999999
 20
127.6894999999999
 30
0.0
 11
217.4860799999999
 21
126.5695
 31
0.0
  0
LINE
  5
9B
330
1E
100
AcDbEntity
  8
0
100
AcDbLine
 10
217.4860799999999
 20
128.3615
 30
0.0
 11
217.4860799999999
 21
128.6134999999999
 31
0.0
  0
LINE
  5
9C
330
1E
100
AcDbEntity
  8
0
100
AcDbLine
 10
217.4860799999999
 20
128.3615
 30
0.0
 11
217.4860799999999
 21
127.6894999999999
 31
0.0
  0
LINE
  5
9D
330
1E
100
AcDbEntity
  8
0
100
AcDbLine
 10
217.4860799999999
 20
128.6134999999999
 30
0.0
 11
237.4860799999999
 21
128.6134999999999
 31
0.0
  0
LINE
  5
9E
330
1E
100
AcDbEntity
  8
0
100
AcDbLine
 10
217.4860799999999
 20
128.6134999999999
 30
0.0
 11
217.4860799999999
 21
128.3615
 31
0.0
  0
LINE
  5
9F
330
1E
100
AcDbEntity
  8
0
100
AcDbLine
 10
217.4860799999999
 20
126.6135
 30
0.0
 11
217.4860799999999
 21
126.4334999999999
 31
0.0
  0
LINE
  5
A0
330
1E
100
AcDbEntity
  8
0
100
AcDbLine
 10
217.4860799999999
 20
126.6135
 30
0.0
 11
217.4860799999999
 21
127.6894999999999
 31
0.0
  0
LINE
  5
A1
330
1E
100
AcDbEntity
  8
0
100
AcDbLine
 10
217.4860799999999
 20
121.6134999999999
 30
0.0
 11
217.4860799999999
 21
120.3335
 31
0.0
  0
LINE
  5
A2
330
1E
100
AcDbEntity
  8
0
100
AcDbLine
 10
217.4860799999999
 20
121.6134999999999
 30
0.0
 11
217.4860799999999
 21
122.8935
 31
0.0
  0
LINE
  5
A3
330
1E
100
AcDbEntity
  8
0
100
AcDbLine
 10
217.4860799999999
 20
121.6134999999999
 30
0.0
 11
217.4860799999999
 21
119.8215
 31
0.0
  0
LINE
  5
A4
330
1E
100
AcDbEntity
  8
0
100
AcDbLine
 10
217.4860799999999
 20
121.6134999999999
 30
0.0
 11
217.4860799999999
 21
123.4055
 31
0.0
  0
LINE
  5
A5
330
1E
100
AcDbEntity
  8
0
100
AcDbLine
 10
217.4860799999999
 20
120.3335
 30
0.0
 11
217.4860799999999
 21
119.1335
 31
0.0
  0
LINE
  5
A6
330
1E
100
AcDbEntity
  8
0
100
AcDbLine
 10
217.4860799999999
 20
120.3335
 30
0.0
 11
217.4860799999999
 21
121.6134999999999
 31
0.0
  0
LINE
  5
A7
330
1E
100
AcDbEntity
  8
0
100
AcDbLine
 10
217.4860799999999
 20
119.1335
 30
0.0
 11
217.4860799999999
 21
118.0735
 31
0.0
  0
LINE
  5
A8
330
1E
100
AcDbEntity
  8
0
100
AcDbLine
 10
217.4860799999999
 20
119.1335
 30
0.0
 11
217.4860799999999
 21
120.3335
 31
0.0
  0
LINE
  5
A9
330
1E
100
AcDbEntity
  8
0
100
AcDbLine
 10
217.4860799999999
 20
118.0735
 30
0.0
 11
217.4860799999999
 21
117.2735
 31
0.0
  0
LINE
  5
AA
330
1E
100
AcDbEntity
  8
0
100
AcDbLine
 10
217.4860799999999
 20
118.0735
 30
0.0
 11
217.4860799999999
 21
119.1335
 31
0.0
  0
LINE
  5
AB
330
1E
100
AcDbEntity
  8
0
100
AcDbLine
 10
217.4860799999999
 20
117.2735
 30
0.0
 11
217.4860799999999
 21
116.7934999999999
 31
0.0
  0
LINE
  5
AC
330
1E
100
AcDbEntity
  8
0
100
AcDbLine
 10
217.4860799999999
 20
117.2735
 30
0.0
 11
217.4860799999999
 21
118.0735
 31
0.0
  0
LINE
  5
AD
330
1E
100
AcDbEntity
  8
0
100
AcDbLine
 10
217.4860799999999
 20
116.7934999999999
 30
0.0
 11
217.4860799999999
 21
116.6135
 31
0.0
  0
LINE
  5
AE
330
1E
100
AcDbEntity
  8
0
100
AcDbLine
 10
217.4860799999999
 20
116.7934999999999
 30
0.0
 11
217.4860799999999
 21
117.2735
 31
0.0
  0
LINE
  5
AF
330
1E
100
AcDbEntity
  8
0
100
AcDbLine
 10
174.68008
 20
126.6135
 30
0.0
 11
217.4860799999999
 21
126.6135
 31
0.0
  0
LINE
  5
B0
330
1E
100
AcDbEntity
  8
0
100
AcDbLine
 10
221.4860799999999
 20
114.6135
 30
0.0
 11
221.4860799999999
 21
111.6135
 31
0.0
  0
LINE
  5
B1
330
1E
100
AcDbEntity
  8
0
100
AcDbLine
 10
221.4860799999999
 20
128.6134999999999
 30
0.0
 11
221.4860799999999
 21
131.5774999999999
 31
0.0
  0
LINE
  5
B2
330
1E
100
AcDbEntity
  8
0
100
AcDbLine
 10
235.4860799999999
 20
112.6135
 30
0.0
 11
235.4860799999999
 21
114.6135
 31
0.0
  0
LINE
  5
B3
330
1E
100
AcDbEntity
  8
0
100
AcDbLine
 10
235.4860799999999
 20
112.6135
 30
0.0
 11
235.4860799999999
 21
110.6135
 31
0.0
  0
LINE
  5
B4
330
1E
100
AcDbEntity
  8
0
100
AcDbLine
 10
235.4860799999999
 20
114.6135
 30
0.0
 11
235.4860799999999
 21
111.6135
 31
0.0
  0
LINE
  5
B5
330
1E
100
AcDbEntity
  8
0
100
AcDbLine
 10
235.4860799999999
 20
114.6135
 30
0.0
 11
235.4860799999999
 21
112.6135
 31
0.0
  0
LINE
  5
B6
330
1E
100
AcDbEntity
  8
0
100
AcDbLine
 10
93.22388000000001
 20
129.4137
 30
0.0
 11
98.31908
 21
117.1135
 31
0.0
  0
LINE
  5
B7
330
1E
100
AcDbEntity
  8
0
100
AcDbLine
 10
221.4860799999999
 20
130.5990999999999
 30
0.0
 11
221.4860799999999
 21
131.5990999999999
 31
0.0
  0
LINE
  5
B8
330
1E
100
AcDbEntity
  8
0
100
AcDbLine
 10
221.4860799999999
 20
130.5990999999999
 30
0.0
 11
221.4860799999999
 21
133.1971
 31
0.0
  0
LINE
  5
B9
330
1E
100
AcDbEntity
  8
0
100
AcDbLine
 10
142.48608
 20
131.6134999999999
 30
0.0
 11
221.4860799999999
 21
131.6134999999999
 31
0.0
  0
LINE
  5
BA
330
1E
100
AcDbEntity
  8
0
100
AcDbLine
 10
221.4860799999999
 20
131.5990999999999
 30
0.0
 11
221.4860799999999
 21
134.1971
 31
0.0
  0
LINE
  5
BB
330
1E
100
AcDbEntity
  8
0
100
AcDbLine
 10
221.4860799999999
 20
131.5990999999999
 30
0.0
 11
221.4860799999999
 21
130.5990999999999
 31
0.0
  0
LINE
  5
BC
330
1E
100
AcDbEntity
  8
0
100
AcDbLine
 10
221.4860799999999
 20
131.5774999999999
 30
0.0
 11
221.4860799999999
 21
133.7855
 31
0.0
  0
LINE
  5
BD
330
1E
100
AcDbEntity
  8
0
100
AcDbLine
 10
221.4860799999999
 20
131.5774999999999
 30
0.0
 11
221.4860799999999
 21
128.6134999999999
 31
0.0
  0
LINE
  5
BE
330
1E
100
AcDbEntity
  8
0
100
AcDbLine
 10
136.98608
 20
133.0872199999999
 30
0.0
 11
139.63908
 21
131.9883199999999
 31
0.0
  0
LINE
  5
BF
330
1E
100
AcDbEntity
  8
0
100
AcDbLine
 10
139.63908
 20
131.9883199999999
 30
0.0
 11
142.48608
 21
131.6134999999999
 31
0.0
  0
LINE
  5
C0
330
1E
100
AcDbEntity
  8
0
100
AcDbLine
 10
221.4860799999999
 20
133.1971
 30
0.0
 11
235.4860799999999
 21
133.1971
 31
0.0
  0
LINE
  5
C1
330
1E
100
AcDbEntity
  8
0
100
AcDbLine
 10
221.4860799999999
 20
133.1971
 30
0.0
 11
221.4860799999999
 21
130.5990999999999
 31
0.0
  0
LINE
  5
C2
330
1E
100
AcDbEntity
  8
0
100
AcDbLine
 10
221.4860799999999
 20
133.1971
 30
0.0
 11
221.4860799999999
 21
134.1971
 31
0.0
  0
LINE
  5
C3
330
1E
100
AcDbEntity
  8
0
100
AcDbLine
 10
221.4860799999999
 20
133.1971
 30
0.0
 11
221.4860799999999
 21
131.6134999999999
 31
0.0
  0
LINE
  5
C4
330
1E
100
AcDbEntity
  8
0
100
AcDbLine
 10
221.4860799999999
 20
131.6134999999999
 30
0.0
 11
221.4860799999999
 21
133.7855
 31
0.0
  0
LINE
  5
C5
330
1E
100
AcDbEntity
  8
0
100
AcDbLine
 10
221.4860799999999
 20
131.6134999999999
 30
0.0
 11
221.4860799999999
 21
133.1971
 31
0.0
  0
LINE
  5
C6
330
1E
100
AcDbEntity
  8
0
100
AcDbLine
 10
221.4860799999999
 20
131.6134999999999
 30
0.0
 11
221.4860799999999
 21
134.1971
 31
0.0
  0
LINE
  5
C7
330
1E
100
AcDbEntity
  8
0
100
AcDbLine
 10
235.4860799999999
 20
133.1971
 30
0.0
 11
235.4860799999999
 21
134.1971
 31
0.0
  0
LINE
  5
C8
330
1E
100
AcDbEntity
  8
0
100
AcDbLine
 10
235.4860799999999
 20
133.1971
 30
0.0
 11
235.4860799999999
 21
130.5990999999999
 31
0.0
  0
LINE
  5
C9
330
1E
100
AcDbEntity
  8
0
100
AcDbLine
 10
235.4860799999999
 20
130.5990999999999
 30
0.0
 11
235.4860799999999
 21
128.6134999999999
 31
0.0
  0
LINE
  5
CA
330
1E
100
AcDbEntity
  8
0
100
AcDbLine
 10
235.4860799999999
 20
130.5990999999999
 30
0.0
 11
235.4860799999999
 21
133.1971
 31
0.0
  0
LINE
  5
CB
330
1E
100
AcDbEntity
  8
0
100
AcDbLine
 10
221.4860799999999
 20
133.7855
 30
0.0
 11
221.4860799999999
 21
131.6134999999999
 31
0.0
  0
LINE
  5
CC
330
1E
100
AcDbEntity
  8
0
100
AcDbLine
 10
221.4860799999999
 20
133.7855
 30
0.0
 11
221.4860799999999
 21
134.6134999999999
 31
0.0
  0
LINE
  5
CD
330
1E
100
AcDbEntity
  8
0
100
AcDbLine
 10
221.4860799999999
 20
133.7855
 30
0.0
 11
221.4860799999999
 21
131.5774999999999
 31
0.0
  0
LINE
  5
CE
330
1E
100
AcDbEntity
  8
0
100
AcDbLine
 10
221.4860799999999
 20
134.1971
 30
0.0
 11
235.4860799999999
 21
134.1971
 31
0.0
  0
LINE
  5
CF
330
1E
100
AcDbEntity
  8
0
100
AcDbLine
 10
221.4860799999999
 20
134.1971
 30
0.0
 11
221.4860799999999
 21
133.1971
 31
0.0
  0
LINE
  5
D0
330
1E
100
AcDbEntity
  8
0
100
AcDbLine
 10
221.4860799999999
 20
134.1971
 30
0.0
 11
221.4860799999999
 21
131.5990999999999
 31
0.0
  0
LINE
  5
D1
330
1E
100
AcDbEntity
  8
0
100
AcDbLine
 10
221.4860799999999
 20
134.1971
 30
0.0
 11
221.4860799999999
 21
131.6134999999999
 31
0.0
  0
LINE
  5
D2
330
1E
100
AcDbEntity
  8
0
100
AcDbLine
 10
235.4860799999999
 20
134.1971
 30
0.0
 11
235.4860799999999
 21
134.6134999999999
 31
0.0
  0
LINE
  5
D3
330
1E
100
AcDbEntity
  8
0
100
AcDbLine
 10
235.4860799999999
 20
134.1971
 30
0.0
 11
235.4860799999999
 21
133.1971
 31
0.0
  0
LINE
  5
D4
330
1E
100
AcDbEntity
  8
0
100
AcDbLine
 10
132.96008
 20
137.1134999999999
 30
0.0
 11
134.70808
 21
134.83533
 31
0.0
  0
LINE
  5
D5
330
1E
100
AcDbEntity
  8
0
100
AcDbLine
 10
134.70808
 20
134.83533
 30
0.0
 11
136.98608
 21
133.0872199999999
 31
0.0
  0
LINE
  5
D6
330
1E
100
AcDbEntity
  8
0
100
AcDbLine
 10
221.4860799999999
 20
134.6134999999999
 30
0.0
 11
221.4860799999999
 21
133.7855
 31
0.0
  0
LINE
  5
D7
330
1E
100
AcDbEntity
  8
0
100
AcDbLine
 10
221.4860799999999
 20
134.6134999999999
 30
0.0
 11
235.4860799999999
 21
134.6134999999999
 31
0.0
  0
LINE
  5
D8
330
1E
100
AcDbEntity
  8
0
100
AcDbLine
 10
235.4860799999999
 20
136.6775
 30
0.0
 11
235.4860799999999
 21
137.6134999999999
 31
0.0
  0
LINE
  5
D9
330
1E
100
AcDbEntity
  8
0
100
AcDbLine
 10
235.4860799999999
 20
136.6775
 30
0.0
 11
235.4860799999999
 21
134.1814999999999
 31
0.0
  0
LINE
  5
DA
330
1E
100
AcDbEntity
  8
0
100
AcDbLine
 10
235.4860799999999
 20
134.1814999999999
 30
0.0
 11
235.4860799999999
 21
136.6775
 31
0.0
  0
LINE
  5
DB
330
1E
100
AcDbEntity
  8
0
100
AcDbLine
 10
235.4860799999999
 20
134.1814999999999
 30
0.0
 11
235.4860799999999
 21
130.0215
 31
0.0
  0
LINE
  5
DC
330
1E
100
AcDbEntity
  8
0
100
AcDbLine
 10
235.4860799999999
 20
130.0215
 30
0.0
 11
235.4860799999999
 21
134.1814999999999
 31
0.0
  0
LINE
  5
DD
330
1E
100
AcDbEntity
  8
0
100
AcDbLine
 10
235.4860799999999
 20
130.0215
 30
0.0
 11
235.4860799999999
 21
128.6134999999999
 31
0.0
  0
LINE
  5
DE
330
1E
100
AcDbEntity
  8
0
100
AcDbLine
 10
235.4860799999999
 20
128.6134999999999
 30
0.0
 11
235.4860799999999
 21
130.0215
 31
0.0
  0
LINE
  5
DF
330
1E
100
AcDbEntity
  8
0
100
AcDbLine
 10
235.4860799999999
 20
128.6134999999999
 30
0.0
 11
235.4860799999999
 21
130.5990999999999
 31
0.0
  0
LINE
  5
E0
330
1E
100
AcDbEntity
  8
0
100
AcDbLine
 10
235.4860799999999
 20
134.6134999999999
 30
0.0
 11
235.4860799999999
 21
136.6775
 31
0.0
  0
LINE
  5
E1
330
1E
100
AcDbEntity
  8
0
100
AcDbLine
 10
235.4860799999999
 20
134.6134999999999
 30
0.0
 11
235.4860799999999
 21
134.1971
 31
0.0
  0
LINE
  5
E2
330
1E
100
AcDbEntity
  8
0
100
AcDbLine
 10
131.86108
 20
139.766491
 30
0.0
 11
132.96008
 21
137.1134999999999
 31
0.0
  0
LINE
  5
E3
330
1E
100
AcDbEntity
  8
0
100
AcDbLine
 10
235.4860799999999
 20
137.6134999999999
 30
0.0
 11
235.4860799999999
 21
136.6775
 31
0.0
  0
LINE
  5
E4
330
1E
100
AcDbEntity
  8
0
100
AcDbLine
 10
235.4860799999999
 20
137.6134999999999
 30
0.0
 11
237.4860799999999
 21
137.6134999999999
 31
0.0
  0
LINE
  5
E5
330
1E
100
AcDbEntity
  8
0
100
AcDbLine
 10
235.4860799999999
 20
137.6134999999999
 30
0.0
 11
235.4860799999999
 21
136.6775
 31
0.0
  0
LINE
  5
E6
330
1E
100
AcDbEntity
  8
0
100
AcDbLine
 10
235.4860799999999
 20
136.6775
 30
0.0
 11
235.4860799999999
 21
134.6134999999999
 31
0.0
  0
LINE
  5
E7
330
1E
100
AcDbEntity
  8
0
100
AcDbLine
 10
235.4860799999999
 20
136.6775
 30
0.0
 11
235.4860799999999
 21
137.6134999999999
 31
0.0
  0
LINE
  5
E8
330
1E
100
AcDbEntity
  8
0
100
AcDbLine
 10
235.4860799999999
 20
111.6135
 30
0.0
 11
235.4860799999999
 21
104.9574999999999
 31
0.0
  0
LINE
  5
E9
330
1E
100
AcDbEntity
  8
0
100
AcDbLine
 10
235.4860799999999
 20
111.6135
 30
0.0
 11
235.4860799999999
 21
114.6135
 31
0.0
  0
LINE
  5
EA
330
1E
100
AcDbEntity
  8
0
100
AcDbLine
 10
237.4860799999999
 20
113.8014999999999
 30
0.0
 11
237.4860799999999
 21
112.9375
 31
0.0
  0
LINE
  5
EB
330
1E
100
AcDbEntity
  8
0
100
AcDbLine
 10
237.4860799999999
 20
113.8014999999999
 30
0.0
 11
237.4860799999999
 21
115.2414999999999
 31
0.0
  0
LINE
  5
EC
330
1E
100
AcDbEntity
  8
0
100
AcDbLine
 10
237.4860799999999
 20
112.9375
 30
0.0
 11
237.4860799999999
 21
112.6135
 31
0.0
  0
LINE
  5
ED
330
1E
100
AcDbEntity
  8
0
100
AcDbLine
 10
237.4860799999999
 20
112.9375
 30
0.0
 11
237.4860799999999
 21
113.8014999999999
 31
0.0
  0
LINE
  5
EE
330
1E
100
AcDbEntity
  8
0
100
AcDbLine
 10
237.4860799999999
 20
112.6135
 30
0.0
 11
237.4860799999999
 21
112.9375
 31
0.0
  0
LINE
  5
EF
330
1E
100
AcDbEntity
  8
0
100
AcDbLine
 10
237.4860799999999
 20
112.6135
 30
0.0
 11
247.48608
 21
112.6135
 31
0.0
  0
LINE
  5
F0
330
1E
100
AcDbEntity
  8
0
100
AcDbLine
 10
237.4860799999999
 20
115.2414999999999
 30
0.0
 11
237.4860799999999
 21
113.8014999999999
 31
0.0
  0
LINE
  5
F1
330
1E
100
AcDbEntity
  8
0
100
AcDbLine
 10
237.4860799999999
 20
115.2414999999999
 30
0.0
 11
237.4860799999999
 21
117.1494999999999
 31
0.0
  0
LINE
  5
F2
330
1E
100
AcDbEntity
  8
0
100
AcDbLine
 10
237.4860799999999
 20
119.3095
 30
0.0
 11
237.4860799999999
 21
117.1494999999999
 31
0.0
  0
LINE
  5
F3
330
1E
100
AcDbEntity
  8
0
100
AcDbLine
 10
237.4860799999999
 20
119.3095
 30
0.0
 11
237.4860799999999
 21
121.6134999999999
 31
0.0
  0
LINE
  5
F4
330
1E
100
AcDbEntity
  8
0
100
AcDbLine
 10
237.4860799999999
 20
117.1494999999999
 30
0.0
 11
237.4860799999999
 21
115.2414999999999
 31
0.0
  0
LINE
  5
F5
330
1E
100
AcDbEntity
  8
0
100
AcDbLine
 10
237.4860799999999
 20
117.1494999999999
 30
0.0
 11
237.4860799999999
 21
119.3095
 31
0.0
  0
LINE
  5
F6
330
1E
100
AcDbEntity
  8
0
100
AcDbLine
 10
237.4860799999999
 20
123.9175
 30
0.0
 11
237.4860799999999
 21
121.6134999999999
 31
0.0
  0
LINE
  5
F7
330
1E
100
AcDbEntity
  8
0
100
AcDbLine
 10
237.4860799999999
 20
123.9175
 30
0.0
 11
237.4860799999999
 21
126.0774999999999
 31
0.0
  0
LINE
  5
F8
330
1E
100
AcDbEntity
  8
0
100
AcDbLine
 10
237.4860799999999
 20
126.0774999999999
 30
0.0
 11
237.4860799999999
 21
123.9175
 31
0.0
  0
LINE
  5
F9
330
1E
100
AcDbEntity
  8
0
100
AcDbLine
 10
237.4860799999999
 20
126.0774999999999
 30
0.0
 11
237.4860799999999
 21
127.9854999999999
 31
0.0
  0
LINE
  5
FA
330
1E
100
AcDbEntity
  8
0
100
AcDbLine
 10
237.4860799999999
 20
123.4055
 30
0.0
 11
237.4860799999999
 21
121.6134999999999
 31
0.0
  0
LINE
  5
FB
330
1E
100
AcDbEntity
  8
0
100
AcDbLine
 10
237.4860799999999
 20
123.4055
 30
0.0
 11
237.4860799999999
 21
125.0855
 31
0.0
  0
LINE
  5
FC
330
1E
100
AcDbEntity
  8
0
100
AcDbLine
 10
237.4860799999999
 20
125.0855
 30
0.0
 11
237.4860799999999
 21
123.4055
 31
0.0
  0
LINE
  5
FD
330
1E
100
AcDbEntity
  8
0
100
AcDbLine
 10
237.4860799999999
 20
125.0855
 30
0.0
 11
237.4860799999999
 21
126.5695
 31
0.0
  0
LINE
  5
FE
330
1E
100
AcDbEntity
  8
0
100
AcDbLine
 10
237.4860799999999
 20
127.9854999999999
 30
0.0
 11
237.4860799999999
 21
126.0774999999999
 31
0.0
  0
LINE
  5
FF
330
1E
100
AcDbEntity
  8
0
100
AcDbLine
 10
237.4860799999999
 20
127.9854999999999
 30
0.0
 11
237.4860799999999
 21
129.4254999999999
 31
0.0
  0
LINE
  5
100
330
1E
100
AcDbEntity
  8
0
100
AcDbLine
 10
237.4860799999999
 20
126.5695
 30
0.0
 11
237.4860799999999
 21
125.0855
 31
0.0
  0
LINE
  5
101
330
1E
100
AcDbEntity
  8
0
100
AcDbLine
 10
237.4860799999999
 20
126.5695
 30
0.0
 11
237.4860799999999
 21
127.6894999999999
 31
0.0
  0
LINE
  5
102
330
1E
100
AcDbEntity
  8
0
100
AcDbLine
 10
237.4860799999999
 20
127.6894999999999
 30
0.0
 11
237.4860799999999
 21
126.5695
 31
0.0
  0
LINE
  5
103
330
1E
100
AcDbEntity
  8
0
100
AcDbLine
 10
237.4860799999999
 20
127.6894999999999
 30
0.0
 11
237.4860799999999
 21
128.3615
 31
0.0
  0
LINE
  5
104
330
1E
100
AcDbEntity
  8
0
100
AcDbLine
 10
237.4860799999999
 20
129.4254999999999
 30
0.0
 11
237.4860799999999
 21
130.2895
 31
0.0
  0
LINE
  5
105
330
1E
100
AcDbEntity
  8
0
100
AcDbLine
 10
237.4860799999999
 20
129.4254999999999
 30
0.0
 11
237.4860799999999
 21
128.6134999999999
 31
0.0
  0
LINE
  5
106
330
1E
100
AcDbEntity
  8
0
100
AcDbLine
 10
237.4860799999999
 20
129.4254999999999
 30
0.0
 11
237.4860799999999
 21
127.9854999999999
 31
0.0
  0
LINE
  5
107
330
1E
100
AcDbEntity
  8
0
100
AcDbLine
 10
237.4860799999999
 20
128.3615
 30
0.0
 11
237.4860799999999
 21
127.6894999999999
 31
0.0
  0
LINE
  5
108
330
1E
100
AcDbEntity
  8
0
100
AcDbLine
 10
237.4860799999999
 20
128.3615
 30
0.0
 11
237.4860799999999
 21
128.6134999999999
 31
0.0
  0
LINE
  5
109
330
1E
100
AcDbEntity
  8
0
100
AcDbLine
 10
237.4860799999999
 20
121.6134999999999
 30
0.0
 11
237.4860799999999
 21
119.8215
 31
0.0
  0
LINE
  5
10A
330
1E
100
AcDbEntity
  8
0
100
AcDbLine
 10
237.4860799999999
 20
121.6134999999999
 30
0.0
 11
237.4860799999999
 21
123.4055
 31
0.0
  0
LINE
  5
10B
330
1E
100
AcDbEntity
  8
0
100
AcDbLine
 10
237.4860799999999
 20
121.6134999999999
 30
0.0
 11
237.4860799999999
 21
119.3095
 31
0.0
  0
LINE
  5
10C
330
1E
100
AcDbEntity
  8
0
100
AcDbLine
 10
237.4860799999999
 20
121.6134999999999
 30
0.0
 11
237.4860799999999
 21
123.9175
 31
0.0
  0
LINE
  5
10D
330
1E
100
AcDbEntity
  8
0
100
AcDbLine
 10
237.4860799999999
 20
119.8215
 30
0.0
 11
237.4860799999999
 21
118.1414999999999
 31
0.0
  0
LINE
  5
10E
330
1E
100
AcDbEntity
  8
0
100
AcDbLine
 10
237.4860799999999
 20
119.8215
 30
0.0
 11
237.4860799999999
 21
121.6134999999999
 31
0.0
  0
LINE
  5
10F
330
1E
100
AcDbEntity
  8
0
100
AcDbLine
 10
237.4860799999999
 20
118.1414999999999
 30
0.0
 11
237.4860799999999
 21
116.6574999999999
 31
0.0
  0
LINE
  5
110
330
1E
100
AcDbEntity
  8
0
100
AcDbLine
 10
237.4860799999999
 20
118.1414999999999
 30
0.0
 11
237.4860799999999
 21
119.8215
 31
0.0
  0
LINE
  5
111
330
1E
100
AcDbEntity
  8
0
100
AcDbLine
 10
237.4860799999999
 20
116.6574999999999
 30
0.0
 11
237.4860799999999
 21
115.5375
 31
0.0
  0
LINE
  5
112
330
1E
100
AcDbEntity
  8
0
100
AcDbLine
 10
237.4860799999999
 20
116.6574999999999
 30
0.0
 11
237.4860799999999
 21
118.1414999999999
 31
0.0
  0
LINE
  5
113
330
1E
100
AcDbEntity
  8
0
100
AcDbLine
 10
237.4860799999999
 20
115.5375
 30
0.0
 11
237.4860799999999
 21
114.8654999999999
 31
0.0
  0
LINE
  5
114
330
1E
100
AcDbEntity
  8
0
100
AcDbLine
 10
237.4860799999999
 20
115.5375
 30
0.0
 11
237.4860799999999
 21
116.6574999999999
 31
0.0
  0
LINE
  5
115
330
1E
100
AcDbEntity
  8
0
100
AcDbLine
 10
237.4860799999999
 20
114.8654999999999
 30
0.0
 11
237.4860799999999
 21
114.6135
 31
0.0
  0
LINE
  5
116
330
1E
100
AcDbEntity
  8
0
100
AcDbLine
 10
237.4860799999999
 20
114.8654999999999
 30
0.0
 11
237.4860799999999
 21
115.5375
 31
0.0
  0
LINE
  5
117
330
1E
100
AcDbEntity
  8
0
100
AcDbLine
 10
237.4860799999999
 20
114.6135
 30
0.0
 11
237.4860799999999
 21
111.6135
 31
0.0
  0
LINE
  5
118
330
1E
100
AcDbEntity
  8
0
100
AcDbLine
 10
237.4860799999999
 20
114.6135
 30
0.0
 11
237.4860799999999
 21
114.8654999999999
 31
0.0
  0
LINE
  5
119
330
1E
100
AcDbEntity
  8
0
100
AcDbLine
 10
237.4860799999999
 20
130.2895
 30
0.0
 11
237.4860799999999
 21
130.6134999999999
 31
0.0
  0
LINE
  5
11A
330
1E
100
AcDbEntity
  8
0
100
AcDbLine
 10
237.4860799999999
 20
130.2895
 30
0.0
 11
237.4860799999999
 21
129.4254999999999
 31
0.0
  0
LINE
  5
11B
330
1E
100
AcDbEntity
  8
0
100
AcDbLine
 10
237.4860799999999
 20
130.6134999999999
 30
0.0
 11
247.48608
 21
130.6134999999999
 31
0.0
  0
LINE
  5
11C
330
1E
100
AcDbEntity
  8
0
100
AcDbLine
 10
237.4860799999999
 20
130.6134999999999
 30
0.0
 11
237.4860799999999
 21
130.2895
 31
0.0
  0
LINE
  5
11D
330
1E
100
AcDbEntity
  8
0
100
AcDbLine
 10
237.4860799999999
 20
131.6134999999999
 30
0.0
 11
257.4860799999999
 21
131.6134999999999
 31
0.0
  0
LINE
  5
11E
330
1E
100
AcDbEntity
  8
0
100
AcDbLine
 10
237.4860799999999
 20
137.6134999999999
 30
0.0
 11
237.4860799999999
 21
136.6775
 31
0.0
  0
LINE
  5
11F
330
1E
100
AcDbEntity
  8
0
100
AcDbLine
 10
237.4860799999999
 20
136.6775
 30
0.0
 11
237.4860799999999
 21
137.6134999999999
 31
0.0
  0
LINE
  5
120
330
1E
100
AcDbEntity
  8
0
100
AcDbLine
 10
237.4860799999999
 20
136.6775
 30
0.0
 11
237.4860799999999
 21
134.1814999999999
 31
0.0
  0
LINE
  5
121
330
1E
100
AcDbEntity
  8
0
100
AcDbLine
 10
237.4860799999999
 20
134.1814999999999
 30
0.0
 11
237.4860799999999
 21
136.6775
 31
0.0
  0
LINE
  5
122
330
1E
100
AcDbEntity
  8
0
100
AcDbLine
 10
237.4860799999999
 20
134.1814999999999
 30
0.0
 11
237.4860799999999
 21
130.0215
 31
0.0
  0
LINE
  5
123
330
1E
100
AcDbEntity
  8
0
100
AcDbLine
 10
237.4860799999999
 20
130.0215
 30
0.0
 11
237.4860799999999
 21
134.1814999999999
 31
0.0
  0
LINE
  5
124
330
1E
100
AcDbEntity
  8
0
100
AcDbLine
 10
237.4860799999999
 20
130.0215
 30
0.0
 11
237.4860799999999
 21
128.6134999999999
 31
0.0
  0
LINE
  5
125
330
1E
100
AcDbEntity
  8
0
100
AcDbLine
 10
237.4860799999999
 20
128.6134999999999
 30
0.0
 11
237.4860799999999
 21
130.0215
 31
0.0
  0
LINE
  5
126
330
1E
100
AcDbEntity
  8
0
100
AcDbLine
 10
237.4860799999999
 20
128.6134999999999
 30
0.0
 11
237.4860799999999
 21
128.3615
 31
0.0
  0
LINE
  5
127
330
1E
100
AcDbEntity
  8
0
100
AcDbLine
 10
237.4860799999999
 20
128.6134999999999
 30
0.0
 11
237.4860799999999
 21
129.4254999999999
 31
0.0
  0
LINE
  5
128
330
1E
100
AcDbEntity
  8
0
100
AcDbLine
 10
237.4860799999999
 20
111.6135
 30
0.0
 11
237.4860799999999
 21
104.9574999999999
 31
0.0
  0
LINE
  5
129
330
1E
100
AcDbEntity
  8
0
100
AcDbLine
 10
237.4860799999999
 20
111.6135
 30
0.0
 11
237.4860799999999
 21
114.6135
 31
0.0
  0
LINE
  5
12A
330
1E
100
AcDbEntity
  8
0
100
AcDbLine
 10
235.4860799999999
 20
104.9574999999999
 30
0.0
 11
235.4860799999999
 21
111.6135
 31
0.0
  0
LINE
  5
12B
330
1E
100
AcDbEntity
  8
0
100
AcDbLine
 10
235.4860799999999
 20
104.9574999999999
 30
0.0
 11
235.4860799999999
 21
98.7175
 31
0.0
  0
LINE
  5
12C
330
1E
100
AcDbEntity
  8
0
100
AcDbLine
 10
237.4860799999999
 20
98.7175
 30
0.0
 11
237.4860799999999
 21
104.9574999999999
 31
0.0
  0
LINE
  5
12D
330
1E
100
AcDbEntity
  8
0
100
AcDbLine
 10
237.4860799999999
 20
98.7175
 30
0.0
 11
237.4860799999999
 21
93.2055
 31
0.0
  0
LINE
  5
12E
330
1E
100
AcDbEntity
  8
0
100
AcDbLine
 10
247.48608
 20
112.6135
 30
0.0
 11
247.48608
 21
112.9375
 31
0.0
  0
LINE
  5
12F
330
1E
100
AcDbEntity
  8
0
100
AcDbLine
 10
247.48608
 20
123.9175
 30
0.0
 11
247.48608
 21
121.6134999999999
 31
0.0
  0
LINE
  5
130
330
1E
100
AcDbEntity
  8
0
100
AcDbLine
 10
247.48608
 20
123.9175
 30
0.0
 11
247.48608
 21
126.0774999999999
 31
0.0
  0
LINE
  5
131
330
1E
100
AcDbEntity
  8
0
100
AcDbLine
 10
247.48608
 20
126.0774999999999
 30
0.0
 11
247.48608
 21
123.9175
 31
0.0
  0
LINE
  5
132
330
1E
100
AcDbEntity
  8
0
100
AcDbLine
 10
247.48608
 20
126.0774999999999
 30
0.0
 11
247.48608
 21
127.9854999999999
 31
0.0
  0
LINE
  5
133
330
1E
100
AcDbEntity
  8
0
100
AcDbLine
 10
247.48608
 20
127.9854999999999
 30
0.0
 11
247.48608
 21
126.0774999999999
 31
0.0
  0
LINE
  5
134
330
1E
100
AcDbEntity
  8
0
100
AcDbLine
 10
247.48608
 20
127.9854999999999
 30
0.0
 11
247.48608
 21
129.4254999999999
 31
0.0
  0
LINE
  5
135
330
1E
100
AcDbEntity
  8
0
100
AcDbLine
 10
247.48608
 20
121.6134999999999
 30
0.0
 11
247.48608
 21
119.3095
 31
0.0
  0
LINE
  5
136
330
1E
100
AcDbEntity
  8
0
100
AcDbLine
 10
247.48608
 20
121.6134999999999
 30
0.0
 11
247.48608
 21
123.9175
 31
0.0
  0
LINE
  5
137
330
1E
100
AcDbEntity
  8
0
100
AcDbLine
 10
247.48608
 20
119.3095
 30
0.0
 11
247.48608
 21
117.1494999999999
 31
0.0
  0
LINE
  5
138
330
1E
100
AcDbEntity
  8
0
100
AcDbLine
 10
247.48608
 20
119.3095
 30
0.0
 11
247.48608
 21
121.6134999999999
 31
0.0
  0
LINE
  5
139
330
1E
100
AcDbEntity
  8
0
100
AcDbLine
 10
247.48608
 20
117.1494999999999
 30
0.0
 11
247.48608
 21
115.2414999999999
 31
0.0
  0
LINE
  5
13A
330
1E
100
AcDbEntity
  8
0
100
AcDbLine
 10
247.48608
 20
117.1494999999999
 30
0.0
 11
247.48608
 21
119.3095
 31
0.0
  0
LINE
  5
13B
330
1E
100
AcDbEntity
  8
0
100
AcDbLine
 10
247.48608
 20
115.2414999999999
 30
0.0
 11
247.48608
 21
113.8014999999999
 31
0.0
  0
LINE
  5
13C
330
1E
100
AcDbEntity
  8
0
100
AcDbLine
 10
247.48608
 20
115.2414999999999
 30
0.0
 11
247.48608
 21
117.1494999999999
 31
0.0
  0
LINE
  5
13D
330
1E
100
AcDbEntity
  8
0
100
AcDbLine
 10
247.48608
 20
113.8014999999999
 30
0.0
 11
247.48608
 21
112.9375
 31
0.0
  0
LINE
  5
13E
330
1E
100
AcDbEntity
  8
0
100
AcDbLine
 10
247.48608
 20
113.8014999999999
 30
0.0
 11
247.48608
 21
115.2414999999999
 31
0.0
  0
LINE
  5
13F
330
1E
100
AcDbEntity
  8
0
100
AcDbLine
 10
247.48608
 20
112.9375
 30
0.0
 11
247.48608
 21
112.6135
 31
0.0
  0
LINE
  5
140
330
1E
100
AcDbEntity
  8
0
100
AcDbLine
 10
247.48608
 20
112.9375
 30
0.0
 11
247.48608
 21
113.8014999999999
 31
0.0
  0
LINE
  5
141
330
1E
100
AcDbEntity
  8
0
100
AcDbLine
 10
257.4860799999999
 20
96.6135
 30
0.0
 11
287.4860799999999
 21
96.6135
 31
0.0
  0
LINE
  5
142
330
1E
100
AcDbEntity
  8
0
100
AcDbLine
 10
257.4860799999999
 20
96.6135
 30
0.0
 11
257.4860799999999
 21
131.6134999999999
 31
0.0
  0
LINE
  5
143
330
1E
100
AcDbEntity
  8
0
100
AcDbLine
 10
247.48608
 20
114.6135
 30
0.0
 11
257.4860799999999
 21
114.6135
 31
0.0
  0
LINE
  5
144
330
1E
100
AcDbEntity
  8
0
100
AcDbLine
 10
247.48608
 20
129.4254999999999
 30
0.0
 11
247.48608
 21
127.9854999999999
 31
0.0
  0
LINE
  5
145
330
1E
100
AcDbEntity
  8
0
100
AcDbLine
 10
247.48608
 20
129.4254999999999
 30
0.0
 11
247.48608
 21
130.2895
 31
0.0
  0
LINE
  5
146
330
1E
100
AcDbEntity
  8
0
100
AcDbLine
 10
247.48608
 20
130.2895
 30
0.0
 11
247.48608
 21
129.4254999999999
 31
0.0
  0
LINE
  5
147
330
1E
100
AcDbEntity
  8
0
100
AcDbLine
 10
247.48608
 20
130.2895
 30
0.0
 11
247.48608
 21
130.6134999999999
 31
0.0
  0
LINE
  5
148
330
1E
100
AcDbEntity
  8
0
100
AcDbLine
 10
268.4860799999999
 20
140.6134999999999
 30
0.0
 11
268.4860799999999
 21
136.6134999999999
 31
0.0
  0
LINE
  5
149
330
1E
100
AcDbEntity
  8
0
100
AcDbLine
 10
268.4860799999999
 20
140.6134999999999
 30
0.0
 11
269.8540799999999
 21
140.6134999999999
 31
0.0
  0
LINE
  5
14A
330
1E
100
AcDbEntity
  8
0
100
AcDbLine
 10
269.8540799999999
 20
140.6134999999999
 30
0.0
 11
273.50208
 21
140.6134999999999
 31
0.0
  0
LINE
  5
14B
330
1E
100
AcDbEntity
  8
0
100
AcDbLine
 10
269.8540799999999
 20
136.6134999999999
 30
0.0
 11
273.50208
 21
136.6134999999999
 31
0.0
  0
LINE
  5
14C
330
1E
100
AcDbEntity
  8
0
100
AcDbLine
 10
269.8540799999999
 20
136.6134999999999
 30
0.0
 11
273.50208
 21
136.6134999999999
 31
0.0
  0
LINE
  5
14D
330
1E
100
AcDbEntity
  8
0
100
AcDbLine
 10
268.4860799999999
 20
136.6134999999999
 30
0.0
 11
269.8540799999999
 21
136.6134999999999
 31
0.0
  0
LINE
  5
14E
330
1E
100
AcDbEntity
  8
0
100
AcDbLine
 10
268.4860799999999
 20
136.6134999999999
 30
0.0
 11
268.4860799999999
 21
140.6134999999999
 31
0.0
  0
LINE
  5
14F
330
1E
100
AcDbEntity
  8
0
100
AcDbLine
 10
257.4860799999999
 20
131.6134999999999
 30
0.0
 11
287.4860799999999
 21
131.6134999999999
 31
0.0
  0
LINE
  5
150
330
1E
100
AcDbEntity
  8
0
100
AcDbLine
 10
257.4860799999999
 20
131.6134999999999
 30
0.0
 11
257.4860799999999
 21
96.6135
 31
0.0
  0
LINE
  5
151
330
1E
100
AcDbEntity
  8
0
100
AcDbLine
 10
247.48608
 20
130.6134999999999
 30
0.0
 11
247.48608
 21
130.2895
 31
0.0
  0
LINE
  5
152
330
1E
100
AcDbEntity
  8
0
100
AcDbLine
 10
247.48608
 20
128.6134999999999
 30
0.0
 11
257.4860799999999
 21
128.6134999999999
 31
0.0
  0
LINE
  5
153
330
1E
100
AcDbEntity
  8
0
100
AcDbLine
 10
237.4860799999999
 20
104.9574999999999
 30
0.0
 11
237.4860799999999
 21
111.6135
 31
0.0
  0
LINE
  5
154
330
1E
100
AcDbEntity
  8
0
100
AcDbLine
 10
237.4860799999999
 20
104.9574999999999
 30
0.0
 11
237.4860799999999
 21
98.7175
 31
0.0
  0
LINE
  5
155
330
1E
100
AcDbEntity
  8
0
100
AcDbLine
 10
9.68827999999997
 20
516.7635
 30
0.0
 11
11.10638
 21
517.0135
 31
0.0
  0
LINE
  5
156
330
1E
100
AcDbEntity
  8
0
100
AcDbLine
 10
8.837379999999969
 20
516.6135
 30
0.0
 11
9.68827999999997
 21
516.7635
 31
0.0
  0
LINE
  5
157
330
1E
100
AcDbEntity
  8
0
100
AcDbLine
 10
8.51827999999997
 20
516.5575
 30
0.0
 11
8.837379999999969
 21
516.6135
 31
0.0
  0
LINE
  5
158
330
1E
100
AcDbEntity
  8
0
100
AcDbLine
 10
11.10638
 20
517.0135
 30
0.0
 11
12.4630108651983
 21
517.2524807431511
 31
0.0
  0
LINE
  5
159
330
1E
100
AcDbEntity
  8
0
100
AcDbLine
 10
11.10638
 20
517.0135
 30
0.0
 11
12.98538
 21
517.3445
 31
0.0
  0
LINE
  5
15A
330
1E
100
AcDbEntity
  8
0
100
AcDbLine
 10
-0.164080000000028
 20
565.7975
 30
0.0
 11
0.15498999999997
 21
565.8535
 31
0.0
  0
LINE
  5
15B
330
1E
100
AcDbEntity
  8
0
100
AcDbLine
 10
12.98538
 20
517.3445
 30
0.0
 11
15.11257999999999
 21
517.7195
 31
0.0
  0
LINE
  5
15C
330
1E
100
AcDbEntity
  8
0
100
AcDbLine
 10
0.15498999999997
 20
565.8535
 30
0.0
 11
1.005869999999969
 21
566.0035
 31
0.0
  0
LINE
  5
15D
330
1E
100
AcDbEntity
  8
0
100
AcDbLine
 10
0.15498999999997
 20
565.8535
 30
0.0
 11
1.005869999999969
 21
566.0035
 31
0.0
  0
LINE
  5
15E
330
1E
100
AcDbEntity
  8
0
100
AcDbLine
 10
4.30299999999997
 20
566.5855
 30
0.0
 11
6.430179999999969
 21
566.9605
 31
0.0
  0
LINE
  5
15F
330
1E
100
AcDbEntity
  8
0
100
AcDbLine
 10
6.430179999999969
 20
566.9605
 30
0.0
 11
8.699179999999969
 21
567.3605
 31
0.0
  0
LINE
  5
160
330
1E
100
AcDbEntity
  8
0
100
AcDbLine
 10
2.42398999999997
 20
566.2535
 30
0.0
 11
4.30299999999997
 21
566.5855
 31
0.0
  0
LINE
  5
161
330
1E
100
AcDbEntity
  8
0
100
AcDbLine
 10
1.005869999999969
 20
566.0035
 30
0.0
 11
2.42398999999997
 21
566.2535
 31
0.0
  0
LINE
  5
162
330
1E
100
AcDbEntity
  8
0
100
AcDbLine
 10
-0.164080000000028
 20
565.7975
 30
0.0
 11
0.15498999999997
 21
565.8535
 31
0.0
  0
LINE
  5
163
330
1E
100
AcDbEntity
  8
0
100
AcDbLine
 10
-0.164080000000028
 20
565.7975
 30
0.0
 11
8.51827999999997
 21
516.5575
 31
0.0
  0
LINE
  5
164
330
1E
100
AcDbEntity
  8
0
100
AcDbLine
 10
-0.164080000000028
 20
565.7975
 30
0.0
 11
8.51827999999997
 21
516.5575
 31
0.0
  0
LINE
  5
165
330
1E
100
AcDbEntity
  8
0
100
AcDbLine
 10
10.96818
 20
567.7604999999999
 30
0.0
 11
13.09538
 21
568.1354999999999
 31
0.0
  0
LINE
  5
166
330
1E
100
AcDbEntity
  8
0
100
AcDbLine
 10
8.699179999999969
 20
567.3605
 30
0.0
 11
10.96818
 21
567.7604999999999
 31
0.0
  0
LINE
  5
167
330
1E
100
AcDbEntity
  8
0
100
AcDbLine
 10
13.09538
 20
568.1354999999999
 30
0.0
 11
13.62321960353469
 21
568.228482921112
 31
0.0
  0
LINE
  5
168
330
1E
100
AcDbEntity
  8
0
100
AcDbLine
 10
12.45758
 20
517.2514999999999
 30
0.0
 11
28.81638
 21
424.4765
 31
0.0
  0
LINE
  5
169
330
1E
100
AcDbEntity
  8
0
100
AcDbLine
 10
13.39747999999999
 20
569.5085
 30
0.0
 11
13.62321960353469
 21
568.228482921112
 31
0.0
  0
LINE
  5
16A
330
1E
100
AcDbEntity
  8
0
100
AcDbLine
 10
13.39747999999999
 20
569.5085
 30
0.0
 11
13.95318
 21
566.3574999999999
 31
0.0
  0
LINE
  5
16B
330
1E
100
AcDbEntity
  8
0
100
AcDbLine
 10
13.18907999999999
 20
570.6905
 30
0.0
 11
13.39747999999999
 21
569.5085
 31
0.0
  0
LINE
  5
16C
330
1E
100
AcDbEntity
  8
0
100
AcDbLine
 10
13.18907999999999
 20
570.6905
 30
0.0
 11
13.77297999999999
 21
571.8094999999999
 31
0.0
  0
LINE
  5
16D
330
1E
100
AcDbEntity
  8
0
100
AcDbLine
 10
30.13177999999999
 20
425.4234999999999
 30
0.0
 11
31.08677999999999
 21
426.1124999999999
 31
0.0
  0
LINE
  5
16E
330
1E
100
AcDbEntity
  8
0
100
AcDbLine
 10
29.41098
 20
424.9044999999999
 30
0.0
 11
30.13177999999999
 21
425.4234999999999
 31
0.0
  0
LINE
  5
16F
330
1E
100
AcDbEntity
  8
0
100
AcDbLine
 10
28.97857999999999
 20
424.5924999999999
 30
0.0
 11
29.41098
 21
424.9044999999999
 31
0.0
  0
LINE
  5
170
330
1E
100
AcDbEntity
  8
0
100
AcDbLine
 10
33.32128
 20
427.7214999999999
 30
0.0
 11
34.47448
 21
428.5524999999999
 31
0.0
  0
LINE
  5
171
330
1E
100
AcDbEntity
  8
0
100
AcDbLine
 10
34.47448
 20
428.5524999999999
 30
0.0
 11
35.55578
 21
429.3314999999999
 31
0.0
  0
LINE
  5
172
330
1E
100
AcDbEntity
  8
0
100
AcDbLine
 10
32.16807999999999
 20
426.8905
 30
0.0
 11
33.32128
 21
427.7214999999999
 31
0.0
  0
LINE
  5
173
330
1E
100
AcDbEntity
  8
0
100
AcDbLine
 10
31.08677999999999
 20
426.1124999999999
 30
0.0
 11
32.16807999999999
 21
426.8905
 31
0.0
  0
LINE
  5
174
330
1E
100
AcDbEntity
  8
0
100
AcDbLine
 10
28.81638
 20
424.4765
 30
0.0
 11
28.97857999999999
 21
424.5924999999999
 31
0.0
  0
LINE
  5
175
330
1E
100
AcDbEntity
  8
0
100
AcDbLine
 10
35.55578
 20
429.3314999999999
 30
0.0
 11
36.51078
 21
430.0195
 31
0.0
  0
LINE
  5
176
330
1E
100
AcDbEntity
  8
0
100
AcDbLine
 10
26.70248183452339
 20
505.6446036749259
 30
0.0
 11
61.4020808167566
 21
313.051569834986
 31
0.0
  0
LINE
  5
177
330
1E
100
AcDbEntity
  8
0
100
AcDbLine
 10
26.70248183452339
 20
505.6446036749259
 30
0.0
 11
61.4020808167566
 21
313.051569834986
 31
0.0
  0
LINE
  5
178
330
1E
100
AcDbEntity
  8
0
100
AcDbLine
 10
36.51078
 20
430.0195
 30
0.0
 11
37.23158
 21
430.5385
 31
0.0
  0
LINE
  5
179
330
1E
100
AcDbEntity
  8
0
100
AcDbLine
 10
37.66398
 20
430.8505
 30
0.0
 11
37.82618
 21
430.9674999999999
 31
0.0
  0
LINE
  5
17A
330
1E
100
AcDbEntity
  8
0
100
AcDbLine
 10
37.23158
 20
430.5385
 30
0.0
 11
37.66398
 21
430.8505
 31
0.0
  0
LINE
  5
17B
330
1E
100
AcDbEntity
  8
0
100
AcDbLine
 10
15.11257999999999
 20
517.7195
 30
0.0
 11
17.38158
 21
518.1205
 31
0.0
  0
LINE
  5
17C
330
1E
100
AcDbEntity
  8
0
100
AcDbLine
 10
16.12108
 20
517.8975
 30
0.0
 11
17.38158
 21
518.1205
 31
0.0
  0
LINE
  5
17D
330
1E
100
AcDbEntity
  8
0
100
AcDbLine
 10
15.8019612698877
 20
517.841334239412
 30
0.0
 11
16.12108
 21
517.8975
 31
0.0
  0
LINE
  5
17E
330
1E
100
AcDbEntity
  8
0
100
AcDbLine
 10
15.8019612698877
 20
517.841334239412
 30
0.0
 11
17.38158
 21
518.1205
 31
0.0
  0
LINE
  5
17F
330
1E
100
AcDbEntity
  8
0
100
AcDbLine
 10
17.38158
 20
518.1205
 30
0.0
 11
18.64218
 21
518.3424999999999
 31
0.0
  0
LINE
  5
180
330
1E
100
AcDbEntity
  8
0
100
AcDbLine
 10
17.38158
 20
518.1205
 30
0.0
 11
19.65057999999999
 21
518.5204999999999
 31
0.0
  0
LINE
  5
181
330
1E
100
AcDbEntity
  8
0
100
AcDbLine
 10
19.65057999999999
 20
518.5204999999999
 30
0.0
 11
21.77777999999999
 21
518.8954999999999
 31
0.0
  0
LINE
  5
182
330
1E
100
AcDbEntity
  8
0
100
AcDbLine
 10
19.82388
 20
518.5505
 30
0.0
 11
20.86778
 21
518.7345
 31
0.0
  0
LINE
  5
183
330
1E
100
AcDbEntity
  8
0
100
AcDbLine
 10
18.64218
 20
518.3424999999999
 30
0.0
 11
19.82388
 21
518.5505
 31
0.0
  0
LINE
  5
184
330
1E
100
AcDbEntity
  8
0
100
AcDbLine
 10
20.86778
 20
518.7345
 30
0.0
 11
21.65567999999999
 21
518.8735
 31
0.0
  0
LINE
  5
185
330
1E
100
AcDbEntity
  8
0
100
AcDbLine
 10
20.29128
 20
530.4124999999999
 30
0.0
 11
21.64578
 21
522.7305
 31
0.0
  0
LINE
  5
186
330
1E
100
AcDbEntity
  8
0
100
AcDbLine
 10
18.83268
 20
538.6845
 30
0.0
 11
20.29128
 21
530.4124999999999
 31
0.0
  0
LINE
  5
187
330
1E
100
AcDbEntity
  8
0
100
AcDbLine
 10
21.77777999999999
 20
518.8954999999999
 30
0.0
 11
22.3055657211662
 21
518.9884734293269
 31
0.0
  0
LINE
  5
188
330
1E
100
AcDbEntity
  8
0
100
AcDbLine
 10
21.65567999999999
 20
518.8735
 30
0.0
 11
21.97358048088879
 21
518.929991729204
 31
0.0
  0
LINE
  5
189
330
1E
100
AcDbEntity
  8
0
100
AcDbLine
 10
22.82658
 20
516.0334999999999
 30
0.0
 11
23.71218
 21
511.0115
 31
0.0
  0
LINE
  5
18A
330
1E
100
AcDbEntity
  8
0
100
AcDbLine
 10
23.71218
 20
511.0115
 30
0.0
 11
24.26788
 21
507.8594999999999
 31
0.0
  0
LINE
  5
18B
330
1E
100
AcDbEntity
  8
0
100
AcDbLine
 10
24.26788
 20
507.8594999999999
 30
0.0
 11
24.47627999999999
 21
506.6785
 31
0.0
  0
LINE
  5
18C
330
1E
100
AcDbEntity
  8
0
100
AcDbLine
 10
23.70568
 20
515.4785
 30
0.0
 11
24.62597999999999
 21
510.2585
 31
0.0
  0
LINE
  5
18D
330
1E
100
AcDbEntity
  8
0
100
AcDbLine
 10
21.09597999999999
 20
534.9244999999999
 30
0.0
 11
23.27547999999999
 21
531.4095
 31
0.0
  0
LINE
  5
18E
330
1E
100
AcDbEntity
  8
0
100
AcDbLine
 10
23.27547999999999
 20
531.4095
 30
0.0
 11
26.38557999999999
 21
528.5135
 31
0.0
  0
LINE
  5
18F
330
1E
100
AcDbEntity
  8
0
100
AcDbLine
 10
21.64578
 20
522.7305
 30
0.0
 11
22.82658
 21
516.0334999999999
 31
0.0
  0
LINE
  5
190
330
1E
100
AcDbEntity
  8
0
100
AcDbLine
 10
22.49017999999999
 20
522.3714999999999
 30
0.0
 11
23.70568
 21
515.4785
 31
0.0
  0
LINE
  5
191
330
1E
100
AcDbEntity
  8
0
100
AcDbLine
 10
21.08357999999999
 20
530.3484999999999
 30
0.0
 11
22.49017999999999
 21
522.3714999999999
 31
0.0
  0
LINE
  5
192
330
1E
100
AcDbEntity
  8
0
100
AcDbLine
 10
16.01957999999999
 20
554.6384999999999
 30
0.0
 11
17.37397999999999
 21
546.9565
 31
0.0
  0
LINE
  5
193
330
1E
100
AcDbEntity
  8
0
100
AcDbLine
 10
17.37397999999999
 20
546.9565
 30
0.0
 11
18.83268
 21
538.6845
 31
0.0
  0
LINE
  5
194
330
1E
100
AcDbEntity
  8
0
100
AcDbLine
 10
13.95318
 20
566.3574999999999
 30
0.0
 11
14.83877999999999
 21
561.3355
 31
0.0
  0
LINE
  5
195
330
1E
100
AcDbEntity
  8
0
100
AcDbLine
 10
14.55438
 20
567.3775
 30
0.0
 11
15.47477999999999
 21
562.1574999999999
 31
0.0
  0
LINE
  5
196
330
1E
100
AcDbEntity
  8
0
100
AcDbLine
 10
13.98138
 20
570.6275
 30
0.0
 11
14.55438
 21
567.3775
 31
0.0
  0
LINE
  5
197
330
1E
100
AcDbEntity
  8
0
100
AcDbLine
 10
15.20127999999999
 20
572.5684999999999
 30
0.0
 11
52.3209188116001
 21
579.113489211172
 31
0.0
  0
LINE
  5
198
330
1E
100
AcDbEntity
  8
0
100
AcDbLine
 10
14.83877999999999
 20
561.3355
 30
0.0
 11
16.01957999999999
 21
554.6384999999999
 31
0.0
  0
LINE
  5
199
330
1E
100
AcDbEntity
  8
0
100
AcDbLine
 10
15.47477999999999
 20
562.1574999999999
 30
0.0
 11
16.69027999999999
 21
555.2645
 31
0.0
  0
LINE
  5
19A
330
1E
100
AcDbEntity
  8
0
100
AcDbLine
 10
16.69027999999999
 20
555.2645
 30
0.0
 11
18.09687999999999
 21
547.2875
 31
0.0
  0
LINE
  5
19B
330
1E
100
AcDbEntity
  8
0
100
AcDbLine
 10
22.45138
 20
550.8255
 30
0.0
 11
25.34737999999999
 21
553.9355
 31
0.0
  0
LINE
  5
19C
330
1E
100
AcDbEntity
  8
0
100
AcDbLine
 10
20.51927999999999
 20
547.0404999999999
 30
0.0
 11
22.45138
 21
550.8255
 31
0.0
  0
LINE
  5
19D
330
1E
100
AcDbEntity
  8
0
100
AcDbLine
 10
19.67347999999999
 20
542.9915
 30
0.0
 11
19.81747999999999
 21
538.8585
 31
0.0
  0
LINE
  5
19E
330
1E
100
AcDbEntity
  8
0
100
AcDbLine
 10
19.67347999999999
 20
542.9915
 30
0.0
 11
20.51927999999999
 21
547.0404999999999
 31
0.0
  0
LINE
  5
19F
330
1E
100
AcDbEntity
  8
0
100
AcDbLine
 10
19.81747999999999
 20
538.8585
 30
0.0
 11
21.09597999999999
 21
534.9244999999999
 31
0.0
  0
LINE
  5
1A0
330
1E
100
AcDbEntity
  8
0
100
AcDbLine
 10
18.09687999999999
 20
547.2875
 30
0.0
 11
19.59018
 21
538.8185
 31
0.0
  0
LINE
  5
1A1
330
1E
100
AcDbEntity
  8
0
100
AcDbLine
 10
19.59018
 20
538.8185
 30
0.0
 11
21.08357999999999
 21
530.3484999999999
 31
0.0
  0
LINE
  5
1A2
330
1E
100
AcDbEntity
  8
0
100
AcDbLine
 10
24.62597999999999
 20
510.2585
 30
0.0
 11
25.19908
 21
507.0085
 31
0.0
  0
LINE
  5
1A6
330
1E
100
AcDbEntity
  8
0
100
AcDbLine
 10
34.21898
 20
525.7355
 30
0.0
 11
38.35277999999999
 21
525.8795
 31
0.0
  0
LINE
  5
1A7
330
1E
100
AcDbEntity
  8
0
100
AcDbLine
 10
30.17058
 20
526.5814999999999
 30
0.0
 11
34.21898
 21
525.7355
 31
0.0
  0
LINE
  5
1A8
330
1E
100
AcDbEntity
  8
0
100
AcDbLine
 10
38.35277999999999
 20
525.8795
 30
0.0
 11
42.28647999999999
 21
527.1584999999999
 31
0.0
  0
LINE
  5
1A9
330
1E
100
AcDbEntity
  8
0
100
AcDbLine
 10
26.38557999999999
 20
528.5135
 30
0.0
 11
30.17058
 21
526.5814999999999
 31
0.0
  0
LINE
  5
1AA
330
1E
100
AcDbEntity
  8
0
100
AcDbLine
 10
42.28647999999999
 20
527.1584999999999
 30
0.0
 11
45.80148
 21
529.3375
 31
0.0
  0
LINE
  5
1AB
330
1E
100
AcDbEntity
  8
0
100
AcDbLine
 10
45.80148
 20
529.3375
 30
0.0
 11
48.69737999999999
 21
532.4474999999999
 31
0.0
  0
LINE
  5
1AC
330
1E
100
AcDbEntity
  8
0
100
AcDbLine
 10
48.69737999999999
 20
532.4474999999999
 30
0.0
 11
50.62948
 21
536.2324999999999
 31
0.0
  0
LINE
  5
1AD
330
1E
100
AcDbEntity
  8
0
100
AcDbLine
 10
50.62948
 20
536.2324999999999
 30
0.0
 11
51.47538
 21
540.2815
 31
0.0
  0
LINE
  5
1AE
330
1E
100
AcDbEntity
  8
0
100
AcDbLine
 10
44.76318
 20
554.7595
 30
0.0
 11
47.87338
 21
551.8635
 31
0.0
  0
LINE
  5
1AF
330
1E
100
AcDbEntity
  8
0
100
AcDbLine
 10
47.87338
 20
551.8635
 30
0.0
 11
50.05278
 21
548.3484999999999
 31
0.0
  0
LINE
  5
1B0
330
1E
100
AcDbEntity
  8
0
100
AcDbLine
 10
50.05278
 20
548.3484999999999
 30
0.0
 11
51.33128
 21
544.4144999999999
 31
0.0
  0
LINE
  5
1B1
330
1E
100
AcDbEntity
  8
0
100
AcDbLine
 10
36.92978
 20
557.5375
 30
0.0
 11
40.97818
 21
556.6915
 31
0.0
  0
LINE
  5
1B2
330
1E
100
AcDbEntity
  8
0
100
AcDbLine
 10
40.97818
 20
556.6915
 30
0.0
 11
44.76318
 21
554.7595
 31
0.0
  0
LINE
  5
1B3
330
1E
100
AcDbEntity
  8
0
100
AcDbLine
 10
32.79607999999999
 20
557.3935
 30
0.0
 11
36.92978
 21
557.5375
 31
0.0
  0
LINE
  5
1B4
330
1E
100
AcDbEntity
  8
0
100
AcDbLine
 10
28.86228
 20
556.1145
 30
0.0
 11
32.79607999999999
 21
557.3935
 31
0.0
  0
LINE
  5
1B5
330
1E
100
AcDbEntity
  8
0
100
AcDbLine
 10
25.34737999999999
 20
553.9355
 30
0.0
 11
28.86228
 21
556.1145
 31
0.0
  0
LINE
  5
1B6
330
1E
100
AcDbEntity
  8
0
100
AcDbLine
 10
51.33128
 20
544.4144999999999
 30
0.0
 11
51.47538
 21
540.2815
 31
0.0
  0
LINE
  5
1B7
330
1E
100
AcDbEntity
  8
0
100
AcDbLine
 10
25.19908
 20
507.0085
 30
0.0
 11
25.40738
 21
505.8265
 31
0.0
  0
LINE
  5
1B8
330
1E
100
AcDbEntity
  8
0
100
AcDbLine
 10
24.47627999999999
 20
506.6785
 30
0.0
 11
25.40738
 21
505.8265
 31
0.0
  0
LINE
  5
1B9
330
1E
100
AcDbEntity
  8
0
100
AcDbLine
 10
24.4608355037895
 20
506.766023752517
 30
0.0
 11
24.47627999999999
 21
506.6785
 31
0.0
  0
LINE
  5
1BA
330
1E
100
AcDbEntity
  8
0
100
AcDbLine
 10
24.4608355037895
 20
506.766023752517
 30
0.0
 11
37.82618
 21
430.9674999999999
 31
0.0
  0
LINE
  5
1BB
330
1E
100
AcDbEntity
  8
0
100
AcDbLine
 10
25.40738
 20
505.8265
 30
0.0
 11
26.70248183452339
 21
505.6446036749259
 31
0.0
  0
LINE
  5
1BC
330
1E
100
AcDbEntity
  8
0
100
AcDbLine
 10
13.77297999999999
 20
571.8094999999999
 30
0.0
 11
15.20127999999999
 21
572.5684999999999
 31
0.0
  0
LINE
  5
1BD
330
1E
100
AcDbEntity
  8
0
100
AcDbLine
 10
13.77297999999999
 20
571.8094999999999
 30
0.0
 11
13.98138
 21
570.6275
 31
0.0
  0
LINE
  5
1BE
330
1E
100
AcDbEntity
  8
0
100
AcDbLine
 10
52.19587999999999
 20
579.8225
 30
0.0
 11
52.3209188116001
 21
579.113489211172
 31
0.0
  0
LINE
  5
1BF
330
1E
100
AcDbEntity
  8
0
100
AcDbLine
 10
52.19587999999999
 20
579.8225
 30
0.0
 11
53.30728
 21
573.5204999999999
 31
0.0
  0
LINE
  5
1C0
330
1E
100
AcDbEntity
  8
0
100
AcDbLine
 10
51.52908
 20
583.6045
 30
0.0
 11
52.19587999999999
 21
579.8225
 31
0.0
  0
LINE
  5
1C1
330
1E
100
AcDbEntity
  8
0
100
AcDbLine
 10
51.27908
 20
585.0225
 30
0.0
 11
57.18788
 21
586.0644999999999
 31
0.0
  0
LINE
  5
1C2
330
1E
100
AcDbEntity
  8
0
100
AcDbLine
 10
51.27908
 20
585.0225
 30
0.0
 11
51.52908
 21
583.6045
 31
0.0
  0
LINE
  5
1C3
330
1E
100
AcDbEntity
  8
0
100
AcDbLine
 10
15.20127999999999
 20
572.5684999999999
 30
0.0
 11
52.3209188116001
 21
579.113489211172
 31
0.0
  0
LINE
  5
1C4
330
1E
100
AcDbEntity
  8
0
100
AcDbLine
 10
56.44678
 20
555.7145
 30
0.0
 11
58.22498
 21
545.6304999999999
 31
0.0
  0
LINE
  5
1C5
330
1E
100
AcDbEntity
  8
0
100
AcDbLine
 10
54.77978
 20
565.1684999999999
 30
0.0
 11
56.44678
 21
555.7145
 31
0.0
  0
LINE
  5
1C6
330
1E
100
AcDbEntity
  8
0
100
AcDbLine
 10
58.45648
 20
312.5325
 30
0.0
 11
61.4189103881862
 21
313.0549110838799
 31
0.0
  0
LINE
  5
1C7
330
1E
100
AcDbEntity
  8
0
100
AcDbLine
 10
58.45648
 20
312.5325
 30
0.0
 11
61.92948000000001
 21
292.8364999999999
 31
0.0
  0
LINE
  5
1C8
330
1E
100
AcDbEntity
  8
0
100
AcDbLine
 10
58.45648
 20
312.5325
 30
0.0
 11
59.20098
 21
312.6635
 31
0.0
  0
LINE
  5
1C9
330
1E
100
AcDbEntity
  8
0
100
AcDbLine
 10
59.20098
 20
312.6635
 30
0.0
 11
61.40206052931439
 21
313.051682436289
 31
0.0
  0
LINE
  5
1CA
330
1E
100
AcDbEntity
  8
0
100
AcDbLine
 10
59.20098
 20
312.6635
 30
0.0
 11
62.0403339772925
 21
313.164248305077
 31
0.0
  0
LINE
  5
1CB
330
1E
100
AcDbEntity
  8
0
100
AcDbLine
 10
59.20098
 20
312.6635
 30
0.0
 11
61.18638
 21
313.0135
 31
0.0
  0
LINE
  5
1CD
330
1E
100
AcDbEntity
  8
0
100
AcDbLine
 10
61.18638
 20
313.0135
 30
0.0
 11
61.4020808167566
 21
313.051569834986
 31
0.0
  0
LINE
  5
1CE
330
1E
100
AcDbEntity
  8
0
100
AcDbLine
 10
61.18638
 20
313.0135
 30
0.0
 11
64.49528
 21
313.5975
 31
0.0
  0
LINE
  5
1D0
330
1E
100
AcDbEntity
  8
0
100
AcDbLine
 10
60.77528
 20
292.6324999999999
 30
0.0
 11
62.19022654374021
 21
292.8823801843249
 31
0.0
  0
LINE
  5
1D1
330
1E
100
AcDbEntity
  8
0
100
AcDbLine
 10
60.77528
 20
292.6324999999999
 30
0.0
 11
62.94968
 21
293.0165
 31
0.0
  0
LINE
  5
1D3
330
1E
100
AcDbEntity
  8
0
100
AcDbLine
 10
59.95978
 20
292.4895
 30
0.0
 11
60.77528
 21
292.6324999999999
 31
0.0
  0
LINE
  5
1D4
330
1E
100
AcDbEntity
  8
0
100
AcDbLine
 10
59.95978
 20
292.4895
 30
0.0
 11
61.9294254615093
 21
292.83680929747
 31
0.0
  0
LINE
  5
1D5
330
1E
100
AcDbEntity
  8
0
100
AcDbLine
 10
59.95978
 20
292.4895
 30
0.0
 11
65.16928
 21
262.9445
 31
0.0
  0
LINE
  5
1D7
330
1E
100
AcDbEntity
  8
0
100
AcDbLine
 10
61.92948000000001
 20
292.8364999999999
 30
0.0
 11
62.19022654375789
 21
292.8823801843279
 31
0.0
  0
LINE
  5
1D9
330
1E
100
AcDbEntity
  8
0
100
AcDbLine
 10
60.00318
 20
535.5454999999999
 30
0.0
 11
61.67018
 21
526.0914999999999
 31
0.0
  0
LINE
  5
1DA
330
1E
100
AcDbEntity
  8
0
100
AcDbLine
 10
61.67018
 20
526.0914999999999
 30
0.0
 11
63.14268000000001
 21
517.7405
 31
0.0
  0
LINE
  5
1DB
330
1E
100
AcDbEntity
  8
0
100
AcDbLine
 10
64.49528
 20
313.5975
 30
0.0
 11
66.5782332817366
 21
313.96480719246
 31
0.0
  0
LINE
  5
1DC
330
1E
100
AcDbEntity
  8
0
100
AcDbLine
 10
64.49528
 20
313.5975
 30
0.0
 11
68.87968
 21
314.3705
 31
0.0
  0
LINE
  5
1DE
330
1E
100
AcDbEntity
  8
0
100
AcDbLine
 10
62.94968
 20
293.0165
 30
0.0
 11
64.6591990002799
 21
293.3179593770299
 31
0.0
  0
LINE
  5
1DF
330
1E
100
AcDbEntity
  8
0
100
AcDbLine
 10
62.94968
 20
293.0165
 30
0.0
 11
66.57378
 21
293.6555
 31
0.0
  0
LINE
  5
1E1
330
1E
100
AcDbEntity
  8
0
100
AcDbLine
 10
64.25408
 20
511.4374999999999
 30
0.0
 11
64.92088000000001
 21
507.6565
 31
0.0
  0
LINE
  5
1E2
330
1E
100
AcDbEntity
  8
0
100
AcDbLine
 10
65.16928
 20
262.9445
 30
0.0
 11
68.30414216070391
 21
263.49727297157
 31
0.0
  0
LINE
  5
1E3
330
1E
100
AcDbEntity
  8
0
100
AcDbLine
 10
65.16928
 20
262.9445
 30
0.0
 11
65.98468000000001
 21
263.0885
 31
0.0
  0
LINE
  5
1E4
330
1E
100
AcDbEntity
  8
0
100
AcDbLine
 10
66.57378
 20
293.6555
 30
0.0
 11
71.37568
 21
294.5025
 31
0.0
  0
LINE
  5
1E6
330
1E
100
AcDbEntity
  8
0
100
AcDbLine
 10
65.98468000000001
 20
263.0885
 30
0.0
 11
68.15918
 21
263.4725
 31
0.0
  0
LINE
  5
1E7
330
1E
100
AcDbEntity
  8
0
100
AcDbLine
 10
65.98468000000001
 20
263.0885
 30
0.0
 11
68.2129202338325
 21
263.4813851075449
 31
0.0
  0
LINE
  5
1E8
330
1E
100
AcDbEntity
  8
0
100
AcDbLine
 10
65.98468000000001
 20
263.0885
 30
0.0
 11
68.92166274987129
 21
263.606351157168
 31
0.0
  0
LINE
  5
1E9
330
1E
100
AcDbEntity
  8
0
100
AcDbLine
 10
68.15918
 20
263.4725
 30
0.0
 11
68.21281388793678
 21
263.4819551595609
 31
0.0
  0
LINE
  5
1EA
330
1E
100
AcDbEntity
  8
0
100
AcDbLine
 10
68.15918
 20
263.4725
 30
0.0
 11
71.78328
 21
264.1114999999999
 31
0.0
  0
LINE
  5
1EB
330
1E
100
AcDbEntity
  8
0
100
AcDbLine
 10
68.15918
 20
263.4725
 30
0.0
 11
70.8118514204607
 21
263.940141495131
 31
0.0
  0
LINE
  5
1EC
330
1E
100
AcDbEntity
  8
0
100
AcDbLine
 10
67.70570398804659
 20
293.855158388945
 30
0.0
 11
68.2895627895096
 21
293.958144374667
 31
0.0
  0
LINE
  5
1ED
330
1E
100
AcDbEntity
  8
0
100
AcDbLine
 10
67.70570398804659
 20
293.855158388945
 30
0.0
 11
67.96828000000001
 21
293.9014999999999
 31
0.0
  0
LINE
  5
1EE
330
1E
100
AcDbEntity
  8
0
100
AcDbLine
 10
67.96828000000001
 20
293.9014999999999
 30
0.0
 11
68.2895627895096
 21
293.958144374667
 31
0.0
  0
LINE
  5
1EF
330
1E
100
AcDbEntity
  8
0
100
AcDbLine
 10
67.8874078153314
 20
293.887227000349
 30
0.0
 11
68.2744529171902
 21
293.9554791667589
 31
0.0
  0
LINE
  5
1F0
330
1E
100
AcDbEntity
  8
0
100
AcDbLine
 10
68.87968
 20
314.3705
 30
0.0
 11
70.3361399021089
 21
314.627351952945
 31
0.0
  0
LINE
  5
1F1
330
1E
100
AcDbEntity
  8
0
100
AcDbLine
 10
68.87968
 20
314.3705
 30
0.0
 11
73.84308
 21
315.2454999999999
 31
0.0
  0
LINE
  5
1F4
330
1E
100
AcDbEntity
  8
0
100
AcDbLine
 10
68.2128136083209
 20
263.481956658403
 30
0.0
 11
93.22388000000001
 21
129.4137
 31
0.0
  0
LINE
  5
1F5
330
1E
100
AcDbEntity
  8
0
100
AcDbLine
 10
68.2128136083209
 20
263.481956658403
 30
0.0
 11
93.22388000000001
 21
129.4137
 31
0.0
  0
LINE
  5
1F6
330
1E
100
AcDbEntity
  8
0
100
AcDbLine
 10
65.17088000000001
 20
506.2384999999999
 30
0.0
 11
71.07978
 21
507.2795
 31
0.0
  0
LINE
  5
1F7
330
1E
100
AcDbEntity
  8
0
100
AcDbLine
 10
64.92088000000001
 20
507.6565
 30
0.0
 11
65.17088000000001
 21
506.2384999999999
 31
0.0
  0
LINE
  5
1F8
330
1E
100
AcDbEntity
  8
0
100
AcDbLine
 10
70.1628799999999
 20
512.4795
 30
0.0
 11
70.82968000000001
 21
508.6985
 31
0.0
  0
LINE
  5
1F9
330
1E
100
AcDbEntity
  8
0
100
AcDbLine
 10
71.78328
 20
264.1114999999999
 30
0.0
 11
76.58518
 21
264.9575
 31
0.0
  0
LINE
  5
1FA
330
1E
100
AcDbEntity
  8
0
100
AcDbLine
 10
71.37568
 20
294.5025
 30
0.0
 11
72.35263329019019
 21
294.6747648996299
 31
0.0
  0
LINE
  5
1FB
330
1E
100
AcDbEntity
  8
0
100
AcDbLine
 10
71.37568
 20
294.5025
 30
0.0
 11
76.81188
 21
295.4605
 31
0.0
  0
LINE
  5
1FD
330
1E
100
AcDbEntity
  8
0
100
AcDbLine
 10
82.02128
 20
265.9164999999999
 30
0.0
 11
87.81988
 21
266.9384999999999
 31
0.0
  0
LINE
  5
1FE
330
1E
100
AcDbEntity
  8
0
100
AcDbLine
 10
76.58518
 20
264.9575
 30
0.0
 11
82.02128
 21
265.9164999999999
 31
0.0
  0
LINE
  5
1FF
330
1E
100
AcDbEntity
  8
0
100
AcDbLine
 10
76.58518
 20
264.9575
 30
0.0
 11
78.136025594179
 21
265.230958581188
 31
0.0
  0
LINE
  5
200
330
1E
100
AcDbEntity
  8
0
100
AcDbLine
 10
87.81988
 20
266.9384999999999
 30
0.0
 11
93.61838
 21
267.9615
 31
0.0
  0
LINE
  5
201
330
1E
100
AcDbEntity
  8
0
100
AcDbLine
 10
97.66699902250049
 20
268.674906934501
 30
0.0
 11
99.05408000000001
 21
268.9195
 31
0.0
  0
LINE
  5
202
330
1E
100
AcDbEntity
  8
0
100
AcDbLine
 10
93.61838
 20
267.9615
 30
0.0
 11
99.05408000000001
 21
268.9195
 31
0.0
  0
LINE
  5
203
330
1E
100
AcDbEntity
  8
0
100
AcDbLine
 10
99.05408000000001
 20
268.9195
 30
0.0
 11
103.85608
 21
269.7665
 31
0.0
  0
LINE
  5
204
330
1E
100
AcDbEntity
  8
0
100
AcDbLine
 10
104.9914758642429
 20
269.966644314978
 30
0.0
 11
107.48008
 21
270.4055
 31
0.0
  0
LINE
  5
205
330
1E
100
AcDbEntity
  8
0
100
AcDbLine
 10
106.8808027315119
 20
270.299337203979
 30
0.0
 11
109.6550799999999
 21
270.7885
 31
0.0
  0
LINE
  5
206
330
1E
100
AcDbEntity
  8
0
100
AcDbLine
 10
103.85608
 20
269.7665
 30
0.0
 11
107.48008
 21
270.4055
 31
0.0
  0
LINE
  5
207
330
1E
100
AcDbEntity
  8
0
100
AcDbLine
 10
107.48008
 20
270.4055
 30
0.0
 11
109.6550799999999
 21
270.7885
 31
0.0
  0
LINE
  5
208
330
1E
100
AcDbEntity
  8
0
100
AcDbLine
 10
75.03630909419349
 20
295.147598170089
 30
0.0
 11
76.81188
 21
295.4605
 31
0.0
  0
LINE
  5
209
330
1E
100
AcDbEntity
  8
0
100
AcDbLine
 10
75.03630909419349
 20
295.147598170089
 30
0.0
 11
77.31608
 21
295.5495
 31
0.0
  0
LINE
  5
20A
330
1E
100
AcDbEntity
  8
0
100
AcDbLine
 10
77.31608
 20
295.5495
 30
0.0
 11
82.61038
 21
296.4834999999999
 31
0.0
  0
LINE
  5
20B
330
1E
100
AcDbEntity
  8
0
100
AcDbLine
 10
82.61038
 20
296.4834999999999
 30
0.0
 11
88.40898000000001
 21
297.5054999999999
 31
0.0
  0
LINE
  5
20D
330
1E
100
AcDbEntity
  8
0
100
AcDbLine
 10
88.40898000000001
 20
297.5054999999999
 30
0.0
 11
93.84508000000002
 21
298.4645
 31
0.0
  0
LINE
  5
20F
330
1E
100
AcDbEntity
  8
0
100
AcDbLine
 10
87.90465992204609
 20
297.416613868922
 30
0.0
 11
88.40898000000001
 21
297.5054999999999
 31
0.0
  0
LINE
  5
210
330
1E
100
AcDbEntity
  8
0
100
AcDbLine
 10
93.84508000000002
 20
298.4645
 30
0.0
 11
98.64708
 21
299.3104999999999
 31
0.0
  0
LINE
  5
212
330
1E
100
AcDbEntity
  8
0
100
AcDbLine
 10
92.86787072804008
 20
298.292189963439
 30
0.0
 11
93.84508000000002
 21
298.4645
 31
0.0
  0
LINE
  5
213
330
1E
100
AcDbEntity
  8
0
100
AcDbLine
 10
98.0015143964526
 20
299.1967664513529
 30
0.0
 11
98.64708
 21
299.3104999999999
 31
0.0
  0
LINE
  5
214
330
1E
100
AcDbEntity
  8
0
100
AcDbLine
 10
98.0015143964526
 20
299.1967664513529
 30
0.0
 11
100.56108
 21
299.6485
 31
0.0
  0
LINE
  5
215
330
1E
100
AcDbEntity
  8
0
100
AcDbLine
 10
98.98193361759801
 20
299.369799036772
 30
0.0
 11
102.794239735144
 21
300.041907239326
 31
0.0
  0
LINE
  5
216
330
1E
100
AcDbEntity
  8
0
100
AcDbLine
 10
99.7420205941445
 20
299.503945544569
 30
0.0
 11
102.54708
 21
299.9984999999999
 31
0.0
  0
LINE
  5
217
330
1E
100
AcDbEntity
  8
0
100
AcDbLine
 10
100.56108
 20
299.6485
 30
0.0
 11
102.54708
 21
299.9984999999999
 31
0.0
  0
LINE
  5
218
330
1E
100
AcDbEntity
  8
0
100
AcDbLine
 10
102.54708
 20
299.9984999999999
 30
0.0
 11
102.9941398669359
 21
300.0772161862479
 31
0.0
  0
LINE
  5
219
330
1E
100
AcDbEntity
  8
0
100
AcDbLine
 10
102.27108
 20
299.9494999999999
 30
0.0
 11
104.44508
 21
300.3335
 31
0.0
  0
LINE
  5
21B
330
1E
100
AcDbEntity
  8
0
100
AcDbLine
 10
102.5469898294379
 20
299.998819552975
 30
0.0
 11
104.44508
 21
300.3335
 31
0.0
  0
LINE
  5
21C
330
1E
100
AcDbEntity
  8
0
100
AcDbLine
 10
98.64708
 20
299.3104999999999
 30
0.0
 11
102.27108
 21
299.9494999999999
 31
0.0
  0
LINE
  5
21E
330
1E
100
AcDbEntity
  8
0
100
AcDbLine
 10
98.24711216708358
 20
299.2401116003559
 30
0.0
 11
102.27108
 21
299.9494999999999
 31
0.0
  0
LINE
  5
21F
330
1E
100
AcDbEntity
  8
0
100
AcDbLine
 10
98.2376071315295
 20
299.2383604650719
 30
0.0
 11
99.80825296999029
 21
299.515243247192
 31
0.0
  0
LINE
  5
220
330
1E
100
AcDbEntity
  8
0
100
AcDbLine
 10
73.84308
 20
315.2454999999999
 30
0.0
 11
74.59070823173409
 21
315.3773911998409
 31
0.0
  0
LINE
  5
221
330
1E
100
AcDbEntity
  8
0
100
AcDbLine
 10
73.84308
 20
315.2454999999999
 30
0.0
 11
79.13748000000001
 21
316.1795
 31
0.0
  0
LINE
  5
223
330
1E
100
AcDbEntity
  8
0
100
AcDbLine
 10
79.13748000000001
 20
316.1795
 30
0.0
 11
84.43178000000001
 21
317.1124999999999
 31
0.0
  0
LINE
  5
225
330
1E
100
AcDbEntity
  8
0
100
AcDbLine
 10
84.43178000000001
 20
317.1124999999999
 30
0.0
 11
89.39518000000001
 21
317.9875
 31
0.0
  0
LINE
  5
227
330
1E
100
AcDbEntity
  8
0
100
AcDbLine
 10
89.39518000000001
 20
317.9875
 30
0.0
 11
93.77958000000001
 21
318.7615
 31
0.0
  0
LINE
  5
229
330
1E
100
AcDbEntity
  8
0
100
AcDbLine
 10
87.92096492451609
 20
317.72765804162
 30
0.0
 11
89.39518000000001
 21
317.9875
 31
0.0
  0
LINE
  5
22A
330
1E
100
AcDbEntity
  8
0
100
AcDbLine
 10
93.77958000000001
 20
318.7615
 30
0.0
 11
97.08808000000001
 21
319.3445
 31
0.0
  0
LINE
  5
22C
330
1E
100
AcDbEntity
  8
0
100
AcDbLine
 10
91.67898427099229
 20
318.391079215256
 30
0.0
 11
93.77958000000001
 21
318.7615
 31
0.0
  0
LINE
  5
22D
330
1E
100
AcDbEntity
  8
0
100
AcDbLine
 10
97.08808000000001
 20
319.3445
 30
0.0
 11
99.07408000000001
 21
319.6944999999999
 31
0.0
  0
LINE
  5
22F
330
1E
100
AcDbEntity
  8
0
100
AcDbLine
 10
99.81808
 20
319.8254999999999
 30
0.0
 11
103.291051682842
 21
300.1296605916339
 31
0.0
  0
LINE
  5
230
330
1E
100
AcDbEntity
  8
0
100
AcDbLine
 10
99.07408000000001
 20
319.6944999999999
 30
0.0
 11
99.81808
 21
319.8254999999999
 31
0.0
  0
LINE
  5
232
330
1E
100
AcDbEntity
  8
0
100
AcDbLine
 10
103.2909908792529
 20
300.13000541959
 30
0.0
 11
104.44508
 21
300.3335
 31
0.0
  0
LINE
  5
233
330
1E
100
AcDbEntity
  8
0
100
AcDbLine
 10
105.26108
 20
300.4764999999999
 30
0.0
 11
110.47008
 21
270.9325
 31
0.0
  0
LINE
  5
234
330
1E
100
AcDbEntity
  8
0
100
AcDbLine
 10
104.44508
 20
300.3335
 30
0.0
 11
105.26108
 21
300.4764999999999
 31
0.0
  0
LINE
  5
236
330
1E
100
AcDbEntity
  8
0
100
AcDbLine
 10
76.81188
 20
295.4605
 30
0.0
 11
82.61038
 21
296.4834999999999
 31
0.0
  0
LINE
  5
238
330
1E
100
AcDbEntity
  8
0
100
AcDbLine
 10
107.5895491917949
 20
270.4245645271139
 30
0.0
 11
108.4659569311689
 21
270.579104995236
 31
0.0
  0
LINE
  5
239
330
1E
100
AcDbEntity
  8
0
100
AcDbLine
 10
107.5895960625419
 20
270.4243122133429
 30
0.0
 11
109.6550799999999
 21
270.7885
 31
0.0
  0
LINE
  5
23A
330
1E
100
AcDbEntity
  8
0
100
AcDbLine
 10
109.6550799999999
 20
270.7885
 30
0.0
 11
110.47008
 21
270.9325
 31
0.0
  0
LINE
  5
23B
330
1E
100
AcDbEntity
  8
0
100
AcDbLine
 10
107.5895110363149
 20
270.424769925016
 30
0.0
 11
131.86108
 21
139.766491
 31
0.0
  0
LINE
  5
23C
330
1E
100
AcDbEntity
  8
0
100
AcDbLine
 10
107.5895110363149
 20
270.424769925016
 30
0.0
 11
131.86108
 21
139.766491
 31
0.0
  0
LINE
  5
23D
330
1E
100
AcDbEntity
  8
0
100
AcDbLine
 10
74.15078000000001
 20
512.8985
 30
0.0
 11
78.08998000000001
 21
513.5934999999999
 31
0.0
  0
LINE
  5
23E
330
1E
100
AcDbEntity
  8
0
100
AcDbLine
 10
70.82968000000001
 20
508.6985
 30
0.0
 11
71.07978
 21
507.2795
 31
0.0
  0
LINE
  5
23F
330
1E
100
AcDbEntity
  8
0
100
AcDbLine
 10
66.59268
 20
532.7274999999999
 30
0.0
 11
67.09366148697039
 21
529.8858702592569
 31
0.0
  0
LINE
  5
240
330
1E
100
AcDbEntity
  8
0
100
AcDbLine
 10
66.1716187030257
 20
535.115019916973
 30
0.0
 11
66.59268
 21
532.7274999999999
 31
0.0
  0
LINE
  5
241
330
1E
100
AcDbEntity
  8
0
100
AcDbLine
 10
67.16798000003571
 20
529.4643902217529
 30
0.0
 11
67.48178
 21
527.6855
 31
0.0
  0
LINE
  5
242
330
1E
100
AcDbEntity
  8
0
100
AcDbLine
 10
67.48178
 20
527.6855
 30
0.0
 11
67.60678
 21
526.9764999999999
 31
0.0
  0
LINE
  5
243
330
1E
100
AcDbEntity
  8
0
100
AcDbLine
 10
63.14268000000001
 20
517.7405
 30
0.0
 11
64.25408
 21
511.4374999999999
 31
0.0
  0
LINE
  5
244
330
1E
100
AcDbEntity
  8
0
100
AcDbLine
 10
65.91198
 20
536.5874999999999
 30
0.0
 11
67.57898
 21
527.1335
 31
0.0
  0
LINE
  5
245
330
1E
100
AcDbEntity
  8
0
100
AcDbLine
 10
73.34848
 20
517.4484999999999
 30
0.0
 11
73.93198000000001
 21
514.1395
 31
0.0
  0
LINE
  5
246
330
1E
100
AcDbEntity
  8
0
100
AcDbLine
 10
73.93198000000001
 20
514.1395
 30
0.0
 11
74.15078000000001
 21
512.8985
 31
0.0
  0
LINE
  5
247
330
1E
100
AcDbEntity
  8
0
100
AcDbLine
 10
77.28768000000001
 20
518.1435
 30
0.0
 11
77.87118000000001
 21
514.8345
 31
0.0
  0
LINE
  5
248
330
1E
100
AcDbEntity
  8
0
100
AcDbLine
 10
77.87118000000001
 20
514.8345
 30
0.0
 11
78.08998000000001
 21
513.5934999999999
 31
0.0
  0
LINE
  5
249
330
1E
100
AcDbEntity
  8
0
100
AcDbLine
 10
75.78048000000001
 20
526.6915
 30
0.0
 11
76.19718
 21
524.3274999999999
 31
0.0
  0
LINE
  5
24A
330
1E
100
AcDbEntity
  8
0
100
AcDbLine
 10
76.19718
 20
524.3274999999999
 30
0.0
 11
76.35348
 21
523.4415
 31
0.0
  0
LINE
  5
24B
330
1E
100
AcDbEntity
  8
0
100
AcDbLine
 10
72.37608
 20
522.9635
 30
0.0
 11
73.34848
 21
517.4484999999999
 31
0.0
  0
LINE
  5
24C
330
1E
100
AcDbEntity
  8
0
100
AcDbLine
 10
87.03008
 20
526.2374999999999
 30
0.0
 11
87.18638
 21
525.3515
 31
0.0
  0
LINE
  5
24D
330
1E
100
AcDbEntity
  8
0
100
AcDbLine
 10
76.35348
 20
523.4415
 30
0.0
 11
87.18638
 21
525.3515
 31
0.0
  0
LINE
  5
24E
330
1E
100
AcDbEntity
  8
0
100
AcDbLine
 10
76.31528
 20
523.6575
 30
0.0
 11
77.28768000000001
 21
518.1435
 31
0.0
  0
LINE
  5
24F
330
1E
100
AcDbEntity
  8
0
100
AcDbLine
 10
70.12415812502119
 20
535.73424999988
 30
0.0
 11
70.53188
 21
533.4215
 31
0.0
  0
LINE
  5
250
330
1E
100
AcDbEntity
  8
0
100
AcDbLine
 10
70.12415812502119
 20
535.73424999988
 30
0.0
 11
71.08758
 21
530.2704999999999
 31
0.0
  0
LINE
  5
251
330
1E
100
AcDbEntity
  8
0
100
AcDbLine
 10
70.53188
 20
533.4215
 30
0.0
 11
71.08758
 21
530.2704999999999
 31
0.0
  0
LINE
  5
252
330
1E
100
AcDbEntity
  8
0
100
AcDbLine
 10
75.08588
 20
530.6305
 30
0.0
 11
75.78048000000001
 21
526.6915
 31
0.0
  0
LINE
  5
253
330
1E
100
AcDbEntity
  8
0
100
AcDbLine
 10
86.61338
 20
528.6014999999999
 30
0.0
 11
87.03008
 21
526.2374999999999
 31
0.0
  0
LINE
  5
254
330
1E
100
AcDbEntity
  8
0
100
AcDbLine
 10
85.91877999999999
 20
532.5404999999999
 30
0.0
 11
86.61338
 21
528.6014999999999
 31
0.0
  0
LINE
  5
255
330
1E
100
AcDbEntity
  8
0
100
AcDbLine
 10
74.88437230776459
 20
531.773121301365
 30
0.0
 11
75.02678
 21
530.9655
 31
0.0
  0
LINE
  5
256
330
1E
100
AcDbEntity
  8
0
100
AcDbLine
 10
74.88437230776459
 20
531.773121301365
 30
0.0
 11
75.08588
 21
530.6305
 31
0.0
  0
LINE
  5
257
330
1E
100
AcDbEntity
  8
0
100
AcDbLine
 10
75.02678
 20
530.9655
 30
0.0
 11
76.31528
 21
523.6575
 31
0.0
  0
LINE
  5
258
330
1E
100
AcDbEntity
  8
0
100
AcDbLine
 10
71.08758
 20
530.2704999999999
 30
0.0
 11
71.42098
 21
528.3795
 31
0.0
  0
LINE
  5
259
330
1E
100
AcDbEntity
  8
0
100
AcDbLine
 10
71.08758
 20
530.2704999999999
 30
0.0
 11
72.37608
 21
522.9635
 31
0.0
  0
LINE
  5
25A
330
1E
100
AcDbEntity
  8
0
100
AcDbLine
 10
71.42098
 20
528.3795
 30
0.0
 11
71.54598
 21
527.6704999999999
 31
0.0
  0
LINE
  5
25B
330
1E
100
AcDbEntity
  8
0
100
AcDbLine
 10
67.60678
 20
526.9764999999999
 30
0.0
 11
71.54598
 21
527.6704999999999
 31
0.0
  0
LINE
  5
25C
330
1E
100
AcDbEntity
  8
0
100
AcDbLine
 10
69.05158
 20
518.7825
 30
0.0
 11
70.1628799999999
 21
512.4795
 31
0.0
  0
LINE
  5
25D
330
1E
100
AcDbEntity
  8
0
100
AcDbLine
 10
67.57898
 20
527.1335
 30
0.0
 11
69.05158
 21
518.7825
 31
0.0
  0
LINE
  5
25E
330
1E
100
AcDbEntity
  8
0
100
AcDbLine
 10
63.9857000815925
 20
512.959543031962
 30
0.0
 11
64.12898
 21
512.1464999999999
 31
0.0
  0
LINE
  5
25F
330
1E
100
AcDbEntity
  8
0
100
AcDbLine
 10
62.1725370948172
 20
511.8015361853459
 30
0.0
 11
64.12898
 21
512.1464999999999
 31
0.0
  0
LINE
  5
260
330
1E
100
AcDbEntity
  8
0
100
AcDbLine
 10
62.1725370948172
 20
511.8015361853459
 30
0.0
 11
96.85521405072471
 21
319.3034660424879
 31
0.0
  0
LINE
  5
261
330
1E
100
AcDbEntity
  8
0
100
AcDbLine
 10
61.67498000000001
 20
560.6174999999999
 30
0.0
 11
62.41128
 21
556.4415
 31
0.0
  0
LINE
  5
262
330
1E
100
AcDbEntity
  8
0
100
AcDbLine
 10
61.11928
 20
563.7685
 30
0.0
 11
61.67498000000001
 21
560.6174999999999
 31
0.0
  0
LINE
  5
263
330
1E
100
AcDbEntity
  8
0
100
AcDbLine
 10
60.78588
 20
565.6595
 30
0.0
 11
61.11928
 21
563.7685
 31
0.0
  0
LINE
  5
264
330
1E
100
AcDbEntity
  8
0
100
AcDbLine
 10
60.66088
 20
566.3685
 30
0.0
 11
64.6000386956461
 21
567.0634927126
 31
0.0
  0
LINE
  5
265
330
1E
100
AcDbEntity
  8
0
100
AcDbLine
 10
60.66088
 20
566.3685
 30
0.0
 11
60.78588
 21
565.6595
 31
0.0
  0
LINE
  5
266
330
1E
100
AcDbEntity
  8
0
100
AcDbLine
 10
60.68868000000001
 20
566.2105
 30
0.0
 11
62.35568
 21
556.7565
 31
0.0
  0
LINE
  5
267
330
1E
100
AcDbEntity
  8
0
100
AcDbLine
 10
84.99838000000002
 20
537.7595
 30
0.0
 11
85.91877999999999
 21
532.5404999999999
 31
0.0
  0
LINE
  5
268
330
1E
100
AcDbEntity
  8
0
100
AcDbLine
 10
69.62898
 20
538.5425
 30
0.0
 11
71.08758
 21
530.2704999999999
 31
0.0
  0
LINE
  5
269
330
1E
100
AcDbEntity
  8
0
100
AcDbLine
 10
83.95647999999999
 20
543.6684999999999
 30
0.0
 11
84.99838000000002
 21
537.7595
 31
0.0
  0
LINE
  5
26A
330
1E
100
AcDbEntity
  8
0
100
AcDbLine
 10
73.12368000000001
 20
541.7585
 30
0.0
 11
73.29113707815121
 21
540.8086978548709
 31
0.0
  0
LINE
  5
26B
330
1E
100
AcDbEntity
  8
0
100
AcDbLine
 10
73.56818
 20
539.2374999999999
 30
0.0
 11
75.02678
 21
530.9655
 31
0.0
  0
LINE
  5
26C
330
1E
100
AcDbEntity
  8
0
100
AcDbLine
 10
65.02288
 20
541.6305
 30
0.0
 11
65.5228900195129
 21
538.7942104112091
 31
0.0
  0
LINE
  5
26D
330
1E
100
AcDbEntity
  8
0
100
AcDbLine
 10
63.24478
 20
551.7145
 30
0.0
 11
64.13378
 21
546.6725
 31
0.0
  0
LINE
  5
26E
330
1E
100
AcDbEntity
  8
0
100
AcDbLine
 10
62.41128
 20
556.4415
 30
0.0
 11
63.24478
 21
551.7145
 31
0.0
  0
LINE
  5
26F
330
1E
100
AcDbEntity
  8
0
100
AcDbLine
 10
69.85908000000001
 20
560.2735
 30
0.0
 11
70.90098000000001
 21
554.3645
 31
0.0
  0
LINE
  5
270
330
1E
100
AcDbEntity
  8
0
100
AcDbLine
 10
69.85908000000001
 20
560.2735
 30
0.0
 11
70.90098000000001
 21
554.3645
 31
0.0
  0
LINE
  5
271
330
1E
100
AcDbEntity
  8
0
100
AcDbLine
 10
66.51718000000001
 20
556.1905
 30
0.0
 11
68.07308
 21
547.3664999999999
 31
0.0
  0
LINE
  5
272
330
1E
100
AcDbEntity
  8
0
100
AcDbLine
 10
81.73378000000001
 20
556.2744999999999
 30
0.0
 11
82.84518
 21
549.9715
 31
0.0
  0
LINE
  5
273
330
1E
100
AcDbEntity
  8
0
100
AcDbLine
 10
80.69198
 20
562.1834999999999
 30
0.0
 11
81.73378000000001
 21
556.2744999999999
 31
0.0
  0
LINE
  5
274
330
1E
100
AcDbEntity
  8
0
100
AcDbLine
 10
82.84518
 20
549.9715
 30
0.0
 11
83.95647999999999
 21
543.6684999999999
 31
0.0
  0
LINE
  5
275
330
1E
100
AcDbEntity
  8
0
100
AcDbLine
 10
70.90098000000001
 20
554.3645
 30
0.0
 11
72.01228
 21
548.0615
 31
0.0
  0
LINE
  5
276
330
1E
100
AcDbEntity
  8
0
100
AcDbLine
 10
72.01228
 20
548.0615
 30
0.0
 11
73.29113707815121
 21
540.8086978548709
 31
0.0
  0
LINE
  5
277
330
1E
100
AcDbEntity
  8
0
100
AcDbLine
 10
72.01228
 20
548.0615
 30
0.0
 11
73.56818
 21
539.2374999999999
 31
0.0
  0
LINE
  5
278
330
1E
100
AcDbEntity
  8
0
100
AcDbLine
 10
72.01228
 20
548.0615
 30
0.0
 11
73.12368000000001
 21
541.7585
 31
0.0
  0
LINE
  5
279
330
1E
100
AcDbEntity
  8
0
100
AcDbLine
 10
70.45638000000001
 20
556.8855
 30
0.0
 11
72.01228
 21
548.0615
 31
0.0
  0
LINE
  5
27A
330
1E
100
AcDbEntity
  8
0
100
AcDbLine
 10
69.14018769229361
 20
564.349878698305
 30
0.0
 11
69.85908000000001
 21
560.2735
 31
0.0
  0
LINE
  5
27B
330
1E
100
AcDbEntity
  8
0
100
AcDbLine
 10
69.1401876923107
 20
564.349878698208
 30
0.0
 11
70.45638000000001
 21
556.8855
 31
0.0
  0
LINE
  5
27C
330
1E
100
AcDbEntity
  8
0
100
AcDbLine
 10
69.1401876923107
 20
564.349878698208
 30
0.0
 11
69.85908000000001
 21
560.2735
 31
0.0
  0
LINE
  5
27D
330
1E
100
AcDbEntity
  8
0
100
AcDbLine
 10
65.61418
 20
561.3115
 30
0.0
 11
65.89842681480011
 21
559.699751457571
 31
0.0
  0
LINE
  5
27E
330
1E
100
AcDbEntity
  8
0
100
AcDbLine
 10
79.77158
 20
567.4025
 30
0.0
 11
80.69198
 21
562.1834999999999
 31
0.0
  0
LINE
  5
27F
330
1E
100
AcDbEntity
  8
0
100
AcDbLine
 10
68.99778000000001
 20
565.1575
 30
0.0
 11
70.45638000000001
 21
556.8855
 31
0.0
  0
LINE
  5
280
330
1E
100
AcDbEntity
  8
0
100
AcDbLine
 10
65.05848
 20
564.4635
 30
0.0
 11
65.61418
 21
561.3115
 31
0.0
  0
LINE
  5
281
330
1E
100
AcDbEntity
  8
0
100
AcDbLine
 10
65.05848
 20
564.4635
 30
0.0
 11
65.89842681480011
 21
559.699751457571
 31
0.0
  0
LINE
  5
282
330
1E
100
AcDbEntity
  8
0
100
AcDbLine
 10
65.05848
 20
564.4635
 30
0.0
 11
66.51718000000001
 21
556.1905
 31
0.0
  0
LINE
  5
283
330
1E
100
AcDbEntity
  8
0
100
AcDbLine
 10
64.72508000000001
 20
566.3535
 30
0.0
 11
65.05848
 21
564.4635
 31
0.0
  0
LINE
  5
284
330
1E
100
AcDbEntity
  8
0
100
AcDbLine
 10
68.07308
 20
547.3664999999999
 30
0.0
 11
69.62898
 21
538.5425
 31
0.0
  0
LINE
  5
285
330
1E
100
AcDbEntity
  8
0
100
AcDbLine
 10
64.62808575953879
 20
566.90442728582
 30
0.0
 11
64.72508000000001
 21
566.3535
 31
0.0
  0
LINE
  5
286
330
1E
100
AcDbEntity
  8
0
100
AcDbLine
 10
64.62808575953879
 20
566.90442728582
 30
0.0
 11
65.05848
 21
564.4635
 31
0.0
  0
LINE
  5
287
330
1E
100
AcDbEntity
  8
0
100
AcDbLine
 10
64.13378
 20
546.6725
 30
0.0
 11
65.91198
 21
536.5874999999999
 31
0.0
  0
LINE
  5
288
330
1E
100
AcDbEntity
  8
0
100
AcDbLine
 10
64.13378
 20
546.6725
 30
0.0
 11
65.02288
 21
541.6305
 31
0.0
  0
LINE
  5
289
330
1E
100
AcDbEntity
  8
0
100
AcDbLine
 10
62.35568
 20
556.7565
 30
0.0
 11
64.13378
 21
546.6725
 31
0.0
  0
LINE
  5
28A
330
1E
100
AcDbEntity
  8
0
100
AcDbLine
 10
59.73568
 20
537.0625
 30
0.0
 11
59.878491759034
 21
536.2526650602529
 31
0.0
  0
LINE
  5
28B
330
1E
100
AcDbEntity
  8
0
100
AcDbLine
 10
58.22498
 20
545.6304999999999
 30
0.0
 11
59.73568
 21
537.0625
 31
0.0
  0
LINE
  5
28C
330
1E
100
AcDbEntity
  8
0
100
AcDbLine
 10
58.22498
 20
545.6304999999999
 30
0.0
 11
59.8784917589602
 21
536.252665060672
 31
0.0
  0
LINE
  5
28D
330
1E
100
AcDbEntity
  8
0
100
AcDbLine
 10
58.22498
 20
545.6304999999999
 30
0.0
 11
60.00318
 21
535.5454999999999
 31
0.0
  0
LINE
  5
28E
330
1E
100
AcDbEntity
  8
0
100
AcDbLine
 10
53.30728
 20
573.5204999999999
 30
0.0
 11
54.77978
 21
565.1684999999999
 31
0.0
  0
LINE
  5
28F
330
1E
100
AcDbEntity
  8
0
100
AcDbLine
 10
62.79758000000001
 20
577.2854999999999
 30
0.0
 11
63.77008
 21
571.7704999999999
 31
0.0
  0
LINE
  5
290
330
1E
100
AcDbEntity
  8
0
100
AcDbLine
 10
67.67118489937679
 20
572.681518495307
 30
0.0
 11
78.50398
 21
574.5915
 31
0.0
  0
LINE
  5
291
330
1E
100
AcDbEntity
  8
0
100
AcDbLine
 10
79.07698
 20
571.3415
 30
0.0
 11
79.77158
 21
567.4025
 31
0.0
  0
LINE
  5
292
330
1E
100
AcDbEntity
  8
0
100
AcDbLine
 10
78.50398
 20
574.5915
 30
0.0
 11
78.66028
 21
573.7055
 31
0.0
  0
LINE
  5
293
330
1E
100
AcDbEntity
  8
0
100
AcDbLine
 10
78.66028
 20
573.7055
 30
0.0
 11
79.07698
 21
571.3415
 31
0.0
  0
LINE
  5
294
330
1E
100
AcDbEntity
  8
0
100
AcDbLine
 10
67.70928000000001
 20
572.4655
 30
0.0
 11
68.99778000000001
 21
565.1575
 31
0.0
  0
LINE
  5
295
330
1E
100
AcDbEntity
  8
0
100
AcDbLine
 10
66.73688
 20
577.9795
 30
0.0
 11
67.70928000000001
 21
572.4655
 31
0.0
  0
LINE
  5
296
330
1E
100
AcDbEntity
  8
0
100
AcDbLine
 10
63.77008
 20
571.7704999999999
 30
0.0
 11
64.6000386956461
 21
567.0634927126
 31
0.0
  0
LINE
  5
297
330
1E
100
AcDbEntity
  8
0
100
AcDbLine
 10
63.77008
 20
571.7704999999999
 30
0.0
 11
65.05848
 21
564.4635
 31
0.0
  0
LINE
  5
298
330
1E
100
AcDbEntity
  8
0
100
AcDbLine
 10
62.21418
 20
580.5945
 30
0.0
 11
62.79758000000001
 21
577.2854999999999
 31
0.0
  0
LINE
  5
299
330
1E
100
AcDbEntity
  8
0
100
AcDbLine
 10
59.21608
 20
574.5625
 30
0.0
 11
60.68868000000001
 21
566.2105
 31
0.0
  0
LINE
  5
29A
330
1E
100
AcDbEntity
  8
0
100
AcDbLine
 10
66.15338
 20
581.2885
 30
0.0
 11
66.73688
 21
577.9795
 31
0.0
  0
LINE
  5
29B
330
1E
100
AcDbEntity
  8
0
100
AcDbLine
 10
65.93458000000001
 20
582.5294999999999
 30
0.0
 11
66.15338
 21
581.2885
 31
0.0
  0
LINE
  5
29C
330
1E
100
AcDbEntity
  8
0
100
AcDbLine
 10
61.99538
 20
581.8355
 30
0.0
 11
65.93458000000001
 21
582.5294999999999
 31
0.0
  0
LINE
  5
29D
330
1E
100
AcDbEntity
  8
0
100
AcDbLine
 10
61.99538
 20
581.8355
 30
0.0
 11
62.21418
 21
580.5945
 31
0.0
  0
LINE
  5
29E
330
1E
100
AcDbEntity
  8
0
100
AcDbLine
 10
58.10478
 20
580.8645
 30
0.0
 11
59.21608
 21
574.5625
 31
0.0
  0
LINE
  5
29F
330
1E
100
AcDbEntity
  8
0
100
AcDbLine
 10
57.43798
 20
584.6464999999999
 30
0.0
 11
58.10478
 21
580.8645
 31
0.0
  0
LINE
  5
2A0
330
1E
100
AcDbEntity
  8
0
100
AcDbLine
 10
57.18788
 20
586.0644999999999
 30
0.0
 11
57.43798
 21
584.6464999999999
 31
0.0
  0
LINE
  5
2A1
330
1E
100
AcDbEntity
  8
0
100
AcDbLine
 10
53.11968
 20
574.5834999999999
 30
0.0
 11
54.05738
 21
569.2655
 31
0.0
  0
LINE
  5
2A2
330
1E
100
AcDbEntity
  8
0
100
AcDbLine
 10
54.05738
 20
569.2655
 30
0.0
 11
54.60791441264979
 21
566.143319277113
 31
0.0
  0
LINE
  5
2A3
330
1E
100
AcDbEntity
  8
0
100
AcDbLine
 10
52.7610177848937
 20
576.6179846856211
 30
0.0
 11
53.11968
 21
574.5834999999999
 31
0.0
  0
LINE
  5
2A4
330
1E
100
AcDbEntity
  8
0
100
AcDbLine
 10
52.7610177848937
 20
576.6179846856211
 30
0.0
 11
53.30728
 21
573.5204999999999
 31
0.0
  0
LINE
  5
2A5
330
1E
100
AcDbEntity
  8
0
100
AcDbLine
 10
271.4860799999999
 20
152.6135
 30
0.0
 11
271.4860799999999
 21
150.6135
 31
0.0
  0
LINE
  5
2A6
330
1E
100
AcDbEntity
  8
0
100
AcDbLine
 10
271.4860799999999
 20
152.6135
 30
0.0
 11
272.74608
 21
152.6135
 31
0.0
  0
LINE
  5
2A7
330
1E
100
AcDbEntity
  8
0
100
AcDbLine
 10
273.50208
 20
136.6134999999999
 30
0.0
 11
276.4860799999999
 21
136.6134999999999
 31
0.0
  0
LINE
  5
2A8
330
1E
100
AcDbEntity
  8
0
100
AcDbLine
 10
273.50208
 20
140.6134999999999
 30
0.0
 11
279.5820799999999
 21
140.6134999999999
 31
0.0
  0
LINE
  5
2A9
330
1E
100
AcDbEntity
  8
0
100
AcDbLine
 10
273.50208
 20
136.6134999999999
 30
0.0
 11
279.5820799999999
 21
136.6134999999999
 31
0.0
  0
LINE
  5
2AA
330
1E
100
AcDbEntity
  8
0
100
AcDbLine
 10
276.4860799999999
 20
136.6134999999999
 30
0.0
 11
276.4860799999999
 21
131.6134999999999
 31
0.0
  0
LINE
  5
2AB
330
1E
100
AcDbEntity
  8
0
100
AcDbLine
 10
279.5820799999999
 20
140.6134999999999
 30
0.0
 11
287.63808
 21
140.6134999999999
 31
0.0
  0
LINE
  5
2AC
330
1E
100
AcDbEntity
  8
0
100
AcDbLine
 10
279.5820799999999
 20
136.6134999999999
 30
0.0
 11
287.63808
 21
136.6134999999999
 31
0.0
  0
LINE
  5
2AD
330
1E
100
AcDbEntity
  8
0
100
AcDbLine
 10
276.4860799999999
 20
131.6134999999999
 30
0.0
 11
276.4860799999999
 21
136.6134999999999
 31
0.0
  0
LINE
  5
2AE
330
1E
100
AcDbEntity
  8
0
100
AcDbLine
 10
279.4860799999999
 20
140.6134999999999
 30
0.0
 11
279.4860799999999
 21
150.6135
 31
0.0
  0
LINE
  5
2AF
330
1E
100
AcDbEntity
  8
0
100
AcDbLine
 10
280.4860799999999
 20
88.61349999999999
 30
0.0
 11
281.42208
 21
88.61349999999999
 31
0.0
  0
LINE
  5
2B0
330
1E
100
AcDbEntity
  8
0
100
AcDbLine
 10
280.4860799999999
 20
88.61349999999999
 30
0.0
 11
280.4860799999999
 21
90.6135
 31
0.0
  0
LINE
  5
2B1
330
1E
100
AcDbEntity
  8
0
100
AcDbLine
 10
281.42208
 20
88.61349999999999
 30
0.0
 11
283.9180799999999
 21
88.61349999999999
 31
0.0
  0
LINE
  5
2B2
330
1E
100
AcDbEntity
  8
0
100
AcDbLine
 10
281.42208
 20
88.61349999999999
 30
0.0
 11
281.4860799999999
 21
88.61349999999999
 31
0.0
  0
LINE
  5
2B3
330
1E
100
AcDbEntity
  8
0
100
AcDbLine
 10
280.4860799999999
 20
90.6135
 30
0.0
 11
281.42208
 21
90.6135
 31
0.0
  0
LINE
  5
2B4
330
1E
100
AcDbEntity
  8
0
100
AcDbLine
 10
280.4860799999999
 20
90.6135
 30
0.0
 11
280.4860799999999
 21
88.61349999999999
 31
0.0
  0
LINE
  5
2B5
330
1E
100
AcDbEntity
  8
0
100
AcDbLine
 10
286.4860799999999
 20
38.57549999999999
 30
0.0
 11
287.13408
 21
37.6135
 31
0.0
  0
LINE
  5
2B6
330
1E
100
AcDbEntity
  8
0
100
AcDbLine
 10
286.4860799999999
 20
38.57549999999999
 30
0.0
 11
286.4860799999999
 21
61.652
 31
0.0
  0
LINE
  5
2B7
330
1E
100
AcDbEntity
  8
0
100
AcDbLine
 10
286.4860799999999
 20
61.652
 30
0.0
 11
286.4860799999999
 21
38.57549999999999
 31
0.0
  0
LINE
  5
2B8
330
1E
100
AcDbEntity
  8
0
100
AcDbLine
 10
286.4860799999999
 20
74.6135
 30
0.0
 11
287.2060799999999
 21
74.6135
 31
0.0
  0
LINE
  5
2B9
330
1E
100
AcDbEntity
  8
0
100
AcDbLine
 10
286.4860799999999
 20
74.6135
 30
0.0
 11
286.4860799999999
 21
52.6135
 31
0.0
  0
LINE
  5
2BA
330
1E
100
AcDbEntity
  8
0
100
AcDbLine
 10
286.4860799999999
 20
52.6135
 30
0.0
 11
286.4860799999999
 21
74.6135
 31
0.0
  0
LINE
  5
2BC
330
1E
100
AcDbEntity
  8
0
100
AcDbLine
 10
286.5000799999999
 20
74.6135
 30
0.0
 11
287.5000799999999
 21
74.6135
 31
0.0
  0
LINE
  5
2BD
330
1E
100
AcDbEntity
  8
0
100
AcDbLine
 10
283.9020799999999
 20
74.6135
 30
0.0
 11
284.9020799999999
 21
74.6135
 31
0.0
  0
LINE
  5
2BE
330
1E
100
AcDbEntity
  8
0
100
AcDbLine
 10
283.9020799999999
 20
74.6135
 30
0.0
 11
286.4860799999999
 21
74.6135
 31
0.0
  0
LINE
  5
2BF
330
1E
100
AcDbEntity
  8
0
100
AcDbLine
 10
283.9020799999999
 20
74.6135
 30
0.0
 11
283.9020799999999
 21
88.61349999999999
 31
0.0
  0
LINE
  5
2C0
330
1E
100
AcDbEntity
  8
0
100
AcDbLine
 10
283.9020799999999
 20
74.6135
 30
0.0
 11
286.5000799999999
 21
74.6135
 31
0.0
  0
LINE
  5
2C1
330
1E
100
AcDbEntity
  8
0
100
AcDbLine
 10
284.9020799999999
 20
74.6135
 30
0.0
 11
286.4860799999999
 21
74.6135
 31
0.0
  0
LINE
  5
2C2
330
1E
100
AcDbEntity
  8
0
100
AcDbLine
 10
284.9020799999999
 20
74.6135
 30
0.0
 11
284.9020799999999
 21
88.61349999999999
 31
0.0
  0
LINE
  5
2C3
330
1E
100
AcDbEntity
  8
0
100
AcDbLine
 10
284.9020799999999
 20
74.6135
 30
0.0
 11
287.5000799999999
 21
74.6135
 31
0.0
  0
LINE
  5
2C4
330
1E
100
AcDbEntity
  8
0
100
AcDbLine
 10
283.4860799999999
 20
74.6135
 30
0.0
 11
284.31408
 21
74.6135
 31
0.0
  0
LINE
  5
2C5
330
1E
100
AcDbEntity
  8
0
100
AcDbLine
 10
283.4860799999999
 20
74.6135
 30
0.0
 11
283.4860799999999
 21
84.61350000000001
 31
0.0
  0
LINE
  5
2C6
330
1E
100
AcDbEntity
  8
0
100
AcDbLine
 10
282.3860799999999
 20
84.61350000000001
 30
0.0
 11
283.4860799999999
 21
84.61350000000001
 31
0.0
  0
LINE
  5
2C7
330
1E
100
AcDbEntity
  8
0
100
AcDbLine
 10
282.3860799999999
 20
84.61350000000001
 30
0.0
 11
283.9020799999999
 21
84.61350000000001
 31
0.0
  0
LINE
  5
2C8
330
1E
100
AcDbEntity
  8
0
100
AcDbLine
 10
281.4860799999999
 20
88.61349999999999
 30
0.0
 11
281.4860799999999
 21
84.61350000000001
 31
0.0
  0
LINE
  5
2C9
330
1E
100
AcDbEntity
  8
0
100
AcDbLine
 10
281.4860799999999
 20
84.61350000000001
 30
0.0
 11
281.4860799999999
 21
88.61349999999999
 31
0.0
  0
LINE
  5
2CA
330
1E
100
AcDbEntity
  8
0
100
AcDbLine
 10
281.4860799999999
 20
84.61350000000001
 30
0.0
 11
282.3860799999999
 21
84.61350000000001
 31
0.0
  0
LINE
  5
2CB
330
1E
100
AcDbEntity
  8
0
100
AcDbLine
 10
284.9020799999999
 20
84.61350000000001
 30
0.0
 11
288.7860799999999
 21
84.61350000000001
 31
0.0
  0
LINE
  5
2CC
330
1E
100
AcDbEntity
  8
0
100
AcDbLine
 10
284.9020799999999
 20
88.61349999999999
 30
0.0
 11
284.9020799999999
 21
74.6135
 31
0.0
  0
LINE
  5
2CD
330
1E
100
AcDbEntity
  8
0
100
AcDbLine
 10
284.9020799999999
 20
88.61349999999999
 30
0.0
 11
285.141635555555
 21
88.61349999999999
 31
0.0
  0
LINE
  5
2CE
330
1E
100
AcDbEntity
  8
0
100
AcDbLine
 10
283.9020799999999
 20
88.61349999999999
 30
0.0
 11
283.9020799999999
 21
74.6135
 31
0.0
  0
LINE
  5
2CF
330
1E
100
AcDbEntity
  8
0
100
AcDbLine
 10
283.9020799999999
 20
88.61349999999999
 30
0.0
 11
284.9020799999999
 21
88.61349999999999
 31
0.0
  0
LINE
  5
2D0
330
1E
100
AcDbEntity
  8
0
100
AcDbLine
 10
283.4860799999999
 20
84.61350000000001
 30
0.0
 11
283.4860799999999
 21
74.6135
 31
0.0
  0
LINE
  5
2D1
330
1E
100
AcDbEntity
  8
0
100
AcDbLine
 10
284.31408
 20
74.6135
 30
0.0
 11
286.5220799999999
 21
74.6135
 31
0.0
  0
LINE
  5
2D2
330
1E
100
AcDbEntity
  8
0
100
AcDbLine
 10
284.31408
 20
74.6135
 30
0.0
 11
286.4860799999999
 21
74.6135
 31
0.0
  0
LINE
  5
2D3
330
1E
100
AcDbEntity
  8
0
100
AcDbLine
 10
287.13408
 20
37.6135
 30
0.0
 11
288.1060799999999
 21
37.6135
 31
0.0
  0
LINE
  5
2D4
330
1E
100
AcDbEntity
  8
0
100
AcDbLine
 10
287.2060799999999
 20
74.6135
 30
0.0
 11
289.1260799999999
 21
74.6135
 31
0.0
  0
LINE
  5
2D5
330
1E
100
AcDbEntity
  8
0
100
AcDbLine
 10
286.5220799999999
 20
74.6135
 30
0.0
 11
290.2020799999999
 21
74.6135
 31
0.0
  0
LINE
  5
2D6
330
1E
100
AcDbEntity
  8
0
100
AcDbLine
 10
281.4860799999999
 20
90.6135
 30
0.0
 11
281.4860799999999
 21
91.6135
 31
0.0
  0
LINE
  5
2D7
330
1E
100
AcDbEntity
  8
0
100
AcDbLine
 10
283.9180799999999
 20
88.61349999999999
 30
0.0
 11
288.07808
 21
88.61349999999999
 31
0.0
  0
LINE
  5
2D8
330
1E
100
AcDbEntity
  8
0
100
AcDbLine
 10
281.42208
 20
90.6135
 30
0.0
 11
283.9180799999999
 21
90.6135
 31
0.0
  0
LINE
  5
2D9
330
1E
100
AcDbEntity
  8
0
100
AcDbLine
 10
281.4860799999999
 20
91.6135
 30
0.0
 11
281.4860799999999
 21
90.6135
 31
0.0
  0
LINE
  5
2DA
330
1E
100
AcDbEntity
  8
0
100
AcDbLine
 10
283.9180799999999
 20
90.6135
 30
0.0
 11
288.07808
 21
90.6135
 31
0.0
  0
LINE
  5
2DD
330
1E
100
AcDbEntity
  8
0
100
AcDbLine
 10
286.4860799999999
 20
62.6135
 30
0.0
 11
290.6980799999999
 21
62.6135
 31
0.0
  0
LINE
  5
2DE
330
1E
100
AcDbEntity
  8
0
100
AcDbLine
 10
288.1060799999999
 20
37.6135
 30
0.0
 11
290.6980799999999
 21
37.6135
 31
0.0
  0
LINE
  5
2DF
330
1E
100
AcDbEntity
  8
0
100
AcDbLine
 10
288.7860799999999
 20
84.61350000000001
 30
0.0
 11
294.0860799999999
 21
84.61350000000001
 31
0.0
  0
LINE
  5
2E0
330
1E
100
AcDbEntity
  8
0
100
AcDbLine
 10
289.1260799999999
 20
74.6135
 30
0.0
 11
292.3260799999999
 21
74.6135
 31
0.0
  0
LINE
  5
2E1
330
1E
100
AcDbEntity
  8
0
100
AcDbLine
 10
288.07808
 20
88.61349999999999
 30
0.0
 11
293.59008
 21
88.61349999999999
 31
0.0
  0
LINE
  5
2E2
330
1E
100
AcDbEntity
  8
0
100
AcDbLine
 10
287.4860799999999
 20
96.6135
 30
0.0
 11
287.4860799999999
 21
131.6134999999999
 31
0.0
  0
LINE
  5
2E3
330
1E
100
AcDbEntity
  8
0
100
AcDbLine
 10
287.4860799999999
 20
131.6134999999999
 30
0.0
 11
287.4860799999999
 21
96.6135
 31
0.0
  0
LINE
  5
2E4
330
1E
100
AcDbEntity
  8
0
100
AcDbLine
 10
287.4860799999999
 20
112.6135
 30
0.0
 11
289.4860799999999
 21
112.6135
 31
0.0
  0
LINE
  5
2E5
330
1E
100
AcDbEntity
  8
0
100
AcDbLine
 10
287.63808
 20
140.6134999999999
 30
0.0
 11
296.7580799999999
 21
140.6134999999999
 31
0.0
  0
LINE
  5
2E6
330
1E
100
AcDbEntity
  8
0
100
AcDbLine
 10
287.63808
 20
136.6134999999999
 30
0.0
 11
296.7580799999999
 21
136.6134999999999
 31
0.0
  0
LINE
  5
2E7
330
1E
100
AcDbEntity
  8
0
100
AcDbLine
 10
287.4860799999999
 20
130.6134999999999
 30
0.0
 11
289.4860799999999
 21
130.6134999999999
 31
0.0
  0
LINE
  5
2E8
330
1E
100
AcDbEntity
  8
0
100
AcDbLine
 10
288.07808
 20
90.6135
 30
0.0
 11
293.59008
 21
90.6135
 31
0.0
  0
LINE
  5
2E9
330
1E
100
AcDbEntity
  8
0
100
AcDbLine
 10
287.3700799999999
 20
150.6135
 30
0.0
 11
293.0940799999999
 21
150.6135
 31
0.0
  0
LINE
  5
2EA
330
1E
100
AcDbEntity
  8
0
100
AcDbLine
 10
283.0500799999999
 20
150.6135
 30
0.0
 11
287.3700799999999
 21
150.6135
 31
0.0
  0
LINE
  5
2EB
330
1E
100
AcDbEntity
  8
0
100
AcDbLine
 10
280.45808
 20
150.6135
 30
0.0
 11
283.0500799999999
 21
150.6135
 31
0.0
  0
LINE
  5
2EC
330
1E
100
AcDbEntity
  8
0
100
AcDbLine
 10
279.4860799999999
 20
150.6135
 30
0.0
 11
279.4860799999999
 21
140.6134999999999
 31
0.0
  0
LINE
  5
2ED
330
1E
100
AcDbEntity
  8
0
100
AcDbLine
 10
279.4860799999999
 20
150.6135
 30
0.0
 11
280.45808
 21
150.6135
 31
0.0
  0
LINE
  5
2EE
330
1E
100
AcDbEntity
  8
0
100
AcDbLine
 10
290.6980799999999
 20
37.6135
 30
0.0
 11
294.91008
 21
37.6135
 31
0.0
  0
LINE
  5
2EF
330
1E
100
AcDbEntity
  8
0
100
AcDbLine
 10
290.6980799999999
 20
62.6135
 30
0.0
 11
294.91008
 21
62.6135
 31
0.0
  0
LINE
  5
2F2
330
1E
100
AcDbEntity
  8
0
100
AcDbLine
 10
292.3260799999999
 20
74.6135
 30
0.0
 11
296.56608
 21
74.6135
 31
0.0
  0
LINE
  5
2F3
330
1E
100
AcDbEntity
  8
0
100
AcDbLine
 10
289.4860799999999
 20
112.6135
 30
0.0
 11
289.4860799999999
 21
112.9375
 31
0.0
  0
LINE
  5
2F4
330
1E
100
AcDbEntity
  8
0
100
AcDbLine
 10
289.4860799999999
 20
123.9175
 30
0.0
 11
289.4860799999999
 21
121.6134999999999
 31
0.0
  0
LINE
  5
2F5
330
1E
100
AcDbEntity
  8
0
100
AcDbLine
 10
289.4860799999999
 20
123.9175
 30
0.0
 11
289.4860799999999
 21
126.0774999999999
 31
0.0
  0
LINE
  5
2F6
330
1E
100
AcDbEntity
  8
0
100
AcDbLine
 10
289.4860799999999
 20
126.0774999999999
 30
0.0
 11
289.4860799999999
 21
123.9175
 31
0.0
  0
LINE
  5
2F7
330
1E
100
AcDbEntity
  8
0
100
AcDbLine
 10
289.4860799999999
 20
126.0774999999999
 30
0.0
 11
289.4860799999999
 21
127.9854999999999
 31
0.0
  0
LINE
  5
2F8
330
1E
100
AcDbEntity
  8
0
100
AcDbLine
 10
289.4860799999999
 20
129.6134999999999
 30
0.0
 11
294.0860799999999
 21
129.6134999999999
 31
0.0
  0
LINE
  5
2F9
330
1E
100
AcDbEntity
  8
0
100
AcDbLine
 10
289.4860799999999
 20
129.6134999999999
 30
0.0
 11
291.6060799999999
 21
129.6134999999999
 31
0.0
  0
LINE
  5
2FA
330
1E
100
AcDbEntity
  8
0
100
AcDbLine
 10
289.4860799999999
 20
127.9854999999999
 30
0.0
 11
289.4860799999999
 21
126.0774999999999
 31
0.0
  0
LINE
  5
2FB
330
1E
100
AcDbEntity
  8
0
100
AcDbLine
 10
289.4860799999999
 20
127.9854999999999
 30
0.0
 11
289.4860799999999
 21
129.4254999999999
 31
0.0
  0
LINE
  5
2FC
330
1E
100
AcDbEntity
  8
0
100
AcDbLine
 10
289.4860799999999
 20
129.4254999999999
 30
0.0
 11
289.4860799999999
 21
127.9854999999999
 31
0.0
  0
LINE
  5
2FD
330
1E
100
AcDbEntity
  8
0
100
AcDbLine
 10
289.4860799999999
 20
129.4254999999999
 30
0.0
 11
289.4860799999999
 21
130.2895
 31
0.0
  0
LINE
  5
2FE
330
1E
100
AcDbEntity
  8
0
100
AcDbLine
 10
289.4860799999999
 20
130.2895
 30
0.0
 11
289.4860799999999
 21
129.4254999999999
 31
0.0
  0
LINE
  5
2FF
330
1E
100
AcDbEntity
  8
0
100
AcDbLine
 10
289.4860799999999
 20
130.2895
 30
0.0
 11
289.4860799999999
 21
130.6134999999999
 31
0.0
  0
LINE
  5
300
330
1E
100
AcDbEntity
  8
0
100
AcDbLine
 10
289.4860799999999
 20
130.6134999999999
 30
0.0
 11
289.4860799999999
 21
130.2895
 31
0.0
  0
LINE
  5
301
330
1E
100
AcDbEntity
  8
0
100
AcDbLine
 10
289.4860799999999
 20
121.6134999999999
 30
0.0
 11
289.4860799999999
 21
119.3095
 31
0.0
  0
LINE
  5
302
330
1E
100
AcDbEntity
  8
0
100
AcDbLine
 10
289.4860799999999
 20
121.6134999999999
 30
0.0
 11
289.4860799999999
 21
123.9175
 31
0.0
  0
LINE
  5
303
330
1E
100
AcDbEntity
  8
0
100
AcDbLine
 10
289.4860799999999
 20
119.3095
 30
0.0
 11
289.4860799999999
 21
117.1494999999999
 31
0.0
  0
LINE
  5
304
330
1E
100
AcDbEntity
  8
0
100
AcDbLine
 10
289.4860799999999
 20
119.3095
 30
0.0
 11
289.4860799999999
 21
121.6134999999999
 31
0.0
  0
LINE
  5
305
330
1E
100
AcDbEntity
  8
0
100
AcDbLine
 10
289.4860799999999
 20
117.1494999999999
 30
0.0
 11
289.4860799999999
 21
115.2414999999999
 31
0.0
  0
LINE
  5
306
330
1E
100
AcDbEntity
  8
0
100
AcDbLine
 10
289.4860799999999
 20
117.1494999999999
 30
0.0
 11
289.4860799999999
 21
119.3095
 31
0.0
  0
LINE
  5
307
330
1E
100
AcDbEntity
  8
0
100
AcDbLine
 10
289.4860799999999
 20
115.2414999999999
 30
0.0
 11
289.4860799999999
 21
113.8014999999999
 31
0.0
  0
LINE
  5
308
330
1E
100
AcDbEntity
  8
0
100
AcDbLine
 10
289.4860799999999
 20
115.2414999999999
 30
0.0
 11
289.4860799999999
 21
117.1494999999999
 31
0.0
  0
LINE
  5
309
330
1E
100
AcDbEntity
  8
0
100
AcDbLine
 10
289.4860799999999
 20
113.8014999999999
 30
0.0
 11
289.4860799999999
 21
112.9375
 31
0.0
  0
LINE
  5
30A
330
1E
100
AcDbEntity
  8
0
100
AcDbLine
 10
289.4860799999999
 20
113.8014999999999
 30
0.0
 11
289.4860799999999
 21
115.2414999999999
 31
0.0
  0
LINE
  5
30B
330
1E
100
AcDbEntity
  8
0
100
AcDbLine
 10
291.6060799999999
 20
129.6134999999999
 30
0.0
 11
298.8060799999999
 21
129.6134999999999
 31
0.0
  0
LINE
  5
30C
330
1E
100
AcDbEntity
  8
0
100
AcDbLine
 10
289.4860799999999
 20
112.9375
 30
0.0
 11
289.4860799999999
 21
112.6135
 31
0.0
  0
LINE
  5
30D
330
1E
100
AcDbEntity
  8
0
100
AcDbLine
 10
289.4860799999999
 20
112.9375
 30
0.0
 11
289.4860799999999
 21
113.8014999999999
 31
0.0
  0
LINE
  5
30E
330
1E
100
AcDbEntity
  8
0
100
AcDbLine
 10
290.2020799999999
 20
74.6135
 30
0.0
 11
295.07808
 21
74.6135
 31
0.0
  0
LINE
  5
30F
330
1E
100
AcDbEntity
  8
0
100
AcDbLine
 10
293.59008
 20
88.61349999999999
 30
0.0
 11
299.8300799999999
 21
88.61349999999999
 31
0.0
  0
LINE
  5
310
330
1E
100
AcDbEntity
  8
0
100
AcDbLine
 10
294.91008
 20
37.6135
 30
0.0
 11
300.4180799999999
 21
37.6135
 31
0.0
  0
LINE
  5
311
330
1E
100
AcDbEntity
  8
0
100
AcDbLine
 10
294.91008
 20
62.6135
 30
0.0
 11
300.4180799999999
 21
62.6135
 31
0.0
  0
LINE
  5
314
330
1E
100
AcDbEntity
  8
0
100
AcDbLine
 10
300.4180799999999
 20
37.6135
 30
0.0
 11
306.6820799999999
 21
37.6135
 31
0.0
  0
LINE
  5
315
330
1E
100
AcDbEntity
  8
0
100
AcDbLine
 10
300.4180799999999
 20
62.6135
 30
0.0
 11
306.6820799999999
 21
62.6135
 31
0.0
  0
LINE
  5
318
330
1E
100
AcDbEntity
  8
0
100
AcDbLine
 10
296.56608
 20
74.6135
 30
0.0
 11
301.3660799999999
 21
74.6135
 31
0.0
  0
LINE
  5
319
330
1E
100
AcDbEntity
  8
0
100
AcDbLine
 10
301.3660799999999
 20
74.6135
 30
0.0
 11
306.4860799999999
 21
74.6135
 31
0.0
  0
LINE
  5
31A
330
1E
100
AcDbEntity
  8
0
100
AcDbLine
 10
305.4860799999999
 20
74.6135
 30
0.0
 11
305.4860799999999
 21
88.61349999999999
 31
0.0
  0
LINE
  5
31B
330
1E
100
AcDbEntity
  8
0
100
AcDbLine
 10
305.4860799999999
 20
74.6135
 30
0.0
 11
307.4860799999999
 21
74.6135
 31
0.0
  0
LINE
  5
31C
330
1E
100
AcDbEntity
  8
0
100
AcDbLine
 10
306.4860799999999
 20
74.6135
 30
0.0
 11
312.37408
 21
74.6135
 31
0.0
  0
LINE
  5
31D
330
1E
100
AcDbEntity
  8
0
100
AcDbLine
 10
306.4860799999999
 20
74.6135
 30
0.0
 11
311.6060799999999
 21
74.6135
 31
0.0
  0
LINE
  5
31E
330
1E
100
AcDbEntity
  8
0
100
AcDbLine
 10
295.07808
 20
74.6135
 30
0.0
 11
300.5980799999999
 21
74.6135
 31
0.0
  0
LINE
  5
31F
330
1E
100
AcDbEntity
  8
0
100
AcDbLine
 10
300.0860799999999
 20
84.61350000000001
 30
0.0
 11
305.4860799999999
 21
84.61350000000001
 31
0.0
  0
LINE
  5
320
330
1E
100
AcDbEntity
  8
0
100
AcDbLine
 10
294.0860799999999
 20
84.61350000000001
 30
0.0
 11
300.0860799999999
 21
84.61350000000001
 31
0.0
  0
LINE
  5
321
330
1E
100
AcDbEntity
  8
0
100
AcDbLine
 10
305.4860799999999
 20
88.61349999999999
 30
0.0
 11
305.4860799999999
 21
74.6135
 31
0.0
  0
LINE
  5
322
330
1E
100
AcDbEntity
  8
0
100
AcDbLine
 10
305.4860799999999
 20
88.61349999999999
 30
0.0
 11
307.4860799999999
 21
88.61349999999999
 31
0.0
  0
LINE
  5
323
330
1E
100
AcDbEntity
  8
0
100
AcDbLine
 10
300.5980799999999
 20
74.6135
 30
0.0
 11
306.4860799999999
 21
74.6135
 31
0.0
  0
LINE
  5
324
330
1E
100
AcDbEntity
  8
0
100
AcDbLine
 10
306.6820799999999
 20
62.6135
 30
0.0
 11
313.4860799999999
 21
62.6135
 31
0.0
  0
LINE
  5
325
330
1E
100
AcDbEntity
  8
0
100
AcDbLine
 10
306.6820799999999
 20
37.6135
 30
0.0
 11
313.4860799999999
 21
37.6135
 31
0.0
  0
LINE
  5
326
330
1E
100
AcDbEntity
  8
0
100
AcDbLine
 10
311.6060799999999
 20
74.6135
 30
0.0
 11
316.4060799999999
 21
74.6135
 31
0.0
  0
LINE
  5
327
330
1E
100
AcDbEntity
  8
0
100
AcDbLine
 10
307.4860799999999
 20
84.61350000000001
 30
0.0
 11
312.8860799999999
 21
84.61350000000001
 31
0.0
  0
LINE
  5
328
330
1E
100
AcDbEntity
  8
0
100
AcDbLine
 10
307.4860799999999
 20
88.61349999999999
 30
0.0
 11
307.4860799999999
 21
74.6135
 31
0.0
  0
LINE
  5
329
330
1E
100
AcDbEntity
  8
0
100
AcDbLine
 10
307.4860799999999
 20
74.6135
 30
0.0
 11
307.4860799999999
 21
88.61349999999999
 31
0.0
  0
LINE
  5
32A
330
1E
100
AcDbEntity
  8
0
100
AcDbLine
 10
312.8860799999999
 20
84.61350000000001
 30
0.0
 11
318.88608
 21
84.61350000000001
 31
0.0
  0
LINE
  5
32B
330
1E
100
AcDbEntity
  8
0
100
AcDbLine
 10
312.37408
 20
74.6135
 30
0.0
 11
317.8940799999999
 21
74.6135
 31
0.0
  0
LINE
  5
32C
330
1E
100
AcDbEntity
  8
0
100
AcDbLine
 10
313.1420799999999
 20
88.61349999999999
 30
0.0
 11
319.3820799999999
 21
88.61349999999999
 31
0.0
  0
LINE
  5
32D
330
1E
100
AcDbEntity
  8
0
100
AcDbLine
 10
306.4860799999999
 20
88.61349999999999
 30
0.0
 11
313.1420799999999
 21
88.61349999999999
 31
0.0
  0
LINE
  5
32E
330
1E
100
AcDbEntity
  8
0
100
AcDbLine
 10
313.1420799999999
 20
90.6135
 30
0.0
 11
319.3820799999999
 21
90.6135
 31
0.0
  0
LINE
  5
32F
330
1E
100
AcDbEntity
  8
0
100
AcDbLine
 10
306.4860799999999
 20
90.6135
 30
0.0
 11
313.1420799999999
 21
90.6135
 31
0.0
  0
LINE
  5
330
330
1E
100
AcDbEntity
  8
0
100
AcDbLine
 10
299.8300799999999
 20
88.61349999999999
 30
0.0
 11
306.4860799999999
 21
88.61349999999999
 31
0.0
  0
LINE
  5
331
330
1E
100
AcDbEntity
  8
0
100
AcDbLine
 10
293.59008
 20
90.6135
 30
0.0
 11
299.8300799999999
 21
90.6135
 31
0.0
  0
LINE
  5
332
330
1E
100
AcDbEntity
  8
0
100
AcDbLine
 10
298.8060799999999
 20
129.6134999999999
 30
0.0
 11
306.4860799999999
 21
129.6134999999999
 31
0.0
  0
LINE
  5
333
330
1E
100
AcDbEntity
  8
0
100
AcDbLine
 10
300.0860799999999
 20
129.6134999999999
 30
0.0
 11
306.4860799999999
 21
129.6134999999999
 31
0.0
  0
LINE
  5
334
330
1E
100
AcDbEntity
  8
0
100
AcDbLine
 10
294.0860799999999
 20
129.6134999999999
 30
0.0
 11
300.0860799999999
 21
129.6134999999999
 31
0.0
  0
LINE
  5
335
330
1E
100
AcDbEntity
  8
0
100
AcDbLine
 10
296.7580799999999
 20
140.6134999999999
 30
0.0
 11
306.4860799999999
 21
140.6134999999999
 31
0.0
  0
LINE
  5
336
330
1E
100
AcDbEntity
  8
0
100
AcDbLine
 10
306.4860799999999
 20
140.6134999999999
 30
0.0
 11
316.2140799999999
 21
140.6134999999999
 31
0.0
  0
LINE
  5
337
330
1E
100
AcDbEntity
  8
0
100
AcDbLine
 10
306.4860799999999
 20
136.6134999999999
 30
0.0
 11
316.2140799999999
 21
136.6134999999999
 31
0.0
  0
LINE
  5
338
330
1E
100
AcDbEntity
  8
0
100
AcDbLine
 10
296.7580799999999
 20
136.6134999999999
 30
0.0
 11
306.4860799999999
 21
136.6134999999999
 31
0.0
  0
LINE
  5
339
330
1E
100
AcDbEntity
  8
0
100
AcDbLine
 10
306.4860799999999
 20
129.6134999999999
 30
0.0
 11
312.8860799999999
 21
129.6134999999999
 31
0.0
  0
LINE
  5
33A
330
1E
100
AcDbEntity
  8
0
100
AcDbLine
 10
306.4860799999999
 20
129.6134999999999
 30
0.0
 11
314.1660799999999
 21
129.6134999999999
 31
0.0
  0
LINE
  5
33B
330
1E
100
AcDbEntity
  8
0
100
AcDbLine
 10
312.8860799999999
 20
129.6134999999999
 30
0.0
 11
318.88608
 21
129.6134999999999
 31
0.0
  0
LINE
  5
33C
330
1E
100
AcDbEntity
  8
0
100
AcDbLine
 10
299.8300799999999
 20
90.6135
 30
0.0
 11
306.4860799999999
 21
90.6135
 31
0.0
  0
LINE
  5
33D
330
1E
100
AcDbEntity
  8
0
100
AcDbLine
 10
314.1660799999999
 20
129.6134999999999
 30
0.0
 11
321.3660799999999
 21
129.6134999999999
 31
0.0
  0
LINE
  5
33E
330
1E
100
AcDbEntity
  8
0
100
AcDbLine
 10
313.4860799999999
 20
62.6135
 30
0.0
 11
379.4860799999999
 21
62.6135
 31
0.0
  0
LINE
  5
33F
330
1E
100
AcDbEntity
  8
0
100
AcDbLine
 10
313.4860799999999
 20
37.6135
 30
0.0
 11
379.4860799999999
 21
37.6135
 31
0.0
  0
LINE
  5
340
330
1E
100
AcDbEntity
  8
0
100
AcDbLine
 10
313.3980799999999
 20
150.6135
 30
0.0
 11
319.8780799999999
 21
150.6135
 31
0.0
  0
LINE
  5
341
330
1E
100
AcDbEntity
  8
0
100
AcDbLine
 10
306.4860799999999
 20
150.6135
 30
0.0
 11
315.4460799999999
 21
150.6135
 31
0.0
  0
LINE
  5
342
330
1E
100
AcDbEntity
  8
0
100
AcDbLine
 10
306.4860799999999
 20
150.6135
 30
0.0
 11
313.3980799999999
 21
150.6135
 31
0.0
  0
LINE
  5
343
330
1E
100
AcDbEntity
  8
0
100
AcDbLine
 10
316.4060799999999
 20
74.6135
 30
0.0
 11
320.6460799999999
 21
74.6135
 31
0.0
  0
LINE
  5
344
330
1E
100
AcDbEntity
  8
0
100
AcDbLine
 10
318.88608
 20
84.61350000000001
 30
0.0
 11
324.1860799999999
 21
84.61350000000001
 31
0.0
  0
LINE
  5
345
330
1E
100
AcDbEntity
  8
0
100
AcDbLine
 10
317.8940799999999
 20
74.6135
 30
0.0
 11
322.77008
 21
74.6135
 31
0.0
  0
LINE
  5
346
330
1E
100
AcDbEntity
  8
0
100
AcDbLine
 10
316.2140799999999
 20
140.6134999999999
 30
0.0
 11
325.3340799999999
 21
140.6134999999999
 31
0.0
  0
LINE
  5
347
330
1E
100
AcDbEntity
  8
0
100
AcDbLine
 10
316.2140799999999
 20
136.6134999999999
 30
0.0
 11
325.3340799999999
 21
136.6134999999999
 31
0.0
  0
LINE
  5
348
330
1E
100
AcDbEntity
  8
0
100
AcDbLine
 10
318.88608
 20
129.6134999999999
 30
0.0
 11
324.1860799999999
 21
129.6134999999999
 31
0.0
  0
LINE
  5
349
330
1E
100
AcDbEntity
  8
0
100
AcDbLine
 10
319.3820799999999
 20
88.61349999999999
 30
0.0
 11
324.8940799999999
 21
88.61349999999999
 31
0.0
  0
LINE
  5
34A
330
1E
100
AcDbEntity
  8
0
100
AcDbLine
 10
323.8460799999999
 20
74.6135
 30
0.0
 11
325.76608
 21
74.6135
 31
0.0
  0
LINE
  5
34B
330
1E
100
AcDbEntity
  8
0
100
AcDbLine
 10
320.6460799999999
 20
74.6135
 30
0.0
 11
323.8460799999999
 21
74.6135
 31
0.0
  0
LINE
  5
34C
330
1E
100
AcDbEntity
  8
0
100
AcDbLine
 10
324.1860799999999
 20
84.61350000000001
 30
0.0
 11
328.0700799999999
 21
84.61350000000001
 31
0.0
  0
LINE
  5
34D
330
1E
100
AcDbEntity
  8
0
100
AcDbLine
 10
322.77008
 20
74.6135
 30
0.0
 11
326.4500799999999
 21
74.6135
 31
0.0
  0
LINE
  5
34E
330
1E
100
AcDbEntity
  8
0
100
AcDbLine
 10
325.47208
 20
74.6135
 30
0.0
 11
328.0700799999999
 21
74.6135
 31
0.0
  0
LINE
  5
34F
330
1E
100
AcDbEntity
  8
0
100
AcDbLine
 10
325.47208
 20
74.6135
 30
0.0
 11
326.47208
 21
74.6135
 31
0.0
  0
LINE
  5
350
330
1E
100
AcDbEntity
  8
0
100
AcDbLine
 10
324.8940799999999
 20
88.61349999999999
 30
0.0
 11
329.05408
 21
88.61349999999999
 31
0.0
  0
LINE
  5
351
330
1E
100
AcDbEntity
  8
0
100
AcDbLine
 10
321.3660799999999
 20
129.6134999999999
 30
0.0
 11
327.7260799999999
 21
129.6134999999999
 31
0.0
  0
LINE
  5
352
330
1E
100
AcDbEntity
  8
0
100
AcDbLine
 10
325.3340799999999
 20
140.6134999999999
 30
0.0
 11
333.3900799999999
 21
140.6134999999999
 31
0.0
  0
LINE
  5
353
330
1E
100
AcDbEntity
  8
0
100
AcDbLine
 10
325.3340799999999
 20
136.6134999999999
 30
0.0
 11
333.3900799999999
 21
136.6134999999999
 31
0.0
  0
LINE
  5
354
330
1E
100
AcDbEntity
  8
0
100
AcDbLine
 10
324.1860799999999
 20
129.6134999999999
 30
0.0
 11
328.18608
 21
129.6134999999999
 31
0.0
  0
LINE
  5
355
330
1E
100
AcDbEntity
  8
0
100
AcDbLine
 10
324.8940799999999
 20
90.6135
 30
0.0
 11
329.05408
 21
90.6135
 31
0.0
  0
LINE
  5
356
330
1E
100
AcDbEntity
  8
0
100
AcDbLine
 10
319.3820799999999
 20
90.6135
 30
0.0
 11
324.8940799999999
 21
90.6135
 31
0.0
  0
LINE
  5
357
330
1E
100
AcDbEntity
  8
0
100
AcDbLine
 10
319.8780799999999
 20
150.6135
 30
0.0
 11
325.6020799999999
 21
150.6135
 31
0.0
  0
LINE
  5
358
330
1E
100
AcDbEntity
  8
0
100
AcDbLine
 10
325.76608
 20
74.6135
 30
0.0
 11
326.4860799999999
 21
74.6135
 31
0.0
  0
LINE
  5
359
330
1E
100
AcDbEntity
  8
0
100
AcDbLine
 10
326.4860799999999
 20
62.6135
 30
0.0
 11
326.4860799999999
 21
74.6135
 31
0.0
  0
LINE
  5
35A
330
1E
100
AcDbEntity
  8
0
100
AcDbLine
 10
328.0700799999999
 20
74.6135
 30
0.0
 11
328.0700799999999
 21
88.61349999999999
 31
0.0
  0
LINE
  5
35B
330
1E
100
AcDbEntity
  8
0
100
AcDbLine
 10
328.0700799999999
 20
74.6135
 30
0.0
 11
329.0700799999999
 21
74.6135
 31
0.0
  0
LINE
  5
35C
330
1E
100
AcDbEntity
  8
0
100
AcDbLine
 10
326.47208
 20
74.6135
 30
0.0
 11
329.0700799999999
 21
74.6135
 31
0.0
  0
LINE
  5
35D
330
1E
100
AcDbEntity
  8
0
100
AcDbLine
 10
326.4500799999999
 20
74.6135
 30
0.0
 11
328.6580799999999
 21
74.6135
 31
0.0
  0
LINE
  5
35E
330
1E
100
AcDbEntity
  8
0
100
AcDbLine
 10
328.6580799999999
 20
74.6135
 30
0.0
 11
329.4860799999999
 21
74.6135
 31
0.0
  0
LINE
  5
35F
330
1E
100
AcDbEntity
  8
0
100
AcDbLine
 10
328.0700799999999
 20
88.61349999999999
 30
0.0
 11
329.0700799999999
 21
88.61349999999999
 31
0.0
  0
LINE
  5
360
330
1E
100
AcDbEntity
  8
0
100
AcDbLine
 10
328.0700799999999
 20
88.61349999999999
 30
0.0
 11
328.0700799999999
 21
74.6135
 31
0.0
  0
LINE
  5
361
330
1E
100
AcDbEntity
  8
0
100
AcDbLine
 10
326.4860799999999
 20
74.6135
 30
0.0
 11
328.6580799999999
 21
74.6135
 31
0.0
  0
LINE
  5
362
330
1E
100
AcDbEntity
  8
0
100
AcDbLine
 10
326.4860799999999
 20
74.6135
 30
0.0
 11
328.0700799999999
 21
74.6135
 31
0.0
  0
LINE
  5
363
330
1E
100
AcDbEntity
  8
0
100
AcDbLine
 10
326.4860799999999
 20
74.6135
 30
0.0
 11
329.0700799999999
 21
74.6135
 31
0.0
  0
LINE
  5
364
330
1E
100
AcDbEntity
  8
0
100
AcDbLine
 10
326.4860799999999
 20
74.6135
 30
0.0
 11
326.4860799999999
 21
62.6135
 31
0.0
  0
LINE
  5
365
330
1E
100
AcDbEntity
  8
0
100
AcDbLine
 10
329.0700799999999
 20
84.61350000000001
 30
0.0
 11
330.58608
 21
84.61350000000001
 31
0.0
  0
LINE
  5
366
330
1E
100
AcDbEntity
  8
0
100
AcDbLine
 10
329.0700799999999
 20
74.6135
 30
0.0
 11
329.0700799999999
 21
88.61349999999999
 31
0.0
  0
LINE
  5
367
330
1E
100
AcDbEntity
  8
0
100
AcDbLine
 10
330.58608
 20
84.61350000000001
 30
0.0
 11
331.4860799999999
 21
84.61350000000001
 31
0.0
  0
LINE
  5
368
330
1E
100
AcDbEntity
  8
0
100
AcDbLine
 10
329.4860799999999
 20
74.6135
 30
0.0
 11
329.4860799999999
 21
84.61350000000001
 31
0.0
  0
LINE
  5
369
330
1E
100
AcDbEntity
  8
0
100
AcDbLine
 10
329.0700799999999
 20
88.61349999999999
 30
0.0
 11
329.0700799999999
 21
74.6135
 31
0.0
  0
LINE
  5
36A
330
1E
100
AcDbEntity
  8
0
100
AcDbLine
 10
329.4860799999999
 20
84.61350000000001
 30
0.0
 11
329.4860799999999
 21
74.6135
 31
0.0
  0
LINE
  5
36B
330
1E
100
AcDbEntity
  8
0
100
AcDbLine
 10
329.4860799999999
 20
84.61350000000001
 30
0.0
 11
330.58608
 21
84.61350000000001
 31
0.0
  0
LINE
  5
36C
330
1E
100
AcDbEntity
  8
0
100
AcDbLine
 10
329.05408
 20
88.61349999999999
 30
0.0
 11
331.5500799999999
 21
88.61349999999999
 31
0.0
  0
LINE
  5
36D
330
1E
100
AcDbEntity
  8
0
100
AcDbLine
 10
327.7260799999999
 20
129.6134999999999
 30
0.0
 11
332.5260799999999
 21
129.6134999999999
 31
0.0
  0
LINE
  5
36E
330
1E
100
AcDbEntity
  8
0
100
AcDbLine
 10
328.18608
 20
129.6134999999999
 30
0.0
 11
330.58608
 21
129.6134999999999
 31
0.0
  0
LINE
  5
36F
330
1E
100
AcDbEntity
  8
0
100
AcDbLine
 10
330.58608
 20
129.6134999999999
 30
0.0
 11
331.4860799999999
 21
129.6134999999999
 31
0.0
  0
LINE
  5
370
330
1E
100
AcDbEntity
  8
0
100
AcDbLine
 10
329.05408
 20
90.6135
 30
0.0
 11
331.5500799999999
 21
90.6135
 31
0.0
  0
LINE
  5
371
330
1E
100
AcDbEntity
  8
0
100
AcDbLine
 10
325.6020799999999
 20
150.6135
 30
0.0
 11
329.92208
 21
150.6135
 31
0.0
  0
LINE
  5
372
330
1E
100
AcDbEntity
  8
0
100
AcDbLine
 10
329.92208
 20
150.6135
 30
0.0
 11
332.5140799999999
 21
150.6135
 31
0.0
  0
LINE
  5
373
330
1E
100
AcDbEntity
  8
0
100
AcDbLine
 10
315.4460799999999
 20
150.6135
 30
0.0
 11
323.8460799999999
 21
150.6135
 31
0.0
  0
LINE
  5
374
330
1E
100
AcDbEntity
  8
0
100
AcDbLine
 10
323.8460799999999
 20
150.6135
 30
0.0
 11
331.2660799999999
 21
150.6135
 31
0.0
  0
LINE
  5
375
330
1E
100
AcDbEntity
  8
0
100
AcDbLine
 10
331.4860799999999
 20
90.6135
 30
0.0
 11
331.4860799999999
 21
129.6134999999999
 31
0.0
  0
LINE
  5
376
330
1E
100
AcDbEntity
  8
0
100
AcDbLine
 10
331.4860799999999
 20
84.61350000000001
 30
0.0
 11
331.4860799999999
 21
88.61349999999999
 31
0.0
  0
LINE
  5
377
330
1E
100
AcDbEntity
  8
0
100
AcDbLine
 10
331.4860799999999
 20
129.6134999999999
 30
0.0
 11
331.4860799999999
 21
90.6135
 31
0.0
  0
LINE
  5
378
330
1E
100
AcDbEntity
  8
0
100
AcDbLine
 10
331.4860799999999
 20
129.6134999999999
 30
0.0
 11
332.5260799999999
 21
129.6134999999999
 31
0.0
  0
LINE
  5
379
330
1E
100
AcDbEntity
  8
0
100
AcDbLine
 10
332.4860799999999
 20
88.61349999999999
 30
0.0
 11
332.4860799999999
 21
90.6135
 31
0.0
  0
LINE
  5
37A
330
1E
100
AcDbEntity
  8
0
100
AcDbLine
 10
331.5500799999999
 20
90.6135
 30
0.0
 11
332.4860799999999
 21
90.6135
 31
0.0
  0
LINE
  5
37B
330
1E
100
AcDbEntity
  8
0
100
AcDbLine
 10
336.4860799999999
 20
129.6134999999999
 30
0.0
 11
336.4860799999999
 21
136.6134999999999
 31
0.0
  0
LINE
  5
37C
330
1E
100
AcDbEntity
  8
0
100
AcDbLine
 10
332.5260799999999
 20
129.6134999999999
 30
0.0
 11
335.4060799999999
 21
129.6134999999999
 31
0.0
  0
LINE
  5
37D
330
1E
100
AcDbEntity
  8
0
100
AcDbLine
 10
336.4860799999999
 20
136.6134999999999
 30
0.0
 11
339.4700799999999
 21
136.6134999999999
 31
0.0
  0
LINE
  5
37E
330
1E
100
AcDbEntity
  8
0
100
AcDbLine
 10
333.3900799999999
 20
140.6134999999999
 30
0.0
 11
339.4700799999999
 21
140.6134999999999
 31
0.0
  0
LINE
  5
37F
330
1E
100
AcDbEntity
  8
0
100
AcDbLine
 10
333.3900799999999
 20
136.6134999999999
 30
0.0
 11
339.4700799999999
 21
136.6134999999999
 31
0.0
  0
LINE
  5
380
330
1E
100
AcDbEntity
  8
0
100
AcDbLine
 10
339.4700799999999
 20
136.6134999999999
 30
0.0
 11
343.1180799999999
 21
136.6134999999999
 31
0.0
  0
LINE
  5
381
330
1E
100
AcDbEntity
  8
0
100
AcDbLine
 10
339.4700799999999
 20
140.6134999999999
 30
0.0
 11
343.1180799999999
 21
140.6134999999999
 31
0.0
  0
LINE
  5
382
330
1E
100
AcDbEntity
  8
0
100
AcDbLine
 10
339.4700799999999
 20
136.6134999999999
 30
0.0
 11
343.1180799999999
 21
136.6134999999999
 31
0.0
  0
LINE
  5
383
330
1E
100
AcDbEntity
  8
0
100
AcDbLine
 10
336.4860799999999
 20
136.6134999999999
 30
0.0
 11
336.4860799999999
 21
129.6134999999999
 31
0.0
  0
LINE
  5
384
330
1E
100
AcDbEntity
  8
0
100
AcDbLine
 10
335.4060799999999
 20
129.6134999999999
 30
0.0
 11
336.4860799999999
 21
129.6134999999999
 31
0.0
  0
LINE
  5
385
330
1E
100
AcDbEntity
  8
0
100
AcDbLine
 10
332.4860799999999
 20
90.6135
 30
0.0
 11
332.4860799999999
 21
88.61349999999999
 31
0.0
  0
LINE
  5
386
330
1E
100
AcDbEntity
  8
0
100
AcDbLine
 10
331.5500799999999
 20
88.61349999999999
 30
0.0
 11
332.4860799999999
 21
88.61349999999999
 31
0.0
  0
LINE
  5
387
330
1E
100
AcDbEntity
  8
0
100
AcDbLine
 10
331.4860799999999
 20
88.61349999999999
 30
0.0
 11
331.5500799999999
 21
88.61349999999999
 31
0.0
  0
LINE
  5
388
330
1E
100
AcDbEntity
  8
0
100
AcDbLine
 10
331.4860799999999
 20
88.61349999999999
 30
0.0
 11
331.4860799999999
 21
84.61350000000001
 31
0.0
  0
LINE
  5
389
330
1E
100
AcDbEntity
  8
0
100
AcDbLine
 10
333.4860799999999
 20
150.6135
 30
0.0
 11
333.4860799999999
 21
140.6134999999999
 31
0.0
  0
LINE
  5
38A
330
1E
100
AcDbEntity
  8
0
100
AcDbLine
 10
333.4860799999999
 20
150.6135
 30
0.0
 11
336.8660799999999
 21
150.6135
 31
0.0
  0
LINE
  5
38B
330
1E
100
AcDbEntity
  8
0
100
AcDbLine
 10
332.5140799999999
 20
150.6135
 30
0.0
 11
333.4860799999999
 21
150.6135
 31
0.0
  0
LINE
  5
38C
330
1E
100
AcDbEntity
  8
0
100
AcDbLine
 10
333.4860799999999
 20
140.6134999999999
 30
0.0
 11
333.4860799999999
 21
150.6135
 31
0.0
  0
LINE
  5
38D
330
1E
100
AcDbEntity
  8
0
100
AcDbLine
 10
331.2660799999999
 20
150.6135
 30
0.0
 11
336.8660799999999
 21
150.6135
 31
0.0
  0
LINE
  5
38E
330
1E
100
AcDbEntity
  8
0
100
AcDbLine
 10
336.8660799999999
 20
150.6135
 30
0.0
 11
340.2260799999999
 21
150.6135
 31
0.0
  0
LINE
  5
38F
330
1E
100
AcDbEntity
  8
0
100
AcDbLine
 10
363.9020799999999
 20
70.6135
 30
0.0
 11
364.9020799999999
 21
70.6135
 31
0.0
  0
LINE
  5
390
330
1E
100
AcDbEntity
  8
0
100
AcDbLine
 10
363.9020799999999
 20
70.6135
 30
0.0
 11
366.4860799999999
 21
70.6135
 31
0.0
  0
LINE
  5
391
330
1E
100
AcDbEntity
  8
0
100
AcDbLine
 10
363.9020799999999
 20
70.6135
 30
0.0
 11
363.9020799999999
 21
84.61350000000001
 31
0.0
  0
LINE
  5
392
330
1E
100
AcDbEntity
  8
0
100
AcDbLine
 10
363.9020799999999
 20
70.6135
 30
0.0
 11
366.5000799999999
 21
70.6135
 31
0.0
  0
LINE
  5
393
330
1E
100
AcDbEntity
  8
0
100
AcDbLine
 10
363.9020799999999
 20
70.6135
 30
0.0
 11
364.9020799999999
 21
70.6135
 31
0.0
  0
LINE
  5
394
330
1E
100
AcDbEntity
  8
0
100
AcDbLine
 10
363.9020799999999
 20
84.61350000000001
 30
0.0
 11
363.9020799999999
 21
70.6135
 31
0.0
  0
LINE
  5
395
330
1E
100
AcDbEntity
  8
0
100
AcDbLine
 10
363.9020799999999
 20
84.61350000000001
 30
0.0
 11
364.9020799999999
 21
84.61350000000001
 31
0.0
  0
LINE
  5
396
330
1E
100
AcDbEntity
  8
0
100
AcDbLine
 10
363.4860799999999
 20
84.61350000000001
 30
0.0
 11
363.4860799999999
 21
70.6135
 31
0.0
  0
LINE
  5
397
330
1E
100
AcDbEntity
  8
0
100
AcDbLine
 10
363.4860799999999
 20
84.61350000000001
 30
0.0
 11
363.9020799999999
 21
84.61350000000001
 31
0.0
  0
LINE
  5
398
330
1E
100
AcDbEntity
  8
0
100
AcDbLine
 10
363.4860799999999
 20
70.6135
 30
0.0
 11
364.3140799999999
 21
70.6135
 31
0.0
  0
LINE
  5
399
330
1E
100
AcDbEntity
  8
0
100
AcDbLine
 10
363.4860799999999
 20
70.6135
 30
0.0
 11
363.4860799999999
 21
84.61350000000001
 31
0.0
  0
LINE
  5
39A
330
1E
100
AcDbEntity
  8
0
100
AcDbLine
 10
363.4860799999999
 20
70.6135
 30
0.0
 11
364.3140799999999
 21
70.6135
 31
0.0
  0
LINE
  5
39B
330
1E
100
AcDbEntity
  8
0
100
AcDbLine
 10
366.4860799999999
 20
62.6135
 30
0.0
 11
366.4860799999999
 21
70.6135
 31
0.0
  0
LINE
  5
39C
330
1E
100
AcDbEntity
  8
0
100
AcDbLine
 10
364.9020799999999
 20
70.6135
 30
0.0
 11
366.4860799999999
 21
70.6135
 31
0.0
  0
LINE
  5
39D
330
1E
100
AcDbEntity
  8
0
100
AcDbLine
 10
366.4860799999999
 20
70.6135
 30
0.0
 11
366.4860799999999
 21
62.6135
 31
0.0
  0
LINE
  5
39E
330
1E
100
AcDbEntity
  8
0
100
AcDbLine
 10
366.5000799999999
 20
70.6135
 30
0.0
 11
367.5000799999999
 21
70.6135
 31
0.0
  0
LINE
  5
39F
330
1E
100
AcDbEntity
  8
0
100
AcDbLine
 10
364.9020799999999
 20
70.6135
 30
0.0
 11
364.9020799999999
 21
84.61350000000001
 31
0.0
  0
LINE
  5
3A0
330
1E
100
AcDbEntity
  8
0
100
AcDbLine
 10
364.9020799999999
 20
70.6135
 30
0.0
 11
367.5000799999999
 21
70.6135
 31
0.0
  0
LINE
  5
3A1
330
1E
100
AcDbEntity
  8
0
100
AcDbLine
 10
364.3140799999999
 20
70.6135
 30
0.0
 11
366.5220799999999
 21
70.6135
 31
0.0
  0
LINE
  5
3A2
330
1E
100
AcDbEntity
  8
0
100
AcDbLine
 10
364.9020799999999
 20
84.61350000000001
 30
0.0
 11
364.9020799999999
 21
70.6135
 31
0.0
  0
LINE
  5
3A3
330
1E
100
AcDbEntity
  8
0
100
AcDbLine
 10
364.9020799999999
 20
84.61350000000001
 30
0.0
 11
367.5000799999999
 21
84.61350000000001
 31
0.0
  0
LINE
  5
3A4
330
1E
100
AcDbEntity
  8
0
100
AcDbLine
 10
366.5220799999999
 20
70.6135
 30
0.0
 11
370.2020799999999
 21
70.6135
 31
0.0
  0
LINE
  5
3A5
330
1E
100
AcDbEntity
  8
0
100
AcDbLine
 10
370.2020799999999
 20
70.6135
 30
0.0
 11
375.07808
 21
70.6135
 31
0.0
  0
LINE
  5
3A6
330
1E
100
AcDbEntity
  8
0
100
AcDbLine
 10
367.5000799999999
 20
84.61350000000001
 30
0.0
 11
370.2020799999999
 21
84.61350000000001
 31
0.0
  0
LINE
  5
3A7
330
1E
100
AcDbEntity
  8
0
100
AcDbLine
 10
370.2020799999999
 20
84.61350000000001
 30
0.0
 11
375.07808
 21
84.61350000000001
 31
0.0
  0
LINE
  5
3A8
330
1E
100
AcDbEntity
  8
0
100
AcDbLine
 10
364.3140799999999
 20
70.6135
 30
0.0
 11
366.4860799999999
 21
70.6135
 31
0.0
  0
LINE
  5
3A9
330
1E
100
AcDbEntity
  8
0
100
AcDbLine
 10
363.9180799999999
 20
84.61350000000001
 30
0.0
 11
368.0780799999999
 21
84.61350000000001
 31
0.0
  0
LINE
  5
3AA
330
1E
100
AcDbEntity
  8
0
100
AcDbLine
 10
368.0780799999999
 20
84.61350000000001
 30
0.0
 11
373.59008
 21
84.61350000000001
 31
0.0
  0
LINE
  5
3AB
330
1E
100
AcDbEntity
  8
0
100
AcDbLine
 10
379.4860799999999
 20
62.6135
 30
0.0
 11
386.2900799999999
 21
62.6135
 31
0.0
  0
LINE
  5
3AC
330
1E
100
AcDbEntity
  8
0
100
AcDbLine
 10
379.4860799999999
 20
37.6135
 30
0.0
 11
386.2900799999999
 21
37.6135
 31
0.0
  0
LINE
  5
3AD
330
1E
100
AcDbEntity
  8
0
100
AcDbLine
 10
386.2900799999999
 20
62.6135
 30
0.0
 11
392.55408
 21
62.6135
 31
0.0
  0
LINE
  5
3B0
330
1E
100
AcDbEntity
  8
0
100
AcDbLine
 10
386.2900799999999
 20
37.6135
 30
0.0
 11
392.55408
 21
37.6135
 31
0.0
  0
LINE
  5
3B1
330
1E
100
AcDbEntity
  8
0
100
AcDbLine
 10
385.4860799999999
 20
70.6135
 30
0.0
 11
385.4860799999999
 21
84.61350000000001
 31
0.0
  0
LINE
  5
3B2
330
1E
100
AcDbEntity
  8
0
100
AcDbLine
 10
385.4860799999999
 20
70.6135
 30
0.0
 11
387.4860799999999
 21
70.6135
 31
0.0
  0
LINE
  5
3B3
330
1E
100
AcDbEntity
  8
0
100
AcDbLine
 10
387.4860799999999
 20
70.6135
 30
0.0
 11
387.4860799999999
 21
84.61350000000001
 31
0.0
  0
LINE
  5
3B4
330
1E
100
AcDbEntity
  8
0
100
AcDbLine
 10
375.07808
 20
70.6135
 30
0.0
 11
380.59808
 21
70.6135
 31
0.0
  0
LINE
  5
3B5
330
1E
100
AcDbEntity
  8
0
100
AcDbLine
 10
380.59808
 20
70.6135
 30
0.0
 11
386.4860799999999
 21
70.6135
 31
0.0
  0
LINE
  5
3B6
330
1E
100
AcDbEntity
  8
0
100
AcDbLine
 10
392.37408
 20
70.6135
 30
0.0
 11
397.8940799999999
 21
70.6135
 31
0.0
  0
LINE
  5
3B7
330
1E
100
AcDbEntity
  8
0
100
AcDbLine
 10
375.07808
 20
84.61350000000001
 30
0.0
 11
380.59808
 21
84.61350000000001
 31
0.0
  0
LINE
  5
3B8
330
1E
100
AcDbEntity
  8
0
100
AcDbLine
 10
385.4860799999999
 20
84.61350000000001
 30
0.0
 11
387.4860799999999
 21
84.61350000000001
 31
0.0
  0
LINE
  5
3B9
330
1E
100
AcDbEntity
  8
0
100
AcDbLine
 10
385.4860799999999
 20
84.61350000000001
 30
0.0
 11
385.4860799999999
 21
70.6135
 31
0.0
  0
LINE
  5
3BA
330
1E
100
AcDbEntity
  8
0
100
AcDbLine
 10
380.59808
 20
84.61350000000001
 30
0.0
 11
385.4860799999999
 21
84.61350000000001
 31
0.0
  0
LINE
  5
3BB
330
1E
100
AcDbEntity
  8
0
100
AcDbLine
 10
386.4860799999999
 20
70.6135
 30
0.0
 11
392.37408
 21
70.6135
 31
0.0
  0
LINE
  5
3BC
330
1E
100
AcDbEntity
  8
0
100
AcDbLine
 10
392.55408
 20
37.6135
 30
0.0
 11
398.06208
 21
37.6135
 31
0.0
  0
LINE
  5
3BD
330
1E
100
AcDbEntity
  8
0
100
AcDbLine
 10
392.55408
 20
62.6135
 30
0.0
 11
398.06208
 21
62.6135
 31
0.0
  0
LINE
  5
3C0
330
1E
100
AcDbEntity
  8
0
100
AcDbLine
 10
392.37408
 20
84.61350000000001
 30
0.0
 11
397.8940799999999
 21
84.61350000000001
 31
0.0
  0
LINE
  5
3C1
330
1E
100
AcDbEntity
  8
0
100
AcDbLine
 10
387.4860799999999
 20
84.61350000000001
 30
0.0
 11
392.37408
 21
84.61350000000001
 31
0.0
  0
LINE
  5
3C2
330
1E
100
AcDbEntity
  8
0
100
AcDbLine
 10
387.4860799999999
 20
84.61350000000001
 30
0.0
 11
387.4860799999999
 21
70.6135
 31
0.0
  0
LINE
  5
3C3
330
1E
100
AcDbEntity
  8
0
100
AcDbLine
 10
373.59008
 20
84.61350000000001
 30
0.0
 11
379.83008
 21
84.61350000000001
 31
0.0
  0
LINE
  5
3C4
330
1E
100
AcDbEntity
  8
0
100
AcDbLine
 10
379.83008
 20
84.61350000000001
 30
0.0
 11
386.4860799999999
 21
84.61350000000001
 31
0.0
  0
LINE
  5
3C5
330
1E
100
AcDbEntity
  8
0
100
AcDbLine
 10
360.4860799999999
 20
84.61350000000001
 30
0.0
 11
361.42208
 21
84.61350000000001
 31
0.0
  0
LINE
  5
3C6
330
1E
100
AcDbEntity
  8
0
100
AcDbLine
 10
360.4860799999999
 20
84.61350000000001
 30
0.0
 11
360.4860799999999
 21
86.6135
 31
0.0
  0
LINE
  5
3C7
330
1E
100
AcDbEntity
  8
0
100
AcDbLine
 10
361.42208
 20
84.61350000000001
 30
0.0
 11
363.4860799999999
 21
84.61350000000001
 31
0.0
  0
LINE
  5
3C8
330
1E
100
AcDbEntity
  8
0
100
AcDbLine
 10
361.42208
 20
84.61350000000001
 30
0.0
 11
363.9180799999999
 21
84.61350000000001
 31
0.0
  0
LINE
  5
3C9
330
1E
100
AcDbEntity
  8
0
100
AcDbLine
 10
398.06208
 20
37.6135
 30
0.0
 11
402.2740799999999
 21
37.6135
 31
0.0
  0
LINE
  5
3CA
330
1E
100
AcDbEntity
  8
0
100
AcDbLine
 10
402.2740799999999
 20
37.6135
 30
0.0
 11
404.8660799999999
 21
37.6135
 31
0.0
  0
LINE
  5
3CB
330
1E
100
AcDbEntity
  8
0
100
AcDbLine
 10
398.06208
 20
62.6135
 30
0.0
 11
402.2740799999999
 21
62.6135
 31
0.0
  0
LINE
  5
3CD
330
1E
100
AcDbEntity
  8
0
100
AcDbLine
 10
402.2740799999999
 20
62.6135
 30
0.0
 11
404.8660799999999
 21
62.6135
 31
0.0
  0
LINE
  5
3CF
330
1E
100
AcDbEntity
  8
0
100
AcDbLine
 10
402.7700799999999
 20
70.6135
 30
0.0
 11
406.4500799999999
 21
70.6135
 31
0.0
  0
LINE
  5
3D0
330
1E
100
AcDbEntity
  8
0
100
AcDbLine
 10
397.8940799999999
 20
70.6135
 30
0.0
 11
402.7700799999999
 21
70.6135
 31
0.0
  0
LINE
  5
3D1
330
1E
100
AcDbEntity
  8
0
100
AcDbLine
 10
404.8660799999999
 20
62.6135
 30
0.0
 11
405.83808
 21
62.6135
 31
0.0
  0
LINE
  5
3D4
330
1E
100
AcDbEntity
  8
0
100
AcDbLine
 10
404.8660799999999
 20
37.6135
 30
0.0
 11
405.83808
 21
37.6135
 31
0.0
  0
LINE
  5
3D5
330
1E
100
AcDbEntity
  8
0
100
AcDbLine
 10
403.84608
 20
62.6135
 30
0.0
 11
405.7660799999999
 21
62.6135
 31
0.0
  0
LINE
  5
3D6
330
1E
100
AcDbEntity
  8
0
100
AcDbLine
 10
402.7700799999999
 20
84.61350000000001
 30
0.0
 11
405.47208
 21
84.61350000000001
 31
0.0
  0
LINE
  5
3D7
330
1E
100
AcDbEntity
  8
0
100
AcDbLine
 10
397.8940799999999
 20
84.61350000000001
 30
0.0
 11
402.7700799999999
 21
84.61350000000001
 31
0.0
  0
LINE
  5
3D8
330
1E
100
AcDbEntity
  8
0
100
AcDbLine
 10
406.4860799999999
 20
38.57549999999999
 30
0.0
 11
406.4860799999999
 21
61.652
 31
0.0
  0
LINE
  5
3D9
330
1E
100
AcDbEntity
  8
0
100
AcDbLine
 10
405.83808
 20
62.6135
 30
0.0
 11
406.4860799999999
 21
61.652
 31
0.0
  0
LINE
  5
3DA
330
1E
100
AcDbEntity
  8
0
100
AcDbLine
 10
405.83808
 20
62.6135
 30
0.0
 11
406.4860799999999
 21
62.6135
 31
0.0
  0
LINE
  5
3DB
330
1E
100
AcDbEntity
  8
0
100
AcDbLine
 10
405.83808
 20
37.6135
 30
0.0
 11
406.4860799999999
 21
38.57549999999999
 31
0.0
  0
LINE
  5
3DC
330
1E
100
AcDbEntity
  8
0
100
AcDbLine
 10
406.4860799999999
 20
61.652
 30
0.0
 11
406.4860799999999
 21
38.57549999999999
 31
0.0
  0
LINE
  5
3DD
330
1E
100
AcDbEntity
  8
0
100
AcDbLine
 10
405.7660799999999
 20
62.6135
 30
0.0
 11
406.4860799999999
 21
62.6135
 31
0.0
  0
LINE
  5
3DE
330
1E
100
AcDbEntity
  8
0
100
AcDbLine
 10
406.4860799999999
 20
62.6135
 30
0.0
 11
406.4860799999999
 21
70.6135
 31
0.0
  0
LINE
  5
3DF
330
1E
100
AcDbEntity
  8
0
100
AcDbLine
 10
408.0700799999999
 20
70.6135
 30
0.0
 11
409.0700799999999
 21
70.6135
 31
0.0
  0
LINE
  5
3E0
330
1E
100
AcDbEntity
  8
0
100
AcDbLine
 10
408.65808
 20
70.6135
 30
0.0
 11
409.4860799999999
 21
70.6135
 31
0.0
  0
LINE
  5
3E1
330
1E
100
AcDbEntity
  8
0
100
AcDbLine
 10
405.47208
 20
70.6135
 30
0.0
 11
408.0700799999999
 21
70.6135
 31
0.0
  0
LINE
  5
3E2
330
1E
100
AcDbEntity
  8
0
100
AcDbLine
 10
405.47208
 20
70.6135
 30
0.0
 11
406.4720799999999
 21
70.6135
 31
0.0
  0
LINE
  5
3E3
330
1E
100
AcDbEntity
  8
0
100
AcDbLine
 10
406.4860799999999
 20
70.6135
 30
0.0
 11
406.4860799999999
 21
62.6135
 31
0.0
  0
LINE
  5
3E4
330
1E
100
AcDbEntity
  8
0
100
AcDbLine
 10
408.0700799999999
 20
70.6135
 30
0.0
 11
408.0700799999999
 21
84.61350000000001
 31
0.0
  0
LINE
  5
3E5
330
1E
100
AcDbEntity
  8
0
100
AcDbLine
 10
408.0700799999999
 20
70.6135
 30
0.0
 11
409.0700799999999
 21
70.6135
 31
0.0
  0
LINE
  5
3E6
330
1E
100
AcDbEntity
  8
0
100
AcDbLine
 10
406.4720799999999
 20
70.6135
 30
0.0
 11
409.0700799999999
 21
70.6135
 31
0.0
  0
LINE
  5
3E7
330
1E
100
AcDbEntity
  8
0
100
AcDbLine
 10
406.4860799999999
 20
70.6135
 30
0.0
 11
408.65808
 21
70.6135
 31
0.0
  0
LINE
  5
3E8
330
1E
100
AcDbEntity
  8
0
100
AcDbLine
 10
406.4860799999999
 20
70.6135
 30
0.0
 11
408.0700799999999
 21
70.6135
 31
0.0
  0
LINE
  5
3E9
330
1E
100
AcDbEntity
  8
0
100
AcDbLine
 10
406.4860799999999
 20
70.6135
 30
0.0
 11
409.0700799999999
 21
70.6135
 31
0.0
  0
LINE
  5
3EA
330
1E
100
AcDbEntity
  8
0
100
AcDbLine
 10
409.0700799999999
 20
70.6135
 30
0.0
 11
409.0700799999999
 21
84.61350000000001
 31
0.0
  0
LINE
  5
3EB
330
1E
100
AcDbEntity
  8
0
100
AcDbLine
 10
408.65808
 20
70.6135
 30
0.0
 11
409.4860799999999
 21
70.6135
 31
0.0
  0
LINE
  5
3EC
330
1E
100
AcDbEntity
  8
0
100
AcDbLine
 10
405.47208
 20
84.61350000000001
 30
0.0
 11
408.0700799999999
 21
84.61350000000001
 31
0.0
  0
LINE
  5
3ED
330
1E
100
AcDbEntity
  8
0
100
AcDbLine
 10
408.0700799999999
 20
84.61350000000001
 30
0.0
 11
409.0700799999999
 21
84.61350000000001
 31
0.0
  0
LINE
  5
3EE
330
1E
100
AcDbEntity
  8
0
100
AcDbLine
 10
408.0700799999999
 20
84.61350000000001
 30
0.0
 11
408.0700799999999
 21
70.6135
 31
0.0
  0
LINE
  5
3EF
330
1E
100
AcDbEntity
  8
0
100
AcDbLine
 10
406.4500799999999
 20
70.6135
 30
0.0
 11
408.65808
 21
70.6135
 31
0.0
  0
LINE
  5
3F0
330
1E
100
AcDbEntity
  8
0
100
AcDbLine
 10
409.4860799999999
 20
70.6135
 30
0.0
 11
409.4860799999999
 21
84.61350000000001
 31
0.0
  0
LINE
  5
3F1
330
1E
100
AcDbEntity
  8
0
100
AcDbLine
 10
409.0700799999999
 20
84.61350000000001
 30
0.0
 11
409.4860799999999
 21
84.61350000000001
 31
0.0
  0
LINE
  5
3F2
330
1E
100
AcDbEntity
  8
0
100
AcDbLine
 10
409.0700799999999
 20
84.61350000000001
 30
0.0
 11
409.0700799999999
 21
70.6135
 31
0.0
  0
LINE
  5
3F3
330
1E
100
AcDbEntity
  8
0
100
AcDbLine
 10
409.4860799999999
 20
84.61350000000001
 30
0.0
 11
411.5500799999999
 21
84.61350000000001
 31
0.0
  0
LINE
  5
3F4
330
1E
100
AcDbEntity
  8
0
100
AcDbLine
 10
409.4860799999999
 20
84.61350000000001
 30
0.0
 11
409.4860799999999
 21
70.6135
 31
0.0
  0
LINE
  5
3F5
330
1E
100
AcDbEntity
  8
0
100
AcDbLine
 10
412.4860799999999
 20
84.61350000000001
 30
0.0
 11
412.4860799999999
 21
86.6135
 31
0.0
  0
LINE
  5
3F6
330
1E
100
AcDbEntity
  8
0
100
AcDbLine
 10
411.5500799999999
 20
84.61350000000001
 30
0.0
 11
412.4860799999999
 21
84.61350000000001
 31
0.0
  0
LINE
  5
3F7
330
1E
100
AcDbEntity
  8
0
100
AcDbLine
 10
409.05408
 20
84.61350000000001
 30
0.0
 11
411.5500799999999
 21
84.61350000000001
 31
0.0
  0
LINE
  5
3F8
330
1E
100
AcDbEntity
  8
0
100
AcDbLine
 10
404.8940799999999
 20
84.61350000000001
 30
0.0
 11
409.05408
 21
84.61350000000001
 31
0.0
  0
LINE
  5
3F9
330
1E
100
AcDbEntity
  8
0
100
AcDbLine
 10
399.3820799999999
 20
84.61350000000001
 30
0.0
 11
404.8940799999999
 21
84.61350000000001
 31
0.0
  0
LINE
  5
3FA
330
1E
100
AcDbEntity
  8
0
100
AcDbLine
 10
393.1420799999999
 20
84.61350000000001
 30
0.0
 11
399.3820799999999
 21
84.61350000000001
 31
0.0
  0
LINE
  5
3FB
330
1E
100
AcDbEntity
  8
0
100
AcDbLine
 10
386.4860799999999
 20
84.61350000000001
 30
0.0
 11
393.1420799999999
 21
84.61350000000001
 31
0.0
  0
LINE
  5
3FC
330
1E
100
AcDbEntity
  8
0
100
AcDbLine
 10
431.4860799999999
 20
85.6135
 30
0.0
 11
431.4860799999999
 21
86.54949999999999
 31
0.0
  0
LINE
  5
3FD
330
1E
100
AcDbEntity
  8
0
100
AcDbLine
 10
431.4860799999999
 20
85.6135
 30
0.0
 11
433.4860799999999
 21
85.6135
 31
0.0
  0
LINE
  5
3FE
330
1E
100
AcDbEntity
  8
0
100
AcDbLine
 10
367.276091969878
 20
86.6135
 30
0.0
 11
368.2240799999999
 21
93.8133
 31
0.0
  0
LINE
  5
3FF
330
1E
100
AcDbEntity
  8
0
100
AcDbLine
 10
361.42208
 20
86.6135
 30
0.0
 11
363.9180799999999
 21
86.6135
 31
0.0
  0
LINE
  5
400
330
1E
100
AcDbEntity
  8
0
100
AcDbLine
 10
363.9180799999999
 20
86.6135
 30
0.0
 11
368.0780799999999
 21
86.6135
 31
0.0
  0
LINE
  5
401
330
1E
100
AcDbEntity
  8
0
100
AcDbLine
 10
368.0780799999999
 20
86.6135
 30
0.0
 11
373.59008
 21
86.6135
 31
0.0
  0
LINE
  5
402
330
1E
100
AcDbEntity
  8
0
100
AcDbLine
 10
373.59008
 20
86.6135
 30
0.0
 11
379.83008
 21
86.6135
 31
0.0
  0
LINE
  5
403
330
1E
100
AcDbEntity
  8
0
100
AcDbLine
 10
379.83008
 20
86.6135
 30
0.0
 11
386.4860799999999
 21
86.6135
 31
0.0
  0
LINE
  5
404
330
1E
100
AcDbEntity
  8
0
100
AcDbLine
 10
360.4860799999999
 20
86.6135
 30
0.0
 11
360.4860799999999
 21
84.61350000000001
 31
0.0
  0
LINE
  5
405
330
1E
100
AcDbEntity
  8
0
100
AcDbLine
 10
360.4860799999999
 20
86.6135
 30
0.0
 11
361.42208
 21
86.6135
 31
0.0
  0
LINE
  5
406
330
1E
100
AcDbEntity
  8
0
100
AcDbLine
 10
408.343716204021
 20
86.6135
 30
0.0
 11
409.7080799999999
 21
88.39170000000001
 31
0.0
  0
LINE
  5
407
330
1E
100
AcDbEntity
  8
0
100
AcDbLine
 10
412.4860799999999
 20
86.6135
 30
0.0
 11
412.4860799999999
 21
84.61350000000001
 31
0.0
  0
LINE
  5
408
330
1E
100
AcDbEntity
  8
0
100
AcDbLine
 10
411.5500799999999
 20
86.6135
 30
0.0
 11
412.4860799999999
 21
86.6135
 31
0.0
  0
LINE
  5
409
330
1E
100
AcDbEntity
  8
0
100
AcDbLine
 10
409.05408
 20
86.6135
 30
0.0
 11
411.5500799999999
 21
86.6135
 31
0.0
  0
LINE
  5
40A
330
1E
100
AcDbEntity
  8
0
100
AcDbLine
 10
404.8940799999999
 20
86.6135
 30
0.0
 11
409.05408
 21
86.6135
 31
0.0
  0
LINE
  5
40B
330
1E
100
AcDbEntity
  8
0
100
AcDbLine
 10
399.3820799999999
 20
86.6135
 30
0.0
 11
404.8940799999999
 21
86.6135
 31
0.0
  0
LINE
  5
40C
330
1E
100
AcDbEntity
  8
0
100
AcDbLine
 10
393.1420799999999
 20
86.6135
 30
0.0
 11
399.3820799999999
 21
86.6135
 31
0.0
  0
LINE
  5
40D
330
1E
100
AcDbEntity
  8
0
100
AcDbLine
 10
409.7080799999999
 20
88.39170000000001
 30
0.0
 11
411.9860799999999
 21
90.1398
 31
0.0
  0
LINE
  5
40E
330
1E
100
AcDbEntity
  8
0
100
AcDbLine
 10
414.6390799999999
 20
91.2387
 30
0.0
 11
417.4860799999999
 21
91.6135
 31
0.0
  0
LINE
  5
40F
330
1E
100
AcDbEntity
  8
0
100
AcDbLine
 10
411.9860799999999
 20
90.1398
 30
0.0
 11
414.6390799999999
 21
91.2387
 31
0.0
  0
LINE
  5
410
330
1E
100
AcDbEntity
  8
0
100
AcDbLine
 10
417.4860799999999
 20
91.6135
 30
0.0
 11
431.4860799999999
 21
91.6135
 31
0.0
  0
LINE
  5
411
330
1E
100
AcDbEntity
  8
0
100
AcDbLine
 10
386.4860799999999
 20
86.6135
 30
0.0
 11
393.1420799999999
 21
86.6135
 31
0.0
  0
LINE
  5
412
330
1E
100
AcDbEntity
  8
0
100
AcDbLine
 10
431.4860799999999
 20
91.6135
 30
0.0
 11
431.4860799999999
 21
89.0455
 31
0.0
  0
LINE
  5
413
330
1E
100
AcDbEntity
  8
0
100
AcDbLine
 10
431.4860799999999
 20
86.54949999999999
 30
0.0
 11
431.4860799999999
 21
89.0455
 31
0.0
  0
LINE
  5
414
330
1E
100
AcDbEntity
  8
0
100
AcDbLine
 10
431.4860799999999
 20
86.54949999999999
 30
0.0
 11
431.4860799999999
 21
85.6135
 31
0.0
  0
LINE
  5
415
330
1E
100
AcDbEntity
  8
0
100
AcDbLine
 10
431.4860799999999
 20
89.0455
 30
0.0
 11
431.4860799999999
 21
93.2055
 31
0.0
  0
LINE
  5
416
330
1E
100
AcDbEntity
  8
0
100
AcDbLine
 10
431.4860799999999
 20
89.0455
 30
0.0
 11
431.4860799999999
 21
86.54949999999999
 31
0.0
  0
LINE
  5
417
330
1E
100
AcDbEntity
  8
0
100
AcDbLine
 10
431.4860799999999
 20
89.0455
 30
0.0
 11
431.4860799999999
 21
91.6135
 31
0.0
  0
LINE
  5
418
330
1E
100
AcDbEntity
  8
0
100
AcDbLine
 10
368.2240799999999
 20
93.8133
 30
0.0
 11
373.31908
 21
106.1134999999999
 31
0.0
  0
LINE
  5
419
330
1E
100
AcDbEntity
  8
0
100
AcDbLine
 10
431.4860799999999
 20
93.2055
 30
0.0
 11
431.4860799999999
 21
98.7175
 31
0.0
  0
LINE
  5
41A
330
1E
100
AcDbEntity
  8
0
100
AcDbLine
 10
431.4860799999999
 20
93.2055
 30
0.0
 11
431.4860799999999
 21
89.0455
 31
0.0
  0
LINE
  5
41B
330
1E
100
AcDbEntity
  8
0
100
AcDbLine
 10
433.4860799999999
 20
85.6135
 30
0.0
 11
433.4860799999999
 21
86.54949999999999
 31
0.0
  0
LINE
  5
41C
330
1E
100
AcDbEntity
  8
0
100
AcDbLine
 10
433.4860799999999
 20
90.0299
 30
0.0
 11
447.48608
 21
90.0299
 31
0.0
  0
LINE
  5
41D
330
1E
100
AcDbEntity
  8
0
100
AcDbLine
 10
433.4860799999999
 20
89.0299
 30
0.0
 11
447.48608
 21
89.0299
 31
0.0
  0
LINE
  5
41E
330
1E
100
AcDbEntity
  8
0
100
AcDbLine
 10
433.4860799999999
 20
88.61349999999999
 30
0.0
 11
447.48608
 21
88.61349999999999
 31
0.0
  0
LINE
  5
41F
330
1E
100
AcDbEntity
  8
0
100
AcDbLine
 10
433.4860799999999
 20
86.54949999999999
 30
0.0
 11
433.4860799999999
 21
89.0455
 31
0.0
  0
LINE
  5
420
330
1E
100
AcDbEntity
  8
0
100
AcDbLine
 10
433.4860799999999
 20
86.54949999999999
 30
0.0
 11
433.4860799999999
 21
85.6135
 31
0.0
  0
LINE
  5
421
330
1E
100
AcDbEntity
  8
0
100
AcDbLine
 10
433.4860799999999
 20
89.0455
 30
0.0
 11
433.4860799999999
 21
93.2055
 31
0.0
  0
LINE
  5
422
330
1E
100
AcDbEntity
  8
0
100
AcDbLine
 10
433.4860799999999
 20
89.0455
 30
0.0
 11
433.4860799999999
 21
86.54949999999999
 31
0.0
  0
LINE
  5
423
330
1E
100
AcDbEntity
  8
0
100
AcDbLine
 10
433.4860799999999
 20
93.2055
 30
0.0
 11
433.4860799999999
 21
98.7175
 31
0.0
  0
LINE
  5
424
330
1E
100
AcDbEntity
  8
0
100
AcDbLine
 10
433.4860799999999
 20
93.2055
 30
0.0
 11
433.4860799999999
 21
89.0455
 31
0.0
  0
LINE
  5
425
330
1E
100
AcDbEntity
  8
0
100
AcDbLine
 10
447.48608
 20
91.6135
 30
0.0
 11
469.4860799999999
 21
91.6135
 31
0.0
  0
LINE
  5
426
330
1E
100
AcDbEntity
  8
0
100
AcDbLine
 10
447.48608
 20
90.0299
 30
0.0
 11
447.48608
 21
92.6279
 31
0.0
  0
LINE
  5
427
330
1E
100
AcDbEntity
  8
0
100
AcDbLine
 10
447.48608
 20
90.0299
 30
0.0
 11
447.48608
 21
89.0299
 31
0.0
  0
LINE
  5
428
330
1E
100
AcDbEntity
  8
0
100
AcDbLine
 10
447.48608
 20
89.0299
 30
0.0
 11
447.48608
 21
88.61349999999999
 31
0.0
  0
LINE
  5
429
330
1E
100
AcDbEntity
  8
0
100
AcDbLine
 10
447.48608
 20
89.0299
 30
0.0
 11
447.48608
 21
90.0299
 31
0.0
  0
LINE
  5
42A
330
1E
100
AcDbEntity
  8
0
100
AcDbLine
 10
447.48608
 20
88.61349999999999
 30
0.0
 11
447.48608
 21
89.0299
 31
0.0
  0
LINE
  5
42B
330
1E
100
AcDbEntity
  8
0
100
AcDbLine
 10
447.48608
 20
92.6279
 30
0.0
 11
447.48608
 21
95.32949999999999
 31
0.0
  0
LINE
  5
42C
330
1E
100
AcDbEntity
  8
0
100
AcDbLine
 10
447.48608
 20
92.6279
 30
0.0
 11
447.48608
 21
90.0299
 31
0.0
  0
LINE
  5
42D
330
1E
100
AcDbEntity
  8
0
100
AcDbLine
 10
477.2640799999999
 20
88.39170000000001
 30
0.0
 11
523.42408
 21
41.66199999999999
 31
0.0
  0
LINE
  5
42E
330
1E
100
AcDbEntity
  8
0
100
AcDbLine
 10
474.9860799999999
 20
90.1398
 30
0.0
 11
477.2640799999999
 21
88.39170000000001
 31
0.0
  0
LINE
  5
42F
330
1E
100
AcDbEntity
  8
0
100
AcDbLine
 10
469.4860799999999
 20
91.6135
 30
0.0
 11
472.33308
 21
91.2387
 31
0.0
  0
LINE
  5
430
330
1E
100
AcDbEntity
  8
0
100
AcDbLine
 10
472.33308
 20
91.2387
 30
0.0
 11
474.9860799999999
 21
90.1398
 31
0.0
  0
LINE
  5
431
330
1E
100
AcDbEntity
  8
0
100
AcDbLine
 10
447.48608
 20
95.32949999999999
 30
0.0
 11
447.48608
 21
100.2054999999999
 31
0.0
  0
LINE
  5
432
330
1E
100
AcDbEntity
  8
0
100
AcDbLine
 10
447.48608
 20
95.32949999999999
 30
0.0
 11
447.48608
 21
92.6279
 31
0.0
  0
LINE
  5
433
330
1E
100
AcDbEntity
  8
0
100
AcDbLine
 10
447.48608
 20
100.2054999999999
 30
0.0
 11
447.48608
 21
105.7255
 31
0.0
  0
LINE
  5
434
330
1E
100
AcDbEntity
  8
0
100
AcDbLine
 10
447.48608
 20
100.2054999999999
 30
0.0
 11
447.48608
 21
95.32949999999999
 31
0.0
  0
LINE
  5
435
330
1E
100
AcDbEntity
  8
0
100
AcDbLine
 10
433.4860799999999
 20
98.7175
 30
0.0
 11
433.4860799999999
 21
104.9574999999999
 31
0.0
  0
LINE
  5
436
330
1E
100
AcDbEntity
  8
0
100
AcDbLine
 10
433.4860799999999
 20
98.7175
 30
0.0
 11
433.4860799999999
 21
93.2055
 31
0.0
  0
LINE
  5
437
330
1E
100
AcDbEntity
  8
0
100
AcDbLine
 10
433.4860799999999
 20
104.9574999999999
 30
0.0
 11
433.4860799999999
 21
111.6135
 31
0.0
  0
LINE
  5
438
330
1E
100
AcDbEntity
  8
0
100
AcDbLine
 10
433.4860799999999
 20
104.9574999999999
 30
0.0
 11
433.4860799999999
 21
98.7175
 31
0.0
  0
LINE
  5
439
330
1E
100
AcDbEntity
  8
0
100
AcDbLine
 10
431.4860799999999
 20
98.7175
 30
0.0
 11
431.4860799999999
 21
104.9574999999999
 31
0.0
  0
LINE
  5
43A
330
1E
100
AcDbEntity
  8
0
100
AcDbLine
 10
431.4860799999999
 20
98.7175
 30
0.0
 11
431.4860799999999
 21
93.2055
 31
0.0
  0
LINE
  5
43B
330
1E
100
AcDbEntity
  8
0
100
AcDbLine
 10
373.31908
 20
106.1134999999999
 30
0.0
 11
381.42408
 21
116.6759
 31
0.0
  0
LINE
  5
43C
330
1E
100
AcDbEntity
  8
0
100
AcDbLine
 10
381.42408
 20
116.6759
 30
0.0
 11
391.9860799999999
 21
124.7808
 31
0.0
  0
LINE
  5
43D
330
1E
100
AcDbEntity
  8
0
100
AcDbLine
 10
404.2860799999999
 20
129.8756999999999
 30
0.0
 11
417.4860799999999
 21
131.6134999999999
 31
0.0
  0
LINE
  5
43E
330
1E
100
AcDbEntity
  8
0
100
AcDbLine
 10
391.9860799999999
 20
124.7808
 30
0.0
 11
404.2860799999999
 21
129.8756999999999
 31
0.0
  0
LINE
  5
43F
330
1E
100
AcDbEntity
  8
0
100
AcDbLine
 10
417.4860799999999
 20
131.6134999999999
 30
0.0
 11
431.4860799999999
 21
131.6134999999999
 31
0.0
  0
LINE
  5
440
330
1E
100
AcDbEntity
  8
0
100
AcDbLine
 10
431.4860799999999
 20
130.0215
 30
0.0
 11
431.4860799999999
 21
134.1814999999999
 31
0.0
  0
LINE
  5
441
330
1E
100
AcDbEntity
  8
0
100
AcDbLine
 10
431.4860799999999
 20
130.0215
 30
0.0
 11
431.4860799999999
 21
124.5095
 31
0.0
  0
LINE
  5
442
330
1E
100
AcDbEntity
  8
0
100
AcDbLine
 10
431.4860799999999
 20
124.5095
 30
0.0
 11
431.4860799999999
 21
130.0215
 31
0.0
  0
LINE
  5
443
330
1E
100
AcDbEntity
  8
0
100
AcDbLine
 10
431.4860799999999
 20
124.5095
 30
0.0
 11
431.4860799999999
 21
118.2695
 31
0.0
  0
LINE
  5
444
330
1E
100
AcDbEntity
  8
0
100
AcDbLine
 10
431.4860799999999
 20
118.2695
 30
0.0
 11
431.4860799999999
 21
124.5095
 31
0.0
  0
LINE
  5
445
330
1E
100
AcDbEntity
  8
0
100
AcDbLine
 10
431.4860799999999
 20
118.2695
 30
0.0
 11
431.4860799999999
 21
111.6135
 31
0.0
  0
LINE
  5
446
330
1E
100
AcDbEntity
  8
0
100
AcDbLine
 10
431.4860799999999
 20
131.6134999999999
 30
0.0
 11
431.4860799999999
 21
134.1814999999999
 31
0.0
  0
LINE
  5
447
330
1E
100
AcDbEntity
  8
0
100
AcDbLine
 10
344.4860799999999
 20
136.6134999999999
 30
0.0
 11
344.4860799999999
 21
140.6134999999999
 31
0.0
  0
LINE
  5
448
330
1E
100
AcDbEntity
  8
0
100
AcDbLine
 10
343.1180799999999
 20
136.6134999999999
 30
0.0
 11
344.4860799999999
 21
136.6134999999999
 31
0.0
  0
LINE
  5
449
330
1E
100
AcDbEntity
  8
0
100
AcDbLine
 10
431.4860799999999
 20
136.6775
 30
0.0
 11
431.4860799999999
 21
137.6134999999999
 31
0.0
  0
LINE
  5
44A
330
1E
100
AcDbEntity
  8
0
100
AcDbLine
 10
431.4860799999999
 20
136.6775
 30
0.0
 11
431.4860799999999
 21
134.1814999999999
 31
0.0
  0
LINE
  5
44B
330
1E
100
AcDbEntity
  8
0
100
AcDbLine
 10
344.4860799999999
 20
140.6134999999999
 30
0.0
 11
344.4860799999999
 21
136.6134999999999
 31
0.0
  0
LINE
  5
44C
330
1E
100
AcDbEntity
  8
0
100
AcDbLine
 10
343.1180799999999
 20
140.6134999999999
 30
0.0
 11
344.4860799999999
 21
140.6134999999999
 31
0.0
  0
LINE
  5
44D
330
1E
100
AcDbEntity
  8
0
100
AcDbLine
 10
431.4860799999999
 20
137.6134999999999
 30
0.0
 11
431.4860799999999
 21
136.6775
 31
0.0
  0
LINE
  5
44E
330
1E
100
AcDbEntity
  8
0
100
AcDbLine
 10
431.4860799999999
 20
137.6134999999999
 30
0.0
 11
433.4860799999999
 21
137.6134999999999
 31
0.0
  0
LINE
  5
44F
330
1E
100
AcDbEntity
  8
0
100
AcDbLine
 10
431.4860799999999
 20
137.6134999999999
 30
0.0
 11
431.4860799999999
 21
136.6775
 31
0.0
  0
LINE
  5
450
330
1E
100
AcDbEntity
  8
0
100
AcDbLine
 10
431.4860799999999
 20
136.6775
 30
0.0
 11
431.4860799999999
 21
134.1814999999999
 31
0.0
  0
LINE
  5
451
330
1E
100
AcDbEntity
  8
0
100
AcDbLine
 10
431.4860799999999
 20
136.6775
 30
0.0
 11
431.4860799999999
 21
137.6134999999999
 31
0.0
  0
LINE
  5
452
330
1E
100
AcDbEntity
  8
0
100
AcDbLine
 10
431.4860799999999
 20
134.1814999999999
 30
0.0
 11
431.4860799999999
 21
131.6134999999999
 31
0.0
  0
LINE
  5
453
330
1E
100
AcDbEntity
  8
0
100
AcDbLine
 10
431.4860799999999
 20
134.1814999999999
 30
0.0
 11
431.4860799999999
 21
136.6775
 31
0.0
  0
LINE
  5
454
330
1E
100
AcDbEntity
  8
0
100
AcDbLine
 10
431.4860799999999
 20
134.1814999999999
 30
0.0
 11
431.4860799999999
 21
136.6775
 31
0.0
  0
LINE
  5
455
330
1E
100
AcDbEntity
  8
0
100
AcDbLine
 10
431.4860799999999
 20
134.1814999999999
 30
0.0
 11
431.4860799999999
 21
130.0215
 31
0.0
  0
LINE
  5
456
330
1E
100
AcDbEntity
  8
0
100
AcDbLine
 10
433.4860799999999
 20
110.6135
 30
0.0
 11
447.48608
 21
110.6135
 31
0.0
  0
LINE
  5
457
330
1E
100
AcDbEntity
  8
0
100
AcDbLine
 10
447.48608
 20
110.6135
 30
0.0
 11
447.48608
 21
105.7255
 31
0.0
  0
LINE
  5
458
330
1E
100
AcDbEntity
  8
0
100
AcDbLine
 10
447.48608
 20
110.6135
 30
0.0
 11
447.48608
 21
112.6135
 31
0.0
  0
LINE
  5
459
330
1E
100
AcDbEntity
  8
0
100
AcDbLine
 10
447.48608
 20
105.7255
 30
0.0
 11
447.48608
 21
110.6135
 31
0.0
  0
LINE
  5
45A
330
1E
100
AcDbEntity
  8
0
100
AcDbLine
 10
447.48608
 20
105.7255
 30
0.0
 11
447.48608
 21
100.2054999999999
 31
0.0
  0
LINE
  5
45B
330
1E
100
AcDbEntity
  8
0
100
AcDbLine
 10
433.4860799999999
 20
112.6135
 30
0.0
 11
447.48608
 21
112.6135
 31
0.0
  0
LINE
  5
45C
330
1E
100
AcDbEntity
  8
0
100
AcDbLine
 10
433.4860799999999
 20
133.1971
 30
0.0
 11
447.48608
 21
133.1971
 31
0.0
  0
LINE
  5
45D
330
1E
100
AcDbEntity
  8
0
100
AcDbLine
 10
433.4860799999999
 20
134.1971
 30
0.0
 11
447.48608
 21
134.1971
 31
0.0
  0
LINE
  5
45E
330
1E
100
AcDbEntity
  8
0
100
AcDbLine
 10
433.4860799999999
 20
134.6134999999999
 30
0.0
 11
447.48608
 21
134.6134999999999
 31
0.0
  0
LINE
  5
45F
330
1E
100
AcDbEntity
  8
0
100
AcDbLine
 10
433.4860799999999
 20
137.6134999999999
 30
0.0
 11
433.4860799999999
 21
136.6775
 31
0.0
  0
LINE
  5
460
330
1E
100
AcDbEntity
  8
0
100
AcDbLine
 10
433.4860799999999
 20
136.6775
 30
0.0
 11
433.4860799999999
 21
137.6134999999999
 31
0.0
  0
LINE
  5
461
330
1E
100
AcDbEntity
  8
0
100
AcDbLine
 10
433.4860799999999
 20
136.6775
 30
0.0
 11
433.4860799999999
 21
134.1814999999999
 31
0.0
  0
LINE
  5
462
330
1E
100
AcDbEntity
  8
0
100
AcDbLine
 10
433.4860799999999
 20
134.1814999999999
 30
0.0
 11
433.4860799999999
 21
136.6775
 31
0.0
  0
LINE
  5
463
330
1E
100
AcDbEntity
  8
0
100
AcDbLine
 10
433.4860799999999
 20
134.1814999999999
 30
0.0
 11
433.4860799999999
 21
130.0215
 31
0.0
  0
LINE
  5
464
330
1E
100
AcDbEntity
  8
0
100
AcDbLine
 10
433.4860799999999
 20
130.0215
 30
0.0
 11
433.4860799999999
 21
134.1814999999999
 31
0.0
  0
LINE
  5
465
330
1E
100
AcDbEntity
  8
0
100
AcDbLine
 10
433.4860799999999
 20
130.0215
 30
0.0
 11
433.4860799999999
 21
124.5095
 31
0.0
  0
LINE
  5
466
330
1E
100
AcDbEntity
  8
0
100
AcDbLine
 10
433.4860799999999
 20
124.5095
 30
0.0
 11
433.4860799999999
 21
130.0215
 31
0.0
  0
LINE
  5
467
330
1E
100
AcDbEntity
  8
0
100
AcDbLine
 10
433.4860799999999
 20
124.5095
 30
0.0
 11
433.4860799999999
 21
118.2695
 31
0.0
  0
LINE
  5
468
330
1E
100
AcDbEntity
  8
0
100
AcDbLine
 10
447.48608
 20
131.6134999999999
 30
0.0
 11
469.4860799999999
 21
131.6134999999999
 31
0.0
  0
LINE
  5
469
330
1E
100
AcDbEntity
  8
0
100
AcDbLine
 10
447.48608
 20
133.1971
 30
0.0
 11
447.48608
 21
130.5990999999999
 31
0.0
  0
LINE
  5
46A
330
1E
100
AcDbEntity
  8
0
100
AcDbLine
 10
447.48608
 20
133.1971
 30
0.0
 11
447.48608
 21
134.1971
 31
0.0
  0
LINE
  5
46B
330
1E
100
AcDbEntity
  8
0
100
AcDbLine
 10
447.48608
 20
130.5990999999999
 30
0.0
 11
447.48608
 21
127.8974999999999
 31
0.0
  0
LINE
  5
46C
330
1E
100
AcDbEntity
  8
0
100
AcDbLine
 10
447.48608
 20
130.5990999999999
 30
0.0
 11
447.48608
 21
133.1971
 31
0.0
  0
LINE
  5
46D
330
1E
100
AcDbEntity
  8
0
100
AcDbLine
 10
447.48608
 20
134.6134999999999
 30
0.0
 11
447.48608
 21
134.1971
 31
0.0
  0
LINE
  5
46E
330
1E
100
AcDbEntity
  8
0
100
AcDbLine
 10
447.48608
 20
134.1971
 30
0.0
 11
447.48608
 21
134.6134999999999
 31
0.0
  0
LINE
  5
46F
330
1E
100
AcDbEntity
  8
0
100
AcDbLine
 10
447.48608
 20
134.1971
 30
0.0
 11
447.48608
 21
133.1971
 31
0.0
  0
LINE
  5
470
330
1E
100
AcDbEntity
  8
0
100
AcDbLine
 10
447.48608
 20
127.8974999999999
 30
0.0
 11
447.48608
 21
130.5990999999999
 31
0.0
  0
LINE
  5
471
330
1E
100
AcDbEntity
  8
0
100
AcDbLine
 10
447.48608
 20
127.8974999999999
 30
0.0
 11
447.48608
 21
123.0215
 31
0.0
  0
LINE
  5
472
330
1E
100
AcDbEntity
  8
0
100
AcDbLine
 10
447.48608
 20
123.0215
 30
0.0
 11
447.48608
 21
127.8974999999999
 31
0.0
  0
LINE
  5
473
330
1E
100
AcDbEntity
  8
0
100
AcDbLine
 10
447.48608
 20
123.0215
 30
0.0
 11
447.48608
 21
117.5014999999999
 31
0.0
  0
LINE
  5
474
330
1E
100
AcDbEntity
  8
0
100
AcDbLine
 10
505.5480799999999
 20
116.6759
 30
0.0
 11
551.70808
 21
69.94620000000001
 31
0.0
  0
LINE
  5
475
330
1E
100
AcDbEntity
  8
0
100
AcDbLine
 10
494.9860799999999
 20
124.7808
 30
0.0
 11
505.5480799999999
 21
116.6759
 31
0.0
  0
LINE
  5
476
330
1E
100
AcDbEntity
  8
0
100
AcDbLine
 10
469.4860799999999
 20
131.6134999999999
 30
0.0
 11
482.68608
 21
129.8756999999999
 31
0.0
  0
LINE
  5
477
330
1E
100
AcDbEntity
  8
0
100
AcDbLine
 10
482.68608
 20
129.8756999999999
 30
0.0
 11
494.9860799999999
 21
124.7808
 31
0.0
  0
LINE
  5
478
330
1E
100
AcDbEntity
  8
0
100
AcDbLine
 10
447.48608
 20
117.5014999999999
 30
0.0
 11
447.48608
 21
123.0215
 31
0.0
  0
LINE
  5
479
330
1E
100
AcDbEntity
  8
0
100
AcDbLine
 10
447.48608
 20
117.5014999999999
 30
0.0
 11
447.48608
 21
112.6135
 31
0.0
  0
LINE
  5
47A
330
1E
100
AcDbEntity
  8
0
100
AcDbLine
 10
447.48608
 20
112.6135
 30
0.0
 11
447.48608
 21
117.5014999999999
 31
0.0
  0
LINE
  5
47B
330
1E
100
AcDbEntity
  8
0
100
AcDbLine
 10
447.48608
 20
112.6135
 30
0.0
 11
447.48608
 21
110.6135
 31
0.0
  0
LINE
  5
47C
330
1E
100
AcDbEntity
  8
0
100
AcDbLine
 10
433.4860799999999
 20
118.2695
 30
0.0
 11
433.4860799999999
 21
124.5095
 31
0.0
  0
LINE
  5
47D
330
1E
100
AcDbEntity
  8
0
100
AcDbLine
 10
433.4860799999999
 20
118.2695
 30
0.0
 11
433.4860799999999
 21
111.6135
 31
0.0
  0
LINE
  5
47E
330
1E
100
AcDbEntity
  8
0
100
AcDbLine
 10
433.4860799999999
 20
111.6135
 30
0.0
 11
433.4860799999999
 21
104.9574999999999
 31
0.0
  0
LINE
  5
47F
330
1E
100
AcDbEntity
  8
0
100
AcDbLine
 10
433.4860799999999
 20
111.6135
 30
0.0
 11
433.4860799999999
 21
118.2695
 31
0.0
  0
LINE
  5
480
330
1E
100
AcDbEntity
  8
0
100
AcDbLine
 10
431.4860799999999
 20
111.6135
 30
0.0
 11
431.4860799999999
 21
104.9574999999999
 31
0.0
  0
LINE
  5
481
330
1E
100
AcDbEntity
  8
0
100
AcDbLine
 10
431.4860799999999
 20
111.6135
 30
0.0
 11
431.4860799999999
 21
118.2695
 31
0.0
  0
LINE
  5
482
330
1E
100
AcDbEntity
  8
0
100
AcDbLine
 10
431.4860799999999
 20
104.9574999999999
 30
0.0
 11
431.4860799999999
 21
111.6135
 31
0.0
  0
LINE
  5
483
330
1E
100
AcDbEntity
  8
0
100
AcDbLine
 10
431.4860799999999
 20
104.9574999999999
 30
0.0
 11
431.4860799999999
 21
98.7175
 31
0.0
  0
LINE
  5
484
330
1E
100
AcDbEntity
  8
0
100
AcDbLine
 10
523.42408
 20
41.66199999999999
 30
0.0
 11
526.623857060522
 21
38.46177035432059
 31
0.0
  0
LINE
  5
485
330
1E
100
AcDbEntity
  8
0
100
AcDbLine
 10
523.4080799999999
 20
35.2455
 30
0.0
 11
525.17308
 21
37.0105
 31
0.0
  0
LINE
  5
486
330
1E
100
AcDbEntity
  8
0
100
AcDbLine
 10
522.74608
 20
34.5845
 30
0.0
 11
523.4530799999999
 21
33.8765
 31
0.0
  0
LINE
  5
487
330
1E
100
AcDbEntity
  8
0
100
AcDbLine
 10
522.74608
 20
34.5845
 30
0.0
 11
523.4080799999999
 21
35.2455
 31
0.0
  0
LINE
  5
489
330
1E
100
AcDbEntity
  8
0
100
AcDbLine
 10
558.80808
 20
-0.0644999999999844
 30
0.0
 11
559.4450799999999
 21
0.572500000000016
 31
0.0
  0
LINE
  5
48A
330
1E
100
AcDbEntity
  8
0
100
AcDbLine
 10
558.80808
 20
-0.0644999999999844
 30
0.0
 11
559.4450799999999
 21
0.572500000000016
 31
0.0
  0
LINE
  5
4A7
330
1E
100
AcDbEntity
  8
0
100
AcDbLine
 10
558.80808
 20
-0.0644999999999844
 30
0.0
 11
559.4450799999999
 21
0.572500000000016
 31
0.0
  0
LINE
  5
4A8
330
1E
100
AcDbEntity
  8
0
100
AcDbLine
 10
558.80808
 20
-0.0644999999999844
 30
0.0
 11
559.4450799999999
 21
0.572500000000016
 31
0.0
  0
LINE
  5
4A9
330
1E
100
AcDbEntity
  8
0
100
AcDbLine
 10
524.11508
 20
34.5385
 30
0.0
 11
524.160579992785
 21
34.58399999278469
 31
0.0
  0
LINE
  5
4AA
330
1E
100
AcDbEntity
  8
0
100
AcDbLine
 10
524.160579992785
 20
34.58399999278469
 30
0.0
 11
558.80808
 21
-0.0644999999999826
 31
0.0
  0
LINE
  5
4AB
330
1E
100
AcDbEntity
  8
0
100
AcDbLine
 10
524.160579992785
 20
34.58399999278469
 30
0.0
 11
558.80808
 21
-0.0644999999999844
 31
0.0
  0
LINE
  5
4AC
330
1E
100
AcDbEntity
  8
0
100
AcDbLine
 10
525.17308
 20
37.0105
 30
0.0
 11
528.1140799999999
 21
39.9525
 31
0.0
  0
LINE
  5
4AD
330
1E
100
AcDbEntity
  8
0
100
AcDbLine
 10
526.269339323046
 20
36.6928916791577
 30
0.0
 11
526.4940799999999
 21
36.91749999999999
 31
0.0
  0
LINE
  5
4AE
330
1E
100
AcDbEntity
  8
0
100
AcDbLine
 10
559.4450799999999
 20
0.5725000000000194
 30
0.0
 11
594.16408
 21
35.2915
 31
0.0
  0
LINE
  5
4AF
330
1E
100
AcDbEntity
  8
0
100
AcDbLine
 10
527.019538273543
 20
37.4433457126025
 30
0.0
 11
527.23108
 21
37.65449999999999
 31
0.0
  0
LINE
  5
4B0
330
1E
100
AcDbEntity
  8
0
100
AcDbLine
 10
526.4940799999999
 20
36.91749999999999
 30
0.0
 11
529.32208
 21
39.7455
 31
0.0
  0
LINE
  5
4B1
330
1E
100
AcDbEntity
  8
0
100
AcDbLine
 10
528.6860800005339
 20
39.10950000053409
 30
0.0
 11
531.1100799999999
 21
41.5339
 31
0.0
  0
LINE
  5
4B2
330
1E
100
AcDbEntity
  8
0
100
AcDbLine
 10
528.8210799999999
 20
39.24549999999999
 30
0.0
 11
532.111457252253
 21
42.53537078063879
 31
0.0
  0
LINE
  5
4B3
330
1E
100
AcDbEntity
  8
0
100
AcDbLine
 10
527.019538273546
 20
37.4433457126051
 30
0.0
 11
528.8210799999999
 21
39.24549999999999
 31
0.0
  0
LINE
  5
4B4
330
1E
100
AcDbEntity
  8
0
100
AcDbLine
 10
526.2693393230509
 20
36.6928916791626
 30
0.0
 11
526.6854430852999
 21
37.10913692517929
 31
0.0
  0
LINE
  5
4B5
330
1E
100
AcDbEntity
  8
0
100
AcDbLine
 10
529.32208
 20
39.7455
 30
0.0
 11
533.0700799999999
 21
43.49359999999999
 31
0.0
  0
LINE
  5
4B6
330
1E
100
AcDbEntity
  8
0
100
AcDbLine
 10
531.1100799999999
 20
41.5339
 30
0.0
 11
532.1114572522859
 21
42.5353707806717
 31
0.0
  0
LINE
  5
4B7
330
1E
100
AcDbEntity
  8
0
100
AcDbLine
 10
532.0120799999999
 20
43.85
 30
0.0
 11
536.42408
 21
48.2623
 31
0.0
  0
LINE
  5
4B8
330
1E
100
AcDbEntity
  8
0
100
AcDbLine
 10
528.1140799999999
 20
39.9525
 30
0.0
 11
532.0120799999999
 21
43.85
 31
0.0
  0
LINE
  5
4B9
330
1E
100
AcDbEntity
  8
0
100
AcDbLine
 10
535.3952617993829
 20
45.81926377004021
 30
0.0
 11
536.0041573393409
 21
46.4280923432077
 31
0.0
  0
LINE
  5
4BA
330
1E
100
AcDbEntity
  8
0
100
AcDbLine
 10
533.0700799999999
 20
43.49359999999999
 30
0.0
 11
537.2344489634691
 21
47.6585579831246
 31
0.0
  0
LINE
  5
4BB
330
1E
100
AcDbEntity
  8
0
100
AcDbLine
 10
535.395261799401
 20
45.8192637700582
 30
0.0
 11
537.1310799999999
 21
47.55519999999999
 31
0.0
  0
LINE
  5
4BC
330
1E
100
AcDbEntity
  8
0
100
AcDbLine
 10
541.1310799999999
 20
52.9688
 30
0.0
 11
545.8370799999999
 21
57.6753
 31
0.0
  0
LINE
  5
4BD
330
1E
100
AcDbEntity
  8
0
100
AcDbLine
 10
546.4717578651019
 20
56.89587018106689
 30
0.0
 11
546.7401892555169
 21
57.164282592124
 31
0.0
  0
LINE
  5
4BE
330
1E
100
AcDbEntity
  8
0
100
AcDbLine
 10
541.83808
 20
52.26169999999999
 30
0.0
 11
546.54408
 21
56.9682
 31
0.0
  0
LINE
  5
4BF
330
1E
100
AcDbEntity
  8
0
100
AcDbLine
 10
545.8370799999999
 20
57.6753
 30
0.0
 11
550.2490799999999
 21
62.0877
 31
0.0
  0
LINE
  5
4C0
330
1E
100
AcDbEntity
  8
0
100
AcDbLine
 10
550.2490799999999
 20
62.0877
 30
0.0
 11
554.1470799999999
 21
65.9853
 31
0.0
  0
LINE
  5
4C1
330
1E
100
AcDbEntity
  8
0
100
AcDbLine
 10
546.54408
 20
56.9682
 30
0.0
 11
550.95708
 21
61.3806
 31
0.0
  0
LINE
  5
4C2
330
1E
100
AcDbEntity
  8
0
100
AcDbLine
 10
551.9641836873819
 20
62.38785874568629
 30
0.0
 11
554.3540799999999
 21
64.7775
 31
0.0
  0
LINE
  5
4C3
330
1E
100
AcDbEntity
  8
0
100
AcDbLine
 10
554.3540799999999
 20
64.7775
 30
0.0
 11
556.8749164987719
 21
67.2986930527324
 31
0.0
  0
LINE
  5
4C4
330
1E
100
AcDbEntity
  8
0
100
AcDbLine
 10
553.2683016464619
 20
63.6918375246211
 30
0.0
 11
554.99008
 21
65.41389999999999
 31
0.0
  0
LINE
  5
4C5
330
1E
100
AcDbEntity
  8
0
100
AcDbLine
 10
551.964183687405
 20
62.38785874570949
 30
0.0
 11
554.8540799999999
 21
65.2782
 31
0.0
  0
LINE
  5
4C6
330
1E
100
AcDbEntity
  8
0
100
AcDbLine
 10
550.95708
 20
61.3806
 30
0.0
 11
554.8540799999999
 21
65.2782
 31
0.0
  0
LINE
  5
4C7
330
1E
100
AcDbEntity
  8
0
100
AcDbLine
 10
554.99008
 20
65.41389999999999
 30
0.0
 11
555.734735615216
 21
66.1583508988955
 31
0.0
  0
LINE
  5
4C8
330
1E
100
AcDbEntity
  8
0
100
AcDbLine
 10
551.70808
 20
69.94620000000001
 30
0.0
 11
554.908320948747
 21
66.7464115740112
 31
0.0
  0
LINE
  5
4C9
330
1E
100
AcDbEntity
  8
0
100
AcDbLine
 10
554.1470799999999
 20
65.9853
 30
0.0
 11
557.0890799999999
 21
68.9268
 31
0.0
  0
LINE
  5
4CA
330
1E
100
AcDbEntity
  8
0
100
AcDbLine
 10
557.0890799999999
 20
68.9268
 30
0.0
 11
558.8540799999999
 21
70.6918
 31
0.0
  0
LINE
  5
4CB
330
1E
100
AcDbEntity
  8
0
100
AcDbLine
 10
554.8540799999999
 20
65.2782
 30
0.0
 11
557.7960799999999
 21
68.2197
 31
0.0
  0
LINE
  5
4CC
330
1E
100
AcDbEntity
  8
0
100
AcDbLine
 10
554.8540799999999
 20
65.2782
 30
0.0
 11
556.840162018992
 21
67.26394447956029
 31
0.0
  0
LINE
  5
4CD
330
1E
100
AcDbEntity
  8
0
100
AcDbLine
 10
559.515430005556
 20
69.9390500055558
 30
0.0
 11
559.5610799999999
 21
69.98470000000001
 31
0.0
  0
LINE
  5
4CE
330
1E
100
AcDbEntity
  8
0
100
AcDbLine
 10
559.515430005556
 20
69.9390500055558
 30
0.0
 11
594.16408
 21
35.2915
 31
0.0
  0
LINE
  5
4CF
330
1E
100
AcDbEntity
  8
0
100
AcDbLine
 10
557.7960799999999
 20
68.2197
 30
0.0
 11
559.5610799999999
 21
69.98470000000001
 31
0.0
  0
LINE
  5
4D0
330
1E
100
AcDbEntity
  8
0
100
AcDbLine
 10
559.5150799999999
 20
71.3536
 30
0.0
 11
560.22308
 21
70.6465
 31
0.0
  0
LINE
  5
4D1
330
1E
100
AcDbEntity
  8
0
100
AcDbLine
 10
558.8540799999999
 20
70.6918
 30
0.0
 11
559.5150799999999
 21
71.3536
 31
0.0
  0
LINE
  5
4D2
330
1E
100
AcDbEntity
  8
0
100
AcDbLine
 10
559.5610799999999
 20
69.98470000000001
 30
0.0
 11
560.22308
 21
70.6465
 31
0.0
  0
LINE
  5
4D3
330
1E
100
AcDbEntity
  8
0
100
AcDbLine
 10
536.42408
 20
48.2623
 30
0.0
 11
541.1310799999999
 21
52.9688
 31
0.0
  0
LINE
  5
4D4
330
1E
100
AcDbEntity
  8
0
100
AcDbLine
 10
537.1310799999999
 20
47.55519999999999
 30
0.0
 11
541.83808
 21
52.26169999999999
 31
0.0
  0
LINE
  5
4D5
330
1E
100
AcDbEntity
  8
0
100
AcDbLine
 10
532.7190799999999
 20
43.14289999999999
 30
0.0
 11
537.1310799999999
 21
47.55519999999999
 31
0.0
  0
LINE
  5
4D6
330
1E
100
AcDbEntity
  8
0
100
AcDbLine
 10
528.8210799999999
 20
39.24549999999999
 30
0.0
 11
532.7190799999999
 21
43.14289999999999
 31
0.0
  0
LINE
  5
4D7
330
1E
100
AcDbEntity
  8
0
100
AcDbLine
 10
525.88008
 20
36.30349999999999
 30
0.0
 11
528.8210799999999
 21
39.24549999999999
 31
0.0
  0
LINE
  5
4D8
330
1E
100
AcDbEntity
  8
0
100
AcDbLine
 10
524.11508
 20
34.5385
 30
0.0
 11
525.88008
 21
36.30349999999999
 31
0.0
  0
LINE
  5
4D9
330
1E
100
AcDbEntity
  8
0
100
AcDbLine
 10
523.4530799999999
 20
33.8765
 30
0.0
 11
524.11508
 21
34.5385
 31
0.0
  0
LINE
  5
4DA
330
1E
100
AcDbEntity
  8
0
100
AcDbLine
 10
523.4530799999999
 20
33.8765
 30
0.0
 11
524.11508
 21
34.5385
 31
0.0
  0
LINE
  5
4DB
330
1E
100
AcDbEntity
  8
0
100
AcDbLine
 10
341.4860799999999
 20
150.6135
 30
0.0
 11
341.4860799999999
 21
152.6135
 31
0.0
  0
LINE
  5
4DC
330
1E
100
AcDbEntity
  8
0
100
AcDbLine
 10
340.2260799999999
 20
150.6135
 30
0.0
 11
341.4860799999999
 21
150.6135
 31
0.0
  0
LINE
  5
4DD
330
1E
100
AcDbEntity
  8
0
100
AcDbLine
 10
299.57408
 20
150.6135
 30
0.0
 11
306.4860799999999
 21
150.6135
 31
0.0
  0
LINE
  5
4DE
330
1E
100
AcDbEntity
  8
0
100
AcDbLine
 10
293.0940799999999
 20
150.6135
 30
0.0
 11
299.57408
 21
150.6135
 31
0.0
  0
LINE
  5
4DF
330
1E
100
AcDbEntity
  8
0
100
AcDbLine
 10
297.52608
 20
150.6135
 30
0.0
 11
306.4860799999999
 21
150.6135
 31
0.0
  0
LINE
  5
4E0
330
1E
100
AcDbEntity
  8
0
100
AcDbLine
 10
289.1260799999999
 20
150.6135
 30
0.0
 11
297.52608
 21
150.6135
 31
0.0
  0
LINE
  5
4E1
330
1E
100
AcDbEntity
  8
0
100
AcDbLine
 10
281.7060799999999
 20
150.6135
 30
0.0
 11
289.1260799999999
 21
150.6135
 31
0.0
  0
LINE
  5
4E2
330
1E
100
AcDbEntity
  8
0
100
AcDbLine
 10
276.1060799999999
 20
150.6135
 30
0.0
 11
281.7060799999999
 21
150.6135
 31
0.0
  0
LINE
  5
4E3
330
1E
100
AcDbEntity
  8
0
100
AcDbLine
 10
276.1060799999999
 20
150.6135
 30
0.0
 11
279.4860799999999
 21
150.6135
 31
0.0
  0
LINE
  5
4E4
330
1E
100
AcDbEntity
  8
0
100
AcDbLine
 10
306.4860799999999
 20
152.6135
 30
0.0
 11
315.4460799999999
 21
152.6135
 31
0.0
  0
LINE
  5
4E5
330
1E
100
AcDbEntity
  8
0
100
AcDbLine
 10
315.4460799999999
 20
152.6135
 30
0.0
 11
323.8460799999999
 21
152.6135
 31
0.0
  0
LINE
  5
4E6
330
1E
100
AcDbEntity
  8
0
100
AcDbLine
 10
323.8460799999999
 20
152.6135
 30
0.0
 11
331.2660799999999
 21
152.6135
 31
0.0
  0
LINE
  5
4E7
330
1E
100
AcDbEntity
  8
0
100
AcDbLine
 10
331.2660799999999
 20
152.6135
 30
0.0
 11
336.8660799999999
 21
152.6135
 31
0.0
  0
LINE
  5
4E8
330
1E
100
AcDbEntity
  8
0
100
AcDbLine
 10
341.4860799999999
 20
152.6135
 30
0.0
 11
341.4860799999999
 21
150.6135
 31
0.0
  0
LINE
  5
4E9
330
1E
100
AcDbEntity
  8
0
100
AcDbLine
 10
336.8660799999999
 20
152.6135
 30
0.0
 11
340.2260799999999
 21
152.6135
 31
0.0
  0
LINE
  5
4EA
330
1E
100
AcDbEntity
  8
0
100
AcDbLine
 10
340.2260799999999
 20
152.6135
 30
0.0
 11
341.4860799999999
 21
152.6135
 31
0.0
  0
LINE
  5
4EB
330
1E
100
AcDbEntity
  8
0
100
AcDbLine
 10
297.52608
 20
152.6135
 30
0.0
 11
306.4860799999999
 21
152.6135
 31
0.0
  0
LINE
  5
4EC
330
1E
100
AcDbEntity
  8
0
100
AcDbLine
 10
289.1260799999999
 20
152.6135
 30
0.0
 11
297.52608
 21
152.6135
 31
0.0
  0
LINE
  5
4ED
330
1E
100
AcDbEntity
  8
0
100
AcDbLine
 10
281.7060799999999
 20
152.6135
 30
0.0
 11
289.1260799999999
 21
152.6135
 31
0.0
  0
LINE
  5
4EE
330
1E
100
AcDbEntity
  8
0
100
AcDbLine
 10
276.1060799999999
 20
152.6135
 30
0.0
 11
281.7060799999999
 21
152.6135
 31
0.0
  0
LINE
  5
4EF
330
1E
100
AcDbEntity
  8
0
100
AcDbLine
 10
272.74608
 20
152.6135
 30
0.0
 11
276.1060799999999
 21
152.6135
 31
0.0
  0
LINE
  5
4F0
330
1E
100
AcDbEntity
  8
0
100
AcDbLine
 10
272.74608
 20
150.6135
 30
0.0
 11
276.1060799999999
 21
150.6135
 31
0.0
  0
LINE
  5
4F1
330
1E
100
AcDbEntity
  8
0
100
AcDbLine
 10
271.4860799999999
 20
150.6135
 30
0.0
 11
272.74608
 21
150.6135
 31
0.0
  0
LINE
  5
4F2
330
1E
100
AcDbEntity
  8
0
100
AcDbLine
 10
271.4860799999999
 20
150.6135
 30
0.0
 11
271.4860799999999
 21
152.6135
 31
0.0
  0
ENDSEC
  0
SECTION
  2
OBJECTS
  0
DICTIONARY
  5
C
330
0
100
AcDbDictionary
281
     1
  3
ACAD_GROUP
350
D
  3
ACAD_LAYOUT
350
19
  3
ACAD_MLINESTYLE
350
16
  3
ACAD_PLOTSETTINGS
350
18
  3
ACAD_PLOTSTYLENAME
350
E
  3
AcDbVariableDictionary
350
4F7
  0
DICTIONARY
  5
D
102
{ACAD_REACTORS
330
C
102
}
330
C
100
AcDbDictionary
281
     1
  0
DICTIONARY
  5
19
102
{ACAD_REACTORS
330
C
102
}
330
C
100
AcDbDictionary
281
     1
  3
Layout1
350
1D
  3
Model
350
21
  0
DICTIONARY
  5
16
102
{ACAD_REACTORS
330
C
102
}
330
C
100
AcDbDictionary
281
     1
  3
Standard
350
17
  0
DICTIONARY
  5
18
102
{ACAD_REACTORS
330
C
102
}
330
C
100
AcDbDictionary
281
     1
  0
ACDBDICTIONARYWDFLT
  5
E
102
{ACAD_REACTORS
330
C
102
}
330
C
100
AcDbDictionary
281
     1
  3
Normal
350
F
100
AcDbDictionaryWithDefault
340
F
  0
DICTIONARY
  5
4F7
102
{ACAD_REACTORS
330
C
102
}
330
C
100
AcDbDictionary
281
     1
  3
DIMASSOC
350
4F8
  0
LAYOUT
  5
1D
102
{ACAD_REACTORS
330
19
102
}
330
19
100
AcDbPlotSettings
  1

  2
hp deskjet 980c series
  4

  6

 40
0.0
 41
0.0
 42
0.0
 43
0.0
 44
0.0
 45
0.0
 46
0.0
 47
0.0
 48
0.0
 49
0.0
140
0.0
141
0.0
142
1.0
143
1.0
 70
   688
 72
     0
 73
     0
 74
     5
  7

 75
    16
147
1.0
148
0.0
149
0.0
100
AcDbLayout
  1
Layout1
 70
     1
 71
     1
 10
0.0
 20
0.0
 11
12.0
 21
9.0
 12
0.0
 22
0.0
 32
0.0
 14
1.000000000000000E+20
 24
1.000000000000000E+20
 34
1.000000000000000E+20
 15
-1.000000000000000E+20
 25
-1.000000000000000E+20
 35
-1.000000000000000E+20
146
0.0
 13
0.0
 23
0.0
 33
0.0
 16
1.0
 26
0.0
 36
0.0
 17
0.0
 27
1.0
 37
0.0
 76
     0
330
1A
  0
LAYOUT
  5
21
102
{ACAD_REACTORS
330
19
102
}
330
19
100
AcDbPlotSettings
  1

  2
hp deskjet 980c series
  4

  6

 40
0.0
 41
0.0
 42
0.0
 43
0.0
 44
0.0
 45
0.0
 46
0.0
 47
0.0
 48
0.0
 49
0.0
140
0.0
141
0.0
142
1.0
143
1.0
 70
  1712
 72
     0
 73
     0
 74
     0
  7

 75
     0
147
1.0
148
0.0
149
0.0
100
AcDbLayout
  1
Model
 70
     1
 71
     0
 10
0.0
 20
0.0
 11
12.0
 21
9.0
 12
0.0
 22
0.0
 32
0.0
 14
0.0
 24
0.0
 34
0.0
 15
0.0
 25
0.0
 35
0.0
146
0.0
 13
0.0
 23
0.0
 33
0.0
 16
1.0
 26
0.0
 36
0.0
 17
0.0
 27
1.0
 37
0.0
 76
     0
330
1E
  0
MLINESTYLE
  5
17
102
{ACAD_REACTORS
330
16
102
}
330
16
100
AcDbMlineStyle
  2
STANDARD
 70
     0
  3

 62
   256
 51
90.0
 52
90.0
 71
     2
 49
0.5
 62
   256
  6
BYLAYER
 49
-0.5
 62
   256
  6
BYLAYER
  0
ACDBPLACEHOLDER
  5
F
102
{ACAD_REACTORS
330
E
102
}
330
E
  0
DICTIONARYVAR
  5
4F8
102
{ACAD_REACTORS
330
4F7
102
}
330
4F7
100
DictionaryVariables
280
     0
  1
1
  0
ENDSEC
  0
EOF
