  0
SECTION
  2
HEADER
  9
$ACADVER
  1
AC1015
  9
$ACADMAINTVER
 70
    13
  9
$DWGCODEPAGE
  3
ANSI_1252
  9
$INSBASE
 10
0.0
 20
0.0
 30
0.0
  9
$EXTMIN
 10
0.188749999999908
 20
0.25
 30
0.0
  9
$EXTMAX
 10
574.8112499999999
 20
102.75
 30
0.0
  9
$LIMMIN
 10
0.0
 20
0.0
  9
$LIMMAX
 10
12.0
 20
9.0
  9
$ORTHOMODE
 70
     0
  9
$REGENMODE
 70
     1
  9
$FILLMODE
 70
     1
  9
$QTEXTMODE
 70
     0
  9
$MIRRTEXT
 70
     1
  9
$LTSCALE
 40
1.0
  9
$ATTMODE
 70
     1
  9
$TEXTSIZE
 40
0.2
  9
$TRACEWID
 40
0.05
  9
$TEXTSTYLE
  7
Standard
  9
$CLAYER
  8
0
  9
$CELTYPE
  6
Continuous
  9
$CECOLOR
 62
   256
  9
$CELTSCALE
 40
1.0
  9
$DISPSILH
 70
     0
  9
$DIMSCALE
 40
1.0
  9
$DIMASZ
 40
0.18
  9
$DIMEXO
 40
0.0625
  9
$DIMDLI
 40
0.38
  9
$DIMRND
 40
0.0
  9
$DIMDLE
 40
0.0
  9
$DIMEXE
 40
0.18
  9
$DIMTP
 40
0.0
  9
$DIMTM
 40
0.0
  9
$DIMTXT
 40
0.18
  9
$DIMCEN
 40
0.09
  9
$DIMTSZ
 40
0.0
  9
$DIMTOL
 70
     0
  9
$DIMLIM
 70
     0
  9
$DIMTIH
 70
     1
  9
$DIMTOH
 70
     1
  9
$DIMSE1
 70
     0
  9
$DIMSE2
 70
     0
  9
$DIMTAD
 70
     0
  9
$DIMZIN
 70
     0
  9
$DIMBLK
  1

  9
$DIMASO
 70
     1
  9
$DIMSHO
 70
     1
  9
$DIMPOST
  1

  9
$DIMAPOST
  1

  9
$DIMALT
 70
     0
  9
$DIMALTD
 70
     2
  9
$DIMALTF
 40
25.4
  9
$DIMLFAC
 40
1.0
  9
$DIMTOFL
 70
     0
  9
$DIMTVP
 40
0.0
  9
$DIMTIX
 70
     0
  9
$DIMSOXD
 70
     0
  9
$DIMSAH
 70
     0
  9
$DIMBLK1
  1

  9
$DIMBLK2
  1

  9
$DIMSTYLE
  2
Standard
  9
$DIMCLRD
 70
     0
  9
$DIMCLRE
 70
     0
  9
$DIMCLRT
 70
     0
  9
$DIMTFAC
 40
1.0
  9
$DIMGAP
 40
0.09
  9
$DIMJUST
 70
     0
  9
$DIMSD1
 70
     0
  9
$DIMSD2
 70
     0
  9
$DIMTOLJ
 70
     1
  9
$DIMTZIN
 70
     0
  9
$DIMALTZ
 70
     0
  9
$DIMALTTZ
 70
     0
  9
$DIMUPT
 70
     0
  9
$DIMDEC
 70
     4
  9
$DIMTDEC
 70
     4
  9
$DIMALTU
 70
     2
  9
$DIMALTTD
 70
     2
  9
$DIMTXSTY
  7
Standard
  9
$DIMAUNIT
 70
     0
  9
$DIMADEC
 70
     0
  9
$DIMALTRND
 40
0.0
  9
$DIMAZIN
 70
     0
  9
$DIMDSEP
 70
    46
  9
$DIMATFIT
 70
     3
  9
$DIMFRAC
 70
     0
  9
$DIMLDRBLK
  1

  9
$DIMLUNIT
 70
     2
  9
$DIMLWD
 70
    -2
  9
$DIMLWE
 70
    -2
  9
$DIMTMOVE
 70
     0
  9
$LUNITS
 70
     2
  9
$LUPREC
 70
     4
  9
$SKETCHINC
 40
0.1
  9
$FILLETRAD
 40
0.0
  9
$AUNITS
 70
     0
  9
$AUPREC
 70
     0
  9
$MENU
  1
.
  9
$ELEVATION
 40
0.0
  9
$PELEVATION
 40
0.0
  9
$THICKNESS
 40
0.0
  9
$LIMCHECK
 70
     0
  9
$CHAMFERA
 40
0.0
  9
$CHAMFERB
 40
0.0
  9
$CHAMFERC
 40
0.0
  9
$CHAMFERD
 40
0.0
  9
$SKPOLY
 70
     0
  9
$TDCREATE
 40
2454781.444632523
  9
$TDUCREATE
 40
2454781.402965856
  9
$TDUPDATE
 40
2454781.450962095
  9
$TDUUPDATE
 40
2454781.409295428
  9
$TDINDWG
 40
0.0063295718
  9
$TDUSRTIMER
 40
0.0063295718
  9
$USRTIMER
 70
     1
  9
$ANGBASE
 50
0.0
  9
$ANGDIR
 70
     0
  9
$PDMODE
 70
     0
  9
$PDSIZE
 40
0.0
  9
$PLINEWID
 40
0.0
  9
$SPLFRAME
 70
     0
  9
$SPLINETYPE
 70
     6
  9
$SPLINESEGS
 70
     8
  9
$HANDSEED
  5
44D
  9
$SURFTAB1
 70
     6
  9
$SURFTAB2
 70
     6
  9
$SURFTYPE
 70
     6
  9
$SURFU
 70
     6
  9
$SURFV
 70
     6
  9
$UCSBASE
  2

  9
$UCSNAME
  2

  9
$UCSORG
 10
0.0
 20
0.0
 30
0.0
  9
$UCSXDIR
 10
1.0
 20
0.0
 30
0.0
  9
$UCSYDIR
 10
0.0
 20
1.0
 30
0.0
  9
$UCSORTHOREF
  2

  9
$UCSORTHOVIEW
 70
     1
  9
$UCSORGTOP
 10
0.0
 20
0.0
 30
0.0
  9
$UCSORGBOTTOM
 10
0.0
 20
0.0
 30
0.0
  9
$UCSORGLEFT
 10
0.0
 20
0.0
 30
0.0
  9
$UCSORGRIGHT
 10
0.0
 20
0.0
 30
0.0
  9
$UCSORGFRONT
 10
0.0
 20
0.0
 30
0.0
  9
$UCSORGBACK
 10
0.0
 20
0.0
 30
0.0
  9
$PUCSBASE
  2

  9
$PUCSNAME
  2

  9
$PUCSORG
 10
0.0
 20
0.0
 30
0.0
  9
$PUCSXDIR
 10
1.0
 20
0.0
 30
0.0
  9
$PUCSYDIR
 10
0.0
 20
1.0
 30
0.0
  9
$PUCSORTHOREF
  2

  9
$PUCSORTHOVIEW
 70
     0
  9
$PUCSORGTOP
 10
0.0
 20
0.0
 30
0.0
  9
$PUCSORGBOTTOM
 10
0.0
 20
0.0
 30
0.0
  9
$PUCSORGLEFT
 10
0.0
 20
0.0
 30
0.0
  9
$PUCSORGRIGHT
 10
0.0
 20
0.0
 30
0.0
  9
$PUCSORGFRONT
 10
0.0
 20
0.0
 30
0.0
  9
$PUCSORGBACK
 10
0.0
 20
0.0
 30
0.0
  9
$USERI1
 70
     0
  9
$USERI2
 70
     0
  9
$USERI3
 70
     0
  9
$USERI4
 70
     0
  9
$USERI5
 70
     0
  9
$USERR1
 40
0.0
  9
$USERR2
 40
0.0
  9
$USERR3
 40
0.0
  9
$USERR4
 40
0.0
  9
$USERR5
 40
0.0
  9
$WORLDVIEW
 70
     1
  9
$SHADEDGE
 70
     3
  9
$SHADEDIF
 70
    70
  9
$TILEMODE
 70
     1
  9
$MAXACTVP
 70
    64
  9
$PINSBASE
 10
0.0
 20
0.0
 30
0.0
  9
$PLIMCHECK
 70
     0
  9
$PEXTMIN
 10
1.000000000000000E+20
 20
1.000000000000000E+20
 30
1.000000000000000E+20
  9
$PEXTMAX
 10
-1.000000000000000E+20
 20
-1.000000000000000E+20
 30
-1.000000000000000E+20
  9
$PLIMMIN
 10
0.0
 20
0.0
  9
$PLIMMAX
 10
12.0
 20
9.0
  9
$UNITMODE
 70
     0
  9
$VISRETAIN
 70
     1
  9
$PLINEGEN
 70
     0
  9
$PSLTSCALE
 70
     1
  9
$TREEDEPTH
 70
  3020
  9
$CMLSTYLE
  2
Standard
  9
$CMLJUST
 70
     0
  9
$CMLSCALE
 40
1.0
  9
$PROXYGRAPHICS
 70
     1
  9
$MEASUREMENT
 70
     0
  9
$CELWEIGHT
370
    -1
  9
$ENDCAPS
280
     0
  9
$JOINSTYLE
280
     0
  9
$LWDISPLAY
290
     0
  9
$INSUNITS
 70
     0
  9
$HYPERLINKBASE
  1

  9
$STYLESHEET
  1

  9
$XEDIT
290
     1
  9
$CEPSNTYPE
380
     0
  9
$PSTYLEMODE
290
     1
  9
$FINGERPRINTGUID
  2
{4B3B7B35-BD01-4511-83F6-E082BBE286FE}
  9
$VERSIONGUID
  2
{F563A1A6-8561-46CB-A09D-530C445F1377}
  9
$EXTNAMES
290
     1
  9
$PSVPSCALE
 40
0.0
  9
$OLESTARTUP
290
     0
  0
ENDSEC
  0
SECTION
  2
CLASSES
  0
CLASS
  1
ACDBDICTIONARYWDFLT
  2
AcDbDictionaryWithDefault
  3
AutoCAD 2000
 90
        0
280
     0
281
     0
  0
CLASS
  1
ACDBPLACEHOLDER
  2
AcDbPlaceHolder
  3
AutoCAD 2000
 90
        0
280
     0
281
     0
  0
CLASS
  1
LAYOUT
  2
AcDbLayout
  3
AutoCAD 2000
 90
        0
280
     0
281
     0
  0
CLASS
  1
DICTIONARYVAR
  2
AcDbDictionaryVar
  3
AutoCAD 2000
 90
        0
280
     0
281
     0
  0
ENDSEC
  0
SECTION
  2
TABLES
  0
TABLE
  2
VPORT
  5
8
330
0
100
AcDbSymbolTable
 70
     2
  0
VPORT
  5
44C
330
8
100
AcDbSymbolTableRecord
100
AcDbViewportTableRecord
  2
*Active
 70
     0
 10
0.0
 20
0.0
 11
1.0
 21
1.0
 12
287.4999999999999
 22
51.5
 13
0.0
 23
0.0
 14
1.0
 24
1.0
 15
0.0
 25
0.0
 16
0.0
 26
0.0
 36
1.0
 17
0.0
 27
0.0
 37
0.0
 40
277.534335997848
 41
2.078104993597951
 42
50.0
 43
0.0
 44
0.0
 50
0.0
 51
0.0
 71
     0
 72
   100
 73
     1
 74
     3
 75
     0
 76
     0
 77
     0
 78
     0
281
     0
 65
     1
110
0.0
120
0.0
130
0.0
111
1.0
121
0.0
131
0.0
112
0.0
122
1.0
132
0.0
 79
     1
146
0.0
  0
ENDTAB
  0
TABLE
  2
LTYPE
  5
5
330
0
100
AcDbSymbolTable
 70
     1
  0
LTYPE
  5
13
330
5
100
AcDbSymbolTableRecord
100
AcDbLinetypeTableRecord
  2
ByBlock
 70
     0
  3

 72
    65
 73
     0
 40
0.0
  0
LTYPE
  5
14
330
5
100
AcDbSymbolTableRecord
100
AcDbLinetypeTableRecord
  2
ByLayer
 70
     0
  3

 72
    65
 73
     0
 40
0.0
  0
LTYPE
  5
15
330
5
100
AcDbSymbolTableRecord
100
AcDbLinetypeTableRecord
  2
Continuous
 70
     0
  3
Solid line
 72
    65
 73
     0
 40
0.0
  0
ENDTAB
  0
TABLE
  2
LAYER
  5
2
330
0
100
AcDbSymbolTable
 70
     1
  0
LAYER
  5
10
330
2
100
AcDbSymbolTableRecord
100
AcDbLayerTableRecord
  2
0
 70
     0
 62
     7
  6
Continuous
370
    -3
390
F
  0
ENDTAB
  0
TABLE
  2
STYLE
  5
3
330
0
100
AcDbSymbolTable
 70
     1
  0
STYLE
  5
11
330
3
100
AcDbSymbolTableRecord
100
AcDbTextStyleTableRecord
  2
Standard
 70
     0
 40
0.0
 41
1.0
 50
0.0
 71
     0
 42
0.2
  3
txt
  4

  0
ENDTAB
  0
TABLE
  2
VIEW
  5
6
330
0
100
AcDbSymbolTable
 70
     0
  0
ENDTAB
  0
TABLE
  2
UCS
  5
7
330
0
100
AcDbSymbolTable
 70
     0
  0
ENDTAB
  0
TABLE
  2
APPID
  5
9
330
0
100
AcDbSymbolTable
 70
     1
  0
APPID
  5
12
330
9
100
AcDbSymbolTableRecord
100
AcDbRegAppTableRecord
  2
ACAD
 70
     0
  0
ENDTAB
  0
TABLE
  2
DIMSTYLE
  5
A
330
0
100
AcDbSymbolTable
 70
     1
100
AcDbDimStyleTable
 71
     0
  0
DIMSTYLE
105
440
330
A
100
AcDbSymbolTableRecord
100
AcDbDimStyleTableRecord
  2
Standard
 70
     0
340
11
  0
ENDTAB
  0
TABLE
  2
BLOCK_RECORD
  5
1
330
0
100
AcDbSymbolTable
 70
     0
  0
BLOCK_RECORD
  5
1E
330
1
100
AcDbSymbolTableRecord
100
AcDbBlockTableRecord
  2
*Model_Space
340
21
  0
BLOCK_RECORD
  5
1A
330
1
100
AcDbSymbolTableRecord
100
AcDbBlockTableRecord
  2
*Paper_Space
340
1D
  0
ENDTAB
  0
ENDSEC
  0
SECTION
  2
BLOCKS
  0
BLOCK
  5
1F
330
1E
100
AcDbEntity
  8
0
100
AcDbBlockBegin
  2
*Model_Space
 70
     0
 10
0.0
 20
0.0
 30
0.0
  3
*Model_Space
  1

  0
ENDBLK
  5
20
330
1E
100
AcDbEntity
  8
0
100
AcDbBlockEnd
  0
BLOCK
  5
1B
330
1A
100
AcDbEntity
 67
     1
  8
0
100
AcDbBlockBegin
  2
*Paper_Space
 70
     0
 10
0.0
 20
0.0
 30
0.0
  3
*Paper_Space
  1

  0
ENDBLK
  5
1C
330
1A
100
AcDbEntity
 67
     1
  8
0
100
AcDbBlockEnd
  0
ENDSEC
  0
SECTION
  2
ENTITIES
  0
LINE
  5
22
330
1E
100
AcDbEntity
  8
0
100
AcDbLine
 10
4.085549999999909
 20
0.250000000000001
 30
0.0
 11
7.36104999999991
 21
0.250000000000001
 31
0.0
  0
LINE
  5
23
330
1E
100
AcDbEntity
  8
0
100
AcDbLine
 10
7.36104999999991
 20
0.250000000000001
 30
0.0
 11
11.3259499999999
 21
0.250000000000001
 31
0.0
  0
LINE
  5
24
330
1E
100
AcDbEntity
  8
0
100
AcDbLine
 10
11.3259499999999
 20
0.250000000000001
 30
0.0
 11
15.65884999999989
 21
0.250000000000001
 31
0.0
  0
LINE
  5
25
330
1E
100
AcDbEntity
  8
0
100
AcDbLine
 10
15.65884999999989
 20
0.250000000000001
 30
0.0
 11
20.04695999999989
 21
0.250000000000001
 31
0.0
  0
LINE
  5
26
330
1E
100
AcDbEntity
  8
0
100
AcDbLine
 10
27.9691949999999
 20
0.250000000000001
 30
0.0
 11
30.9964099999999
 21
0.250000000000001
 31
0.0
  0
LINE
  5
27
330
1E
100
AcDbEntity
  8
0
100
AcDbLine
 10
24.2266899999999
 20
0.250000000000001
 30
0.0
 11
27.9691949999999
 21
0.250000000000001
 31
0.0
  0
LINE
  5
28
330
1E
100
AcDbEntity
  8
0
100
AcDbLine
 10
20.04695999999989
 20
0.250000000000001
 30
0.0
 11
24.2266899999999
 21
0.250000000000001
 31
0.0
  0
LINE
  5
29
330
1E
100
AcDbEntity
  8
0
100
AcDbLine
 10
0.188749999999908
 20
0.250000000000002
 30
0.0
 11
0.353249999999908
 21
0.250000000000001
 31
0.0
  0
LINE
  5
2A
330
1E
100
AcDbEntity
  8
0
100
AcDbLine
 10
0.188749999999908
 20
0.250000000000002
 30
0.0
 11
0.188749999999908
 21
82.4167
 31
0.0
  0
LINE
  5
2B
330
1E
100
AcDbEntity
  8
0
100
AcDbLine
 10
0.188749999999908
 20
0.250000000000002
 30
0.0
 11
1.150949999999909
 21
0.250000000000002
 31
0.0
  0
LINE
  5
2C
330
1E
100
AcDbEntity
  8
0
100
AcDbLine
 10
1.699449999999909
 20
0.250000000000001
 30
0.0
 11
4.085549999999909
 21
0.250000000000001
 31
0.0
  0
LINE
  5
2D
330
1E
100
AcDbEntity
  8
0
100
AcDbLine
 10
0.353249999999908
 20
0.250000000000001
 30
0.0
 11
1.699449999999899
 21
0.250000000000001
 31
0.0
  0
LINE
  5
2E
330
1E
100
AcDbEntity
  8
0
100
AcDbLine
 10
30.9964099999999
 20
0.250000000000001
 30
0.0
 11
33.03893999999989
 21
0.250000000000001
 31
0.0
  0
LINE
  5
2F
330
1E
100
AcDbEntity
  8
0
100
AcDbLine
 10
33.03893999999989
 20
0.250000000000001
 30
0.0
 11
34.00115999999989
 21
0.250000000000002
 31
0.0
  0
LINE
  5
30
330
1E
100
AcDbEntity
  8
0
100
AcDbLine
 10
1.150949999999909
 20
0.250000000000002
 30
0.0
 11
3.193449999999899
 21
0.250000000000002
 31
0.0
  0
LINE
  5
31
330
1E
100
AcDbEntity
  8
0
100
AcDbLine
 10
3.193449999999899
 20
0.250000000000002
 30
0.0
 11
6.22064999999991
 21
0.250000000000002
 31
0.0
  0
LINE
  5
32
330
1E
100
AcDbEntity
  8
0
100
AcDbLine
 10
26.82885599999989
 20
0.250000000000003
 30
0.0
 11
30.1042899999999
 21
0.250000000000002
 31
0.0
  0
LINE
  5
33
330
1E
100
AcDbEntity
  8
0
100
AcDbLine
 10
30.1042899999999
 20
0.250000000000002
 30
0.0
 11
32.4904199999999
 21
0.250000000000002
 31
0.0
  0
LINE
  5
34
330
1E
100
AcDbEntity
  8
0
100
AcDbLine
 10
32.4904199999999
 20
0.250000000000002
 30
0.0
 11
33.8366699999999
 21
0.250000000000002
 31
0.0
  0
LINE
  5
35
330
1E
100
AcDbEntity
  8
0
100
AcDbLine
 10
6.22064999999991
 20
0.250000000000002
 30
0.0
 11
9.96314999999991
 21
0.250000000000003
 31
0.0
  0
LINE
  5
36
330
1E
100
AcDbEntity
  8
0
100
AcDbLine
 10
22.8639399999999
 20
0.250000000000003
 30
0.0
 11
26.82885599999989
 21
0.250000000000003
 31
0.0
  0
LINE
  5
37
330
1E
100
AcDbEntity
  8
0
100
AcDbLine
 10
32.6294099999999
 20
24.19
 30
0.0
 11
34.4075699999999
 21
22.74999999999999
 31
0.0
  0
LINE
  5
38
330
1E
100
AcDbEntity
  8
0
100
AcDbLine
 10
18.5310199999999
 20
0.250000000000003
 30
0.0
 11
22.8639399999999
 21
0.250000000000003
 31
0.0
  0
LINE
  5
39
330
1E
100
AcDbEntity
  8
0
100
AcDbLine
 10
14.1429499999999
 20
0.250000000000003
 30
0.0
 11
18.5310199999999
 21
0.250000000000003
 31
0.0
  0
LINE
  5
3A
330
1E
100
AcDbEntity
  8
0
100
AcDbLine
 10
9.96314999999991
 20
0.250000000000003
 30
0.0
 11
14.1429499999999
 21
0.250000000000003
 31
0.0
  0
LINE
  5
3B
330
1E
100
AcDbEntity
  8
0
100
AcDbLine
 10
34.00115999999989
 20
23.0791213389121
 30
0.0
 11
34.00115999999989
 21
0.25
 31
0.0
  0
LINE
  5
3C
330
1E
100
AcDbEntity
  8
0
100
AcDbLine
 10
33.8366699999999
 20
0.250000000000002
 30
0.0
 11
34.00115999999989
 21
0.250000000000002
 31
0.0
  0
LINE
  5
3D
330
1E
100
AcDbEntity
  8
0
100
AcDbLine
 10
41.3356499999999
 20
24.19
 30
0.0
 11
43.11384999999989
 21
22.74999999999999
 31
0.0
  0
LINE
  5
3E
330
1E
100
AcDbEntity
  8
0
100
AcDbLine
 10
34.4075699999999
 20
22.74999999999999
 30
0.0
 11
43.11384999999989
 21
22.74999999999999
 31
0.0
  0
LINE
  5
3F
330
1E
100
AcDbEntity
  8
0
100
AcDbLine
 10
43.11384999999989
 20
22.74999999999999
 30
0.0
 11
44.8920499999999
 21
24.19
 31
0.0
  0
LINE
  5
40
330
1E
100
AcDbEntity
  8
0
100
AcDbLine
 10
44.8920499999999
 20
24.19
 30
0.0
 11
45.2088583333332
 21
24.75
 31
0.0
  0
LINE
  5
41
330
1E
100
AcDbEntity
  8
0
100
AcDbLine
 10
34.00115999999989
 20
0.250000000000002
 30
0.0
 11
34.00115999999989
 21
23.0791213389121
 31
0.0
  0
LINE
  5
42
330
1E
100
AcDbEntity
  8
0
100
AcDbLine
 10
32.0862999999999
 20
25.15
 30
0.0
 11
32.6294099999999
 21
24.19
 31
0.0
  0
LINE
  5
43
330
1E
100
AcDbEntity
  8
0
100
AcDbLine
 10
41.9955499999999
 20
26.118
 30
0.0
 11
43.68474999999989
 21
24.75
 31
0.0
  0
LINE
  5
44
330
1E
100
AcDbEntity
  8
0
100
AcDbLine
 10
44.37904999999989
 20
26.118
 30
0.0
 11
46.06824999999989
 21
24.75
 31
0.0
  0
LINE
  5
45
330
1E
100
AcDbEntity
  8
0
100
AcDbLine
 10
43.68474999999989
 20
24.75
 30
0.0
 11
46.06824999999989
 21
24.75
 31
0.0
  0
LINE
  5
46
330
1E
100
AcDbEntity
  8
0
100
AcDbLine
 10
46.06824999999989
 20
24.75
 30
0.0
 11
47.75754999999989
 21
26.118
 31
0.0
  0
LINE
  5
47
330
1E
100
AcDbEntity
  8
0
100
AcDbLine
 10
30.4748399999999
 20
28.99
 30
0.0
 11
32.0862999999999
 21
25.15
 31
0.0
  0
LINE
  5
48
330
1E
100
AcDbEntity
  8
0
100
AcDbLine
 10
39.6686499999999
 20
28.03
 30
0.0
 11
41.3356499999999
 21
24.19
 31
0.0
  0
LINE
  5
49
330
1E
100
AcDbEntity
  8
0
100
AcDbLine
 10
30.96238999999989
 20
28.03
 30
0.0
 11
32.6294099999999
 21
24.19
 31
0.0
  0
LINE
  5
4A
330
1E
100
AcDbEntity
  8
0
100
AcDbLine
 10
29.0578799999999
 20
35.22999999999999
 30
0.0
 11
30.4748399999999
 21
28.99
 31
0.0
  0
LINE
  5
4B
330
1E
100
AcDbEntity
  8
0
100
AcDbLine
 10
38.19614999999989
 20
34.43
 30
0.0
 11
39.6686499999999
 21
28.03
 31
0.0
  0
LINE
  5
4C
330
1E
100
AcDbEntity
  8
0
100
AcDbLine
 10
29.4898499999999
 20
34.43
 30
0.0
 11
30.96238999999989
 21
28.03
 31
0.0
  0
LINE
  5
4D
330
1E
100
AcDbEntity
  8
0
100
AcDbLine
 10
40.4118499999999
 20
29.76599999999999
 30
0.0
 11
41.9955499999999
 21
26.118
 31
0.0
  0
LINE
  5
4E
330
1E
100
AcDbEntity
  8
0
100
AcDbLine
 10
42.7953499999999
 20
29.76599999999999
 30
0.0
 11
44.37904999999989
 21
26.118
 31
0.0
  0
LINE
  5
4F
330
1E
100
AcDbEntity
  8
0
100
AcDbLine
 10
41.3964499999999
 20
35.846
 30
0.0
 11
42.7953499999999
 21
29.76599999999999
 31
0.0
  0
LINE
  5
50
330
1E
100
AcDbEntity
  8
0
100
AcDbLine
 10
39.0129499999999
 20
35.846
 30
0.0
 11
40.4118499999999
 21
29.76599999999999
 31
0.0
  0
LINE
  5
51
330
1E
100
AcDbEntity
  8
0
100
AcDbLine
 10
48.30204999999989
 20
27.03
 30
0.0
 11
49.8329499999999
 21
30.678
 31
0.0
  0
LINE
  5
52
330
1E
100
AcDbEntity
  8
0
100
AcDbLine
 10
47.75754999999989
 20
26.118
 30
0.0
 11
48.30204999999989
 21
27.03
 31
0.0
  0
LINE
  5
53
330
1E
100
AcDbEntity
  8
0
100
AcDbLine
 10
49.8329499999999
 20
30.678
 30
0.0
 11
51.17904999999989
 21
36.606
 31
0.0
  0
LINE
  5
54
330
1E
100
AcDbEntity
  8
0
100
AcDbLine
 10
51.17904999999989
 20
36.606
 30
0.0
 11
52.20844999999989
 21
44.358
 31
0.0
  0
LINE
  5
55
330
1E
100
AcDbEntity
  8
0
100
AcDbLine
 10
154.36725
 20
29.93
 30
0.0
 11
154.6762499999999
 21
30.41
 31
0.0
  0
LINE
  5
56
330
1E
100
AcDbEntity
  8
0
100
AcDbLine
 10
154.6762499999999
 20
30.41
 30
0.0
 11
154.95025
 21
31.21
 31
0.0
  0
LINE
  5
57
330
1E
100
AcDbEntity
  8
0
100
AcDbLine
 10
154.03625
 20
29.75
 30
0.0
 11
198.13325
 21
29.75
 31
0.0
  0
LINE
  5
58
330
1E
100
AcDbEntity
  8
0
100
AcDbLine
 10
154.03625
 20
29.75
 30
0.0
 11
154.36725
 21
29.93
 31
0.0
  0
LINE
  5
59
330
1E
100
AcDbEntity
  8
0
100
AcDbLine
 10
153.70625
 20
29.93
 30
0.0
 11
154.03625
 21
29.75
 31
0.0
  0
LINE
  5
5A
330
1E
100
AcDbEntity
  8
0
100
AcDbLine
 10
154.95025
 20
31.21
 30
0.0
 11
155.15625
 21
32.27
 31
0.0
  0
LINE
  5
5B
330
1E
100
AcDbEntity
  8
0
100
AcDbLine
 10
155.15625
 20
32.27
 30
0.0
 11
155.28025
 21
33.46999999999999
 31
0.0
  0
LINE
  5
5C
330
1E
100
AcDbEntity
  8
0
100
AcDbLine
 10
153.39625
 20
30.41
 30
0.0
 11
153.70625
 21
29.93
 31
0.0
  0
LINE
  5
5D
330
1E
100
AcDbEntity
  8
0
100
AcDbLine
 10
153.12325
 20
31.21
 30
0.0
 11
153.39625
 21
30.41
 31
0.0
  0
LINE
  5
5E
330
1E
100
AcDbEntity
  8
0
100
AcDbLine
 10
155.28025
 20
33.46999999999999
 30
0.0
 11
155.32725
 21
34.75
 31
0.0
  0
LINE
  5
5F
330
1E
100
AcDbEntity
  8
0
100
AcDbLine
 10
152.9162499999999
 20
32.27
 30
0.0
 11
153.12325
 21
31.21
 31
0.0
  0
LINE
  5
60
330
1E
100
AcDbEntity
  8
0
100
AcDbLine
 10
152.79225
 20
33.46999999999999
 30
0.0
 11
152.9162499999999
 21
32.27
 31
0.0
  0
LINE
  5
61
330
1E
100
AcDbEntity
  8
0
100
AcDbLine
 10
152.9162499999999
 20
37.22999999999999
 30
0.0
 11
153.12325
 21
38.29
 31
0.0
  0
LINE
  5
62
330
1E
100
AcDbEntity
  8
0
100
AcDbLine
 10
152.79225
 20
36.03
 30
0.0
 11
152.9162499999999
 21
37.22999999999999
 31
0.0
  0
LINE
  5
63
330
1E
100
AcDbEntity
  8
0
100
AcDbLine
 10
152.74625
 20
34.75
 30
0.0
 11
152.79225
 21
36.03
 31
0.0
  0
LINE
  5
64
330
1E
100
AcDbEntity
  8
0
100
AcDbLine
 10
152.74625
 20
34.75
 30
0.0
 11
152.79225
 21
33.46999999999999
 31
0.0
  0
LINE
  5
65
330
1E
100
AcDbEntity
  8
0
100
AcDbLine
 10
155.15625
 20
37.22999999999999
 30
0.0
 11
155.28025
 21
36.03
 31
0.0
  0
LINE
  5
66
330
1E
100
AcDbEntity
  8
0
100
AcDbLine
 10
198.13325
 20
27.75
 30
0.0
 11
198.13325
 21
28.002
 31
0.0
  0
LINE
  5
67
330
1E
100
AcDbEntity
  8
0
100
AcDbLine
 10
198.13325
 20
27.75
 30
0.0
 11
218.1332499999999
 21
27.75
 31
0.0
  0
LINE
  5
68
330
1E
100
AcDbEntity
  8
0
100
AcDbLine
 10
198.13325
 20
28.002
 30
0.0
 11
198.13325
 21
28.67399999999999
 31
0.0
  0
LINE
  5
69
330
1E
100
AcDbEntity
  8
0
100
AcDbLine
 10
198.13325
 20
28.002
 30
0.0
 11
198.13325
 21
27.75
 31
0.0
  0
LINE
  5
6A
330
1E
100
AcDbEntity
  8
0
100
AcDbLine
 10
198.13325
 20
28.67399999999999
 30
0.0
 11
198.13325
 21
29.75
 31
0.0
  0
LINE
  5
6B
330
1E
100
AcDbEntity
  8
0
100
AcDbLine
 10
198.13325
 20
28.67399999999999
 30
0.0
 11
198.13325
 21
28.002
 31
0.0
  0
LINE
  5
6C
330
1E
100
AcDbEntity
  8
0
100
AcDbLine
 10
198.13325
 20
28.67399999999999
 30
0.0
 11
198.13325
 21
29.794
 31
0.0
  0
LINE
  5
6D
330
1E
100
AcDbEntity
  8
0
100
AcDbLine
 10
198.13325
 20
29.794
 30
0.0
 11
198.13325
 21
28.67399999999999
 31
0.0
  0
LINE
  5
6E
330
1E
100
AcDbEntity
  8
0
100
AcDbLine
 10
198.13325
 20
29.794
 30
0.0
 11
198.13325
 21
31.278
 31
0.0
  0
LINE
  5
6F
330
1E
100
AcDbEntity
  8
0
100
AcDbLine
 10
198.13325
 20
29.75
 30
0.0
 11
198.13325
 21
29.93
 31
0.0
  0
LINE
  5
70
330
1E
100
AcDbEntity
  8
0
100
AcDbLine
 10
198.13325
 20
29.75
 30
0.0
 11
198.13325
 21
28.67399999999999
 31
0.0
  0
LINE
  5
71
330
1E
100
AcDbEntity
  8
0
100
AcDbLine
 10
198.13325
 20
29.93
 30
0.0
 11
198.13325
 21
29.75
 31
0.0
  0
LINE
  5
72
330
1E
100
AcDbEntity
  8
0
100
AcDbLine
 10
198.13325
 20
29.93
 30
0.0
 11
198.13325
 21
30.41
 31
0.0
  0
LINE
  5
73
330
1E
100
AcDbEntity
  8
0
100
AcDbLine
 10
198.13325
 20
31.278
 30
0.0
 11
198.13325
 21
29.794
 31
0.0
  0
LINE
  5
74
330
1E
100
AcDbEntity
  8
0
100
AcDbLine
 10
198.13325
 20
31.278
 30
0.0
 11
198.13325
 21
32.95799999999999
 31
0.0
  0
LINE
  5
75
330
1E
100
AcDbEntity
  8
0
100
AcDbLine
 10
198.13325
 20
30.41
 30
0.0
 11
198.13325
 21
29.93
 31
0.0
  0
LINE
  5
76
330
1E
100
AcDbEntity
  8
0
100
AcDbLine
 10
198.13325
 20
30.41
 30
0.0
 11
198.13325
 21
31.21
 31
0.0
  0
LINE
  5
77
330
1E
100
AcDbEntity
  8
0
100
AcDbLine
 10
198.13325
 20
31.21
 30
0.0
 11
198.13325
 21
30.41
 31
0.0
  0
LINE
  5
78
330
1E
100
AcDbEntity
  8
0
100
AcDbLine
 10
198.13325
 20
31.21
 30
0.0
 11
198.13325
 21
32.27
 31
0.0
  0
LINE
  5
79
330
1E
100
AcDbEntity
  8
0
100
AcDbLine
 10
198.13325
 20
32.95799999999999
 30
0.0
 11
198.13325
 21
31.278
 31
0.0
  0
LINE
  5
7A
330
1E
100
AcDbEntity
  8
0
100
AcDbLine
 10
198.13325
 20
32.95799999999999
 30
0.0
 11
198.13325
 21
34.75
 31
0.0
  0
LINE
  5
7B
330
1E
100
AcDbEntity
  8
0
100
AcDbLine
 10
198.13325
 20
32.27
 30
0.0
 11
198.13325
 21
31.21
 31
0.0
  0
LINE
  5
7C
330
1E
100
AcDbEntity
  8
0
100
AcDbLine
 10
198.13325
 20
32.27
 30
0.0
 11
198.13325
 21
33.46999999999999
 31
0.0
  0
LINE
  5
7D
330
1E
100
AcDbEntity
  8
0
100
AcDbLine
 10
198.13325
 20
33.46999999999999
 30
0.0
 11
198.13325
 21
32.27
 31
0.0
  0
LINE
  5
7E
330
1E
100
AcDbEntity
  8
0
100
AcDbLine
 10
198.13325
 20
33.46999999999999
 30
0.0
 11
198.13325
 21
34.75
 31
0.0
  0
LINE
  5
7F
330
1E
100
AcDbEntity
  8
0
100
AcDbLine
 10
198.13325
 20
36.542
 30
0.0
 11
198.13325
 21
34.75
 31
0.0
  0
LINE
  5
80
330
1E
100
AcDbEntity
  8
0
100
AcDbLine
 10
198.13325
 20
36.542
 30
0.0
 11
198.13325
 21
38.222
 31
0.0
  0
LINE
  5
81
330
1E
100
AcDbEntity
  8
0
100
AcDbLine
 10
198.13325
 20
34.75
 30
0.0
 11
198.13325
 21
36.03
 31
0.0
  0
LINE
  5
82
330
1E
100
AcDbEntity
  8
0
100
AcDbLine
 10
198.13325
 20
34.75
 30
0.0
 11
198.13325
 21
33.46999999999999
 31
0.0
  0
LINE
  5
83
330
1E
100
AcDbEntity
  8
0
100
AcDbLine
 10
198.13325
 20
34.75
 30
0.0
 11
198.13325
 21
36.542
 31
0.0
  0
LINE
  5
84
330
1E
100
AcDbEntity
  8
0
100
AcDbLine
 10
198.13325
 20
34.75
 30
0.0
 11
198.13325
 21
32.95799999999999
 31
0.0
  0
LINE
  5
85
330
1E
100
AcDbEntity
  8
0
100
AcDbLine
 10
155.28025
 20
36.03
 30
0.0
 11
155.32725
 21
34.75
 31
0.0
  0
LINE
  5
86
330
1E
100
AcDbEntity
  8
0
100
AcDbLine
 10
14.95314999999989
 20
39.0735
 30
0.0
 11
16.1687499999999
 21
33.8235
 31
0.0
  0
LINE
  5
87
330
1E
100
AcDbEntity
  8
0
100
AcDbLine
 10
15.3204499999999
 20
38.3529
 30
0.0
 11
16.57174999999989
 21
32.8971
 31
0.0
  0
LINE
  5
88
330
1E
100
AcDbEntity
  8
0
100
AcDbLine
 10
153.39625
 20
39.09
 30
0.0
 11
153.70625
 21
39.57
 31
0.0
  0
LINE
  5
89
330
1E
100
AcDbEntity
  8
0
100
AcDbLine
 10
153.12325
 20
38.29
 30
0.0
 11
153.39625
 21
39.09
 31
0.0
  0
LINE
  5
8A
330
1E
100
AcDbEntity
  8
0
100
AcDbLine
 10
154.6762499999999
 20
39.09
 30
0.0
 11
154.95025
 21
38.29
 31
0.0
  0
LINE
  5
8B
330
1E
100
AcDbEntity
  8
0
100
AcDbLine
 10
198.13325
 20
38.222
 30
0.0
 11
198.13325
 21
36.542
 31
0.0
  0
LINE
  5
8C
330
1E
100
AcDbEntity
  8
0
100
AcDbLine
 10
198.13325
 20
38.222
 30
0.0
 11
198.13325
 21
39.70599999999999
 31
0.0
  0
LINE
  5
8D
330
1E
100
AcDbEntity
  8
0
100
AcDbLine
 10
154.95025
 20
38.29
 30
0.0
 11
155.15625
 21
37.22999999999999
 31
0.0
  0
LINE
  5
8E
330
1E
100
AcDbEntity
  8
0
100
AcDbLine
 10
153.70625
 20
39.57
 30
0.0
 11
154.03625
 21
39.75
 31
0.0
  0
LINE
  5
8F
330
1E
100
AcDbEntity
  8
0
100
AcDbLine
 10
154.03625
 20
39.75
 30
0.0
 11
154.36725
 21
39.57
 31
0.0
  0
LINE
  5
90
330
1E
100
AcDbEntity
  8
0
100
AcDbLine
 10
154.03625
 20
39.75
 30
0.0
 11
198.13325
 21
39.75
 31
0.0
  0
LINE
  5
91
330
1E
100
AcDbEntity
  8
0
100
AcDbLine
 10
198.13325
 20
39.70599999999999
 30
0.0
 11
198.13325
 21
38.222
 31
0.0
  0
LINE
  5
92
330
1E
100
AcDbEntity
  8
0
100
AcDbLine
 10
198.13325
 20
39.70599999999999
 30
0.0
 11
198.13325
 21
40.826
 31
0.0
  0
LINE
  5
93
330
1E
100
AcDbEntity
  8
0
100
AcDbLine
 10
154.36725
 20
39.57
 30
0.0
 11
154.6762499999999
 21
39.09
 31
0.0
  0
LINE
  5
94
330
1E
100
AcDbEntity
  8
0
100
AcDbLine
 10
71.63804999999991
 20
39.75
 30
0.0
 11
77.43654999999991
 21
40.578
 31
0.0
  0
LINE
  5
96
330
1E
100
AcDbEntity
  8
0
100
AcDbLine
 10
60.63004999999989
 20
40.578
 30
0.0
 11
66.4285499999999
 21
39.75
 31
0.0
  0
LINE
  5
97
330
1E
100
AcDbEntity
  8
0
100
AcDbLine
 10
66.4285499999999
 20
39.75
 30
0.0
 11
72.22714999999991
 21
40.578
 31
0.0
  0
LINE
  5
98
330
1E
100
AcDbEntity
  8
0
100
AcDbLine
 10
66.4285499999999
 20
39.75
 30
0.0
 11
71.63804999999991
 21
39.75
 31
0.0
  0
LINE
  5
9A
330
1E
100
AcDbEntity
  8
0
100
AcDbLine
 10
77.43654999999991
 20
40.578
 30
0.0
 11
82.87274999999992
 21
42.78599999999999
 31
0.0
  0
LINE
  5
9B
330
1E
100
AcDbEntity
  8
0
100
AcDbLine
 10
72.22714999999991
 20
40.578
 30
0.0
 11
77.66324999999991
 21
42.78599999999999
 31
0.0
  0
LINE
  5
9D
330
1E
100
AcDbEntity
  8
0
100
AcDbLine
 10
198.13325
 20
40.826
 30
0.0
 11
198.13325
 21
41.498
 31
0.0
  0
LINE
  5
9E
330
1E
100
AcDbEntity
  8
0
100
AcDbLine
 10
198.13325
 20
40.826
 30
0.0
 11
198.13325
 21
39.75
 31
0.0
  0
LINE
  5
9F
330
1E
100
AcDbEntity
  8
0
100
AcDbLine
 10
198.13325
 20
40.826
 30
0.0
 11
198.13325
 21
39.70599999999999
 31
0.0
  0
LINE
  5
A0
330
1E
100
AcDbEntity
  8
0
100
AcDbLine
 10
198.13325
 20
40.826
 30
0.0
 11
198.13325
 21
41.498
 31
0.0
  0
LINE
  5
A1
330
1E
100
AcDbEntity
  8
0
100
AcDbLine
 10
198.13325
 20
39.75
 30
0.0
 11
198.13325
 21
39.57
 31
0.0
  0
LINE
  5
A2
330
1E
100
AcDbEntity
  8
0
100
AcDbLine
 10
198.13325
 20
39.75
 30
0.0
 11
198.13325
 21
40.826
 31
0.0
  0
LINE
  5
A3
330
1E
100
AcDbEntity
  8
0
100
AcDbLine
 10
198.13325
 20
39.57
 30
0.0
 11
198.13325
 21
39.09
 31
0.0
  0
LINE
  5
A4
330
1E
100
AcDbEntity
  8
0
100
AcDbLine
 10
198.13325
 20
39.57
 30
0.0
 11
198.13325
 21
39.75
 31
0.0
  0
LINE
  5
A5
330
1E
100
AcDbEntity
  8
0
100
AcDbLine
 10
198.13325
 20
39.09
 30
0.0
 11
198.13325
 21
38.29
 31
0.0
  0
LINE
  5
A6
330
1E
100
AcDbEntity
  8
0
100
AcDbLine
 10
198.13325
 20
39.09
 30
0.0
 11
198.13325
 21
39.57
 31
0.0
  0
LINE
  5
A7
330
1E
100
AcDbEntity
  8
0
100
AcDbLine
 10
198.13325
 20
38.29
 30
0.0
 11
198.13325
 21
37.22999999999999
 31
0.0
  0
LINE
  5
A8
330
1E
100
AcDbEntity
  8
0
100
AcDbLine
 10
198.13325
 20
38.29
 30
0.0
 11
198.13325
 21
39.09
 31
0.0
  0
LINE
  5
A9
330
1E
100
AcDbEntity
  8
0
100
AcDbLine
 10
198.13325
 20
37.22999999999999
 30
0.0
 11
198.13325
 21
36.03
 31
0.0
  0
LINE
  5
AA
330
1E
100
AcDbEntity
  8
0
100
AcDbLine
 10
198.13325
 20
37.22999999999999
 30
0.0
 11
198.13325
 21
38.29
 31
0.0
  0
LINE
  5
AB
330
1E
100
AcDbEntity
  8
0
100
AcDbLine
 10
198.13325
 20
36.03
 30
0.0
 11
198.13325
 21
34.75
 31
0.0
  0
LINE
  5
AC
330
1E
100
AcDbEntity
  8
0
100
AcDbLine
 10
198.13325
 20
36.03
 30
0.0
 11
198.13325
 21
37.22999999999999
 31
0.0
  0
LINE
  5
AD
330
1E
100
AcDbEntity
  8
0
100
AcDbLine
 10
198.13325
 20
41.74999999999999
 30
0.0
 11
198.13325
 21
41.498
 31
0.0
  0
LINE
  5
AE
330
1E
100
AcDbEntity
  8
0
100
AcDbLine
 10
198.13325
 20
41.74999999999999
 30
0.0
 11
216.1332499999999
 21
41.74999999999999
 31
0.0
  0
LINE
  5
AF
330
1E
100
AcDbEntity
  8
0
100
AcDbLine
 10
198.13325
 20
41.498
 30
0.0
 11
198.13325
 21
40.826
 31
0.0
  0
LINE
  5
B0
330
1E
100
AcDbEntity
  8
0
100
AcDbLine
 10
198.13325
 20
41.498
 30
0.0
 11
198.13325
 21
41.74999999999999
 31
0.0
  0
LINE
  5
B1
330
1E
100
AcDbEntity
  8
0
100
AcDbLine
 10
198.13325
 20
41.498
 30
0.0
 11
198.13325
 21
40.826
 31
0.0
  0
LINE
  5
B2
330
1E
100
AcDbEntity
  8
0
100
AcDbLine
 10
62.95564999999989
 20
41.74999999999999
 30
0.0
 11
68.2499499999999
 21
42.506
 31
0.0
  0
LINE
  5
B3
330
1E
100
AcDbEntity
  8
0
100
AcDbLine
 10
62.95564999999989
 20
41.74999999999999
 30
0.0
 11
66.4285499999999
 21
41.74999999999999
 31
0.0
  0
LINE
  5
B7
330
1E
100
AcDbEntity
  8
0
100
AcDbLine
 10
57.66134999999989
 20
42.506
 30
0.0
 11
62.95564999999989
 21
41.74999999999999
 31
0.0
  0
LINE
  5
B8
330
1E
100
AcDbEntity
  8
0
100
AcDbLine
 10
68.2499499999999
 20
42.506
 30
0.0
 11
73.2133499999999
 21
44.522
 31
0.0
  0
LINE
  5
BB
330
1E
100
AcDbEntity
  8
0
100
AcDbLine
 10
66.4285499999999
 20
41.74999999999999
 30
0.0
 11
71.7229499999999
 21
42.506
 31
0.0
  0
LINE
  5
BC
330
1E
100
AcDbEntity
  8
0
100
AcDbLine
 10
71.7229499999999
 20
42.506
 30
0.0
 11
76.68634999999991
 21
44.522
 31
0.0
  0
LINE
  5
BE
330
1E
100
AcDbEntity
  8
0
100
AcDbLine
 10
107.63325
 20
42.75
 30
0.0
 11
115.10985
 21
42.75
 31
0.0
  0
LINE
  5
BF
330
1E
100
AcDbEntity
  8
0
100
AcDbLine
 10
123.13325
 20
42.75
 30
0.0
 11
202.13325
 21
42.75
 31
0.0
  0
LINE
  5
C0
330
1E
100
AcDbEntity
  8
0
100
AcDbLine
 10
115.10985
 20
42.75
 30
0.0
 11
123.13325
 21
42.75
 31
0.0
  0
LINE
  5
C1
330
1E
100
AcDbEntity
  8
0
100
AcDbLine
 10
37.08478999999989
 20
42.90999999999999
 30
0.0
 11
38.19614999999989
 21
34.43
 31
0.0
  0
LINE
  5
C2
330
1E
100
AcDbEntity
  8
0
100
AcDbLine
 10
27.9743109999999
 20
43.39
 30
0.0
 11
29.0578799999999
 21
35.22999999999999
 31
0.0
  0
LINE
  5
C3
330
1E
100
AcDbEntity
  8
0
100
AcDbLine
 10
28.3784999999999
 20
42.90999999999999
 30
0.0
 11
29.4898499999999
 21
34.43
 31
0.0
  0
LINE
  5
C4
330
1E
100
AcDbEntity
  8
0
100
AcDbLine
 10
40.3406499999999
 20
43.902
 30
0.0
 11
41.3964499999999
 21
35.846
 31
0.0
  0
LINE
  5
C5
330
1E
100
AcDbEntity
  8
0
100
AcDbLine
 10
37.9571499999999
 20
43.902
 30
0.0
 11
39.0129499999999
 21
35.846
 31
0.0
  0
LINE
  5
C6
330
1E
100
AcDbEntity
  8
0
100
AcDbLine
 10
82.78411630434771
 20
42.75
 30
0.0
 11
93.18954999999991
 21
42.75
 31
0.0
  0
LINE
  5
C7
330
1E
100
AcDbEntity
  8
0
100
AcDbLine
 10
82.78411630434771
 20
42.75
 30
0.0
 11
93.18954999999991
 21
42.75
 31
0.0
  0
LINE
  5
C8
330
1E
100
AcDbEntity
  8
0
100
AcDbLine
 10
93.18954999999991
 20
42.75
 30
0.0
 11
96.28644999999991
 21
42.75
 31
0.0
  0
LINE
  5
C9
330
1E
100
AcDbEntity
  8
0
100
AcDbLine
 10
52.69784999999989
 20
44.522
 30
0.0
 11
52.82615691244229
 21
44.75
 31
0.0
  0
LINE
  5
CA
330
1E
100
AcDbEntity
  8
0
100
AcDbLine
 10
52.69784999999989
 20
44.522
 30
0.0
 11
57.66134999999989
 21
42.506
 31
0.0
  0
LINE
  5
CB
330
1E
100
AcDbEntity
  8
0
100
AcDbLine
 10
53.18893356676779
 20
44.3225390408776
 30
0.0
 11
55.19394999999989
 21
42.78599999999999
 31
0.0
  0
LINE
  5
CC
330
1E
100
AcDbEntity
  8
0
100
AcDbLine
 10
76.68634999999991
 20
44.522
 30
0.0
 11
81.07074999999991
 21
47.88199999999999
 31
0.0
  0
LINE
  5
CD
330
1E
100
AcDbEntity
  8
0
100
AcDbLine
 10
73.2133499999999
 20
44.522
 30
0.0
 11
77.5977499999999
 21
47.88199999999999
 31
0.0
  0
LINE
  5
D0
330
1E
100
AcDbEntity
  8
0
100
AcDbLine
 10
55.19394999999989
 20
42.78599999999999
 30
0.0
 11
60.63004999999989
 21
40.578
 31
0.0
  0
LINE
  5
D1
330
1E
100
AcDbEntity
  8
0
100
AcDbLine
 10
52.4003439285713
 20
44.75
 30
0.0
 11
52.69784999999989
 21
44.522
 31
0.0
  0
LINE
  5
D4
330
1E
100
AcDbEntity
  8
0
100
AcDbLine
 10
82.87274999999992
 20
42.78599999999999
 30
0.0
 11
87.6746499999999
 21
46.466
 31
0.0
  0
LINE
  5
D5
330
1E
100
AcDbEntity
  8
0
100
AcDbLine
 10
77.66324999999991
 20
42.78599999999999
 30
0.0
 11
82.46524999999989
 21
46.466
 31
0.0
  0
LINE
  5
D7
330
1E
100
AcDbEntity
  8
0
100
AcDbLine
 10
96.28644999999991
 20
42.75
 30
0.0
 11
101.21295
 21
42.75
 31
0.0
  0
LINE
  5
D8
330
1E
100
AcDbEntity
  8
0
100
AcDbLine
 10
101.21295
 20
42.75
 30
0.0
 11
107.63325
 21
42.75
 31
0.0
  0
LINE
  5
DA
330
1E
100
AcDbEntity
  8
0
100
AcDbLine
 10
52.20844999999989
 20
44.358
 30
0.0
 11
52.51810832654641
 21
48.668
 31
0.0
  0
LINE
  5
DB
330
1E
100
AcDbEntity
  8
0
100
AcDbLine
 10
14.0415499999999
 20
46.0735
 30
0.0
 11
14.95314999999989
 21
39.0735
 31
0.0
  0
LINE
  5
DD
330
1E
100
AcDbEntity
  8
0
100
AcDbLine
 10
52.2829456935451
 20
45.394873262091
 30
0.0
 11
55.5283499999999
 21
47.88199999999999
 31
0.0
  0
LINE
  5
DE
330
1E
100
AcDbEntity
  8
0
100
AcDbLine
 10
14.3730499999999
 20
45.5588
 30
0.0
 11
15.3204499999999
 21
38.3529
 31
0.0
  0
LINE
  5
DF
330
1E
100
AcDbEntity
  8
0
100
AcDbLine
 10
180.13325
 20
45.39
 30
0.0
 11
180.13325
 21
48.59
 31
0.0
  0
LINE
  5
E0
330
1E
100
AcDbEntity
  8
0
100
AcDbLine
 10
202.13325
 20
45.39
 30
0.0
 11
202.13325
 21
43.47
 31
0.0
  0
LINE
  5
E1
330
1E
100
AcDbEntity
  8
0
100
AcDbLine
 10
180.13325
 20
43.47
 30
0.0
 11
180.13325
 21
45.39
 31
0.0
  0
LINE
  5
E2
330
1E
100
AcDbEntity
  8
0
100
AcDbLine
 10
180.13325
 20
42.75
 30
0.0
 11
180.13325
 21
43.47
 31
0.0
  0
LINE
  5
E3
330
1E
100
AcDbEntity
  8
0
100
AcDbLine
 10
180.13325
 20
42.75
 30
0.0
 11
202.13325
 21
42.75
 31
0.0
  0
LINE
  5
E4
330
1E
100
AcDbEntity
  8
0
100
AcDbLine
 10
202.13325
 20
43.47
 30
0.0
 11
202.13325
 21
42.75
 31
0.0
  0
LINE
  5
E5
330
1E
100
AcDbEntity
  8
0
100
AcDbLine
 10
81.07074999999991
 20
47.88199999999999
 30
0.0
 11
84.37964999999989
 21
52.33399999999999
 31
0.0
  0
LINE
  5
E7
330
1E
100
AcDbEntity
  8
0
100
AcDbLine
 10
77.5977499999999
 20
47.88199999999999
 30
0.0
 11
80.9067499999999
 21
52.33399999999999
 31
0.0
  0
LINE
  5
E9
330
1E
100
AcDbEntity
  8
0
100
AcDbLine
 10
87.6746499999999
 20
46.466
 30
0.0
 11
91.29874999999989
 21
51.34199999999999
 31
0.0
  0
LINE
  5
EA
330
1E
100
AcDbEntity
  8
0
100
AcDbLine
 10
82.46524999999989
 20
46.466
 30
0.0
 11
86.0892499999999
 21
51.34199999999999
 31
0.0
  0
LINE
  5
ED
330
1E
100
AcDbEntity
  8
0
100
AcDbLine
 10
55.5283499999999
 20
47.88199999999999
 30
0.0
 11
58.8372499999999
 21
52.33399999999999
 31
0.0
  0
LINE
  5
EE
330
1E
100
AcDbEntity
  8
0
100
AcDbLine
 10
180.13325
 20
48.59
 30
0.0
 11
180.13325
 21
52.83
 31
0.0
  0
LINE
  5
106
330
1E
100
AcDbEntity
  8
0
100
AcDbLine
 10
202.13325
 20
48.59
 30
0.0
 11
202.13325
 21
45.39
 31
0.0
  0
LINE
  5
107
330
1E
100
AcDbEntity
  8
0
100
AcDbLine
 10
202.13325
 20
49.13399999999999
 30
0.0
 11
216.1332499999999
 21
49.13399999999999
 31
0.0
  0
LINE
  5
108
330
1E
100
AcDbEntity
  8
0
100
AcDbLine
 10
202.13325
 20
49.13399999999999
 30
0.0
 11
202.13325
 21
50.63399999999999
 31
0.0
  0
LINE
  5
109
330
1E
100
AcDbEntity
  8
0
100
AcDbLine
 10
202.13325
 20
49.13399999999999
 30
0.0
 11
202.13325
 21
50.866
 31
0.0
  0
LINE
  5
10A
330
1E
100
AcDbEntity
  8
0
100
AcDbLine
 10
202.13325
 20
46.466
 30
0.0
 11
202.13325
 21
51.34199999999999
 31
0.0
  0
LINE
  5
10B
330
1E
100
AcDbEntity
  8
0
100
AcDbLine
 10
202.13325
 20
46.466
 30
0.0
 11
202.13325
 21
42.78599999999999
 31
0.0
  0
LINE
  5
10C
330
1E
100
AcDbEntity
  8
0
100
AcDbLine
 10
202.13325
 20
42.78599999999999
 30
0.0
 11
202.13325
 21
46.466
 31
0.0
  0
LINE
  5
10D
330
1E
100
AcDbEntity
  8
0
100
AcDbLine
 10
202.13325
 20
42.78599999999999
 30
0.0
 11
202.13325
 21
41.74999999999999
 31
0.0
  0
LINE
  5
10E
330
1E
100
AcDbEntity
  8
0
100
AcDbLine
 10
202.13325
 20
41.74999999999999
 30
0.0
 11
202.13325
 21
42.75
 31
0.0
  0
LINE
  5
10F
330
1E
100
AcDbEntity
  8
0
100
AcDbLine
 10
202.13325
 20
41.74999999999999
 30
0.0
 11
202.13325
 21
42.78599999999999
 31
0.0
  0
LINE
  5
110
330
1E
100
AcDbEntity
  8
0
100
AcDbLine
 10
216.1332499999999
 20
49.13399999999999
 30
0.0
 11
216.1332499999999
 21
46.466
 31
0.0
  0
LINE
  5
111
330
1E
100
AcDbEntity
  8
0
100
AcDbLine
 10
216.1332499999999
 20
49.13399999999999
 30
0.0
 11
216.1332499999999
 21
50.866
 31
0.0
  0
LINE
  5
112
330
1E
100
AcDbEntity
  8
0
100
AcDbLine
 10
216.1332499999999
 20
46.466
 30
0.0
 11
216.1332499999999
 21
49.13399999999999
 31
0.0
  0
LINE
  5
113
330
1E
100
AcDbEntity
  8
0
100
AcDbLine
 10
216.1332499999999
 20
46.466
 30
0.0
 11
216.1332499999999
 21
42.78599999999999
 31
0.0
  0
LINE
  5
114
330
1E
100
AcDbEntity
  8
0
100
AcDbLine
 10
216.1332499999999
 20
42.78599999999999
 30
0.0
 11
216.1332499999999
 21
46.466
 31
0.0
  0
LINE
  5
115
330
1E
100
AcDbEntity
  8
0
100
AcDbLine
 10
216.1332499999999
 20
42.78599999999999
 30
0.0
 11
216.1332499999999
 21
41.74999999999999
 31
0.0
  0
LINE
  5
116
330
1E
100
AcDbEntity
  8
0
100
AcDbLine
 10
216.1332499999999
 20
41.74999999999999
 30
0.0
 11
216.1332499999999
 21
42.78599999999999
 31
0.0
  0
LINE
  5
117
330
1E
100
AcDbEntity
  8
0
100
AcDbLine
 10
202.13325
 20
42.75
 30
0.0
 11
202.13325
 21
41.74999999999999
 31
0.0
  0
LINE
  5
11E
330
1E
100
AcDbEntity
  8
0
100
AcDbLine
 10
91.29874999999989
 20
51.34199999999999
 30
0.0
 11
93.4732499999999
 21
56.86199999999999
 31
0.0
  0
LINE
  5
11F
330
1E
100
AcDbEntity
  8
0
100
AcDbLine
 10
86.0892499999999
 20
51.34199999999999
 30
0.0
 11
88.26374999999989
 21
56.86199999999999
 31
0.0
  0
LINE
  5
128
330
1E
100
AcDbEntity
  8
0
100
AcDbLine
 10
84.37964999999989
 20
52.33399999999999
 30
0.0
 11
86.3650499999999
 21
57.374
 31
0.0
  0
LINE
  5
129
330
1E
100
AcDbEntity
  8
0
100
AcDbLine
 10
80.9067499999999
 20
52.33399999999999
 30
0.0
 11
82.8920499999999
 21
57.374
 31
0.0
  0
LINE
  5
12C
330
1E
100
AcDbEntity
  8
0
100
AcDbLine
 10
58.8372499999999
 20
52.33399999999999
 30
0.0
 11
60.82264999999989
 21
57.374
 31
0.0
  0
LINE
  5
12E
330
1E
100
AcDbEntity
  8
0
100
AcDbLine
 10
202.13325
 20
50.63399999999999
 30
0.0
 11
202.13325
 21
52.36600000000001
 31
0.0
  0
LINE
  5
12F
330
1E
100
AcDbEntity
  8
0
100
AcDbLine
 10
202.13325
 20
50.63399999999999
 30
0.0
 11
202.13325
 21
49.13399999999999
 31
0.0
  0
LINE
  5
130
330
1E
100
AcDbEntity
  8
0
100
AcDbLine
 10
36.4179799999999
 20
52.51
 30
0.0
 11
37.08478999999989
 21
42.90999999999999
 31
0.0
  0
LINE
  5
131
330
1E
100
AcDbEntity
  8
0
100
AcDbLine
 10
27.3075019999999
 20
52.67
 30
0.0
 11
27.9743109999999
 21
43.39
 31
0.0
  0
LINE
  5
132
330
1E
100
AcDbEntity
  8
0
100
AcDbLine
 10
27.7116919999999
 20
52.51
 30
0.0
 11
28.3784999999999
 21
42.90999999999999
 31
0.0
  0
LINE
  5
134
330
1E
100
AcDbEntity
  8
0
100
AcDbLine
 10
39.7072499999999
 20
53.02202
 30
0.0
 11
40.3406499999999
 21
43.902
 31
0.0
  0
LINE
  5
135
330
1E
100
AcDbEntity
  8
0
100
AcDbLine
 10
13.4695499999999
 20
54.10292
 30
0.0
 11
14.0415499999999
 21
46.0735
 31
0.0
  0
LINE
  5
136
330
1E
100
AcDbEntity
  8
0
100
AcDbLine
 10
13.78314999999989
 20
53.89711999999999
 30
0.0
 11
14.3730499999999
 21
45.5588
 31
0.0
  0
LINE
  5
137
330
1E
100
AcDbEntity
  8
0
100
AcDbLine
 10
37.3236499999999
 20
53.02202
 30
0.0
 11
37.9571499999999
 21
43.902
 31
0.0
  0
LINE
  5
141
330
1E
100
AcDbEntity
  8
0
100
AcDbLine
 10
180.13325
 20
52.83
 30
0.0
 11
180.13325
 21
57.63
 31
0.0
  0
LINE
  5
142
330
1E
100
AcDbEntity
  8
0
100
AcDbLine
 10
202.13325
 20
52.83
 30
0.0
 11
202.13325
 21
48.59
 31
0.0
  0
LINE
  5
143
330
1E
100
AcDbEntity
  8
0
100
AcDbLine
 10
202.13325
 20
52.36600000000001
 30
0.0
 11
202.13325
 21
50.866
 31
0.0
  0
LINE
  5
144
330
1E
100
AcDbEntity
  8
0
100
AcDbLine
 10
202.13325
 20
52.36600000000001
 30
0.0
 11
202.13325
 21
50.63399999999999
 31
0.0
  0
LINE
  5
145
330
1E
100
AcDbEntity
  8
0
100
AcDbLine
 10
202.13325
 20
50.866
 30
0.0
 11
216.1332499999999
 21
50.866
 31
0.0
  0
LINE
  5
146
330
1E
100
AcDbEntity
  8
0
100
AcDbLine
 10
202.13325
 20
50.866
 30
0.0
 11
202.13325
 21
49.13399999999999
 31
0.0
  0
LINE
  5
147
330
1E
100
AcDbEntity
  8
0
100
AcDbLine
 10
202.13325
 20
50.866
 30
0.0
 11
202.13325
 21
52.36600000000001
 31
0.0
  0
LINE
  5
148
330
1E
100
AcDbEntity
  8
0
100
AcDbLine
 10
93.4732499999999
 20
56.86199999999999
 30
0.0
 11
94.28864999999991
 21
62.75
 31
0.0
  0
LINE
  5
149
330
1E
100
AcDbEntity
  8
0
100
AcDbLine
 10
88.26374999999989
 20
56.86199999999999
 30
0.0
 11
89.0791499999999
 21
62.75
 31
0.0
  0
LINE
  5
14B
330
1E
100
AcDbEntity
  8
0
100
AcDbLine
 10
86.3650499999999
 20
57.374
 30
0.0
 11
87.10954999999989
 21
62.75
 31
0.0
  0
LINE
  5
14C
330
1E
100
AcDbEntity
  8
0
100
AcDbLine
 10
82.8920499999999
 20
57.374
 30
0.0
 11
83.6365499999999
 21
62.75
 31
0.0
  0
LINE
  5
14F
330
1E
100
AcDbEntity
  8
0
100
AcDbLine
 10
60.82264999999989
 20
57.374
 30
0.0
 11
61.5671499999999
 21
62.75
 31
0.0
  0
LINE
  5
16E
330
1E
100
AcDbEntity
  8
0
100
AcDbLine
 10
180.13325
 20
62.75
 30
0.0
 11
180.13325
 21
67.87
 31
0.0
  0
LINE
  5
16F
330
1E
100
AcDbEntity
  8
0
100
AcDbLine
 10
180.13325
 20
57.63
 30
0.0
 11
180.13325
 21
62.75
 31
0.0
  0
LINE
  5
170
330
1E
100
AcDbEntity
  8
0
100
AcDbLine
 10
202.13325
 20
57.63
 30
0.0
 11
202.13325
 21
52.83
 31
0.0
  0
LINE
  5
171
330
1E
100
AcDbEntity
  8
0
100
AcDbLine
 10
202.13325
 20
56.86199999999999
 30
0.0
 11
202.13325
 21
62.75
 31
0.0
  0
LINE
  5
172
330
1E
100
AcDbEntity
  8
0
100
AcDbLine
 10
202.13325
 20
56.86199999999999
 30
0.0
 11
202.13325
 21
51.34199999999999
 31
0.0
  0
LINE
  5
173
330
1E
100
AcDbEntity
  8
0
100
AcDbLine
 10
202.13325
 20
51.34199999999999
 30
0.0
 11
202.13325
 21
56.86199999999999
 31
0.0
  0
LINE
  5
174
330
1E
100
AcDbEntity
  8
0
100
AcDbLine
 10
202.13325
 20
51.34199999999999
 30
0.0
 11
202.13325
 21
46.466
 31
0.0
  0
LINE
  5
175
330
1E
100
AcDbEntity
  8
0
100
AcDbLine
 10
27.0574479999999
 20
62.750016
 30
0.0
 11
27.3075019999999
 21
52.67
 31
0.0
  0
LINE
  5
176
330
1E
100
AcDbEntity
  8
0
100
AcDbLine
 10
27.0574479999999
 20
62.750016
 30
0.0
 11
27.3075019999999
 21
72.83
 31
0.0
  0
LINE
  5
177
330
1E
100
AcDbEntity
  8
0
100
AcDbLine
 10
36.1679299999999
 20
62.750016
 30
0.0
 11
36.4179799999999
 21
52.51
 31
0.0
  0
LINE
  5
178
330
1E
100
AcDbEntity
  8
0
100
AcDbLine
 10
36.1679299999999
 20
62.750016
 30
0.0
 11
36.4179799999999
 21
72.98999999999999
 31
0.0
  0
LINE
  5
179
330
1E
100
AcDbEntity
  8
0
100
AcDbLine
 10
27.4616389999999
 20
62.750016
 30
0.0
 11
27.7116919999999
 21
52.51
 31
0.0
  0
LINE
  5
17A
330
1E
100
AcDbEntity
  8
0
100
AcDbLine
 10
27.4616389999999
 20
62.750016
 30
0.0
 11
27.7116919999999
 21
72.98999999999999
 31
0.0
  0
LINE
  5
17B
330
1E
100
AcDbEntity
  8
0
100
AcDbLine
 10
13.25504999999989
 20
62.750016
 30
0.0
 11
13.4695499999999
 21
54.10292
 31
0.0
  0
LINE
  5
17C
330
1E
100
AcDbEntity
  8
0
100
AcDbLine
 10
13.25504999999989
 20
62.750016
 30
0.0
 11
13.4695499999999
 21
71.39712
 31
0.0
  0
LINE
  5
17D
330
1E
100
AcDbEntity
  8
0
100
AcDbLine
 10
13.5686499999999
 20
62.750016
 30
0.0
 11
13.78314999999989
 21
53.89711999999999
 31
0.0
  0
LINE
  5
17E
330
1E
100
AcDbEntity
  8
0
100
AcDbLine
 10
13.5686499999999
 20
62.750016
 30
0.0
 11
13.78314999999989
 21
71.60292
 31
0.0
  0
LINE
  5
17F
330
1E
100
AcDbEntity
  8
0
100
AcDbLine
 10
39.4696499999999
 20
62.750016
 30
0.0
 11
39.7072499999999
 21
53.02202
 31
0.0
  0
LINE
  5
180
330
1E
100
AcDbEntity
  8
0
100
AcDbLine
 10
39.4696499999999
 20
62.750016
 30
0.0
 11
39.7072499999999
 21
72.47802
 31
0.0
  0
LINE
  5
181
330
1E
100
AcDbEntity
  8
0
100
AcDbLine
 10
37.0861199999999
 20
62.750016
 30
0.0
 11
37.3236499999999
 21
53.02202
 31
0.0
  0
LINE
  5
182
330
1E
100
AcDbEntity
  8
0
100
AcDbLine
 10
37.0861199999999
 20
62.750016
 30
0.0
 11
37.3236499999999
 21
72.47802
 31
0.0
  0
LINE
  5
19A
330
1E
100
AcDbEntity
  8
0
100
AcDbLine
 10
82.8920499999999
 20
68.126
 30
0.0
 11
83.6365499999999
 21
62.75
 31
0.0
  0
LINE
  5
19C
330
1E
100
AcDbEntity
  8
0
100
AcDbLine
 10
86.3650499999999
 20
68.126
 30
0.0
 11
87.10954999999989
 21
62.75
 31
0.0
  0
LINE
  5
19F
330
1E
100
AcDbEntity
  8
0
100
AcDbLine
 10
60.82264999999989
 20
68.126
 30
0.0
 11
61.5671499999999
 21
62.75
 31
0.0
  0
LINE
  5
1A4
330
1E
100
AcDbEntity
  8
0
100
AcDbLine
 10
202.13325
 20
67.87
 30
0.0
 11
202.13325
 21
62.75
 31
0.0
  0
LINE
  5
1A5
330
1E
100
AcDbEntity
  8
0
100
AcDbLine
 10
180.13325
 20
67.87
 30
0.0
 11
180.13325
 21
72.67
 31
0.0
  0
LINE
  5
1A6
330
1E
100
AcDbEntity
  8
0
100
AcDbLine
 10
202.13325
 20
62.75
 30
0.0
 11
202.13325
 21
68.63800000000001
 31
0.0
  0
LINE
  5
1A7
330
1E
100
AcDbEntity
  8
0
100
AcDbLine
 10
202.13325
 20
62.75
 30
0.0
 11
202.13325
 21
56.86199999999999
 31
0.0
  0
LINE
  5
1A8
330
1E
100
AcDbEntity
  8
0
100
AcDbLine
 10
202.13325
 20
62.75
 30
0.0
 11
202.13325
 21
57.63
 31
0.0
  0
LINE
  5
1A9
330
1E
100
AcDbEntity
  8
0
100
AcDbLine
 10
216.1332499999999
 20
50.866
 30
0.0
 11
216.1332499999999
 21
52.36600000000001
 31
0.0
  0
LINE
  5
1AA
330
1E
100
AcDbEntity
  8
0
100
AcDbLine
 10
216.1332499999999
 20
50.866
 30
0.0
 11
216.1332499999999
 21
49.13399999999999
 31
0.0
  0
LINE
  5
1AB
330
1E
100
AcDbEntity
  8
0
100
AcDbLine
 10
216.1332499999999
 20
56.86199999999999
 30
0.0
 11
216.1332499999999
 21
62.75
 31
0.0
  0
LINE
  5
1AC
330
1E
100
AcDbEntity
  8
0
100
AcDbLine
 10
216.1332499999999
 20
56.86199999999999
 30
0.0
 11
216.1332499999999
 21
52.36600000000001
 31
0.0
  0
LINE
  5
1AD
330
1E
100
AcDbEntity
  8
0
100
AcDbLine
 10
216.1332499999999
 20
52.36600000000001
 30
0.0
 11
216.1332499999999
 21
56.86199999999999
 31
0.0
  0
LINE
  5
1AE
330
1E
100
AcDbEntity
  8
0
100
AcDbLine
 10
216.1332499999999
 20
52.36600000000001
 30
0.0
 11
216.1332499999999
 21
50.866
 31
0.0
  0
LINE
  5
1AF
330
1E
100
AcDbEntity
  8
0
100
AcDbLine
 10
202.13325
 20
68.63800000000001
 30
0.0
 11
202.13325
 21
74.158
 31
0.0
  0
LINE
  5
1B0
330
1E
100
AcDbEntity
  8
0
100
AcDbLine
 10
202.13325
 20
68.63800000000001
 30
0.0
 11
202.13325
 21
62.75
 31
0.0
  0
LINE
  5
1B1
330
1E
100
AcDbEntity
  8
0
100
AcDbLine
 10
93.4732499999999
 20
68.63800000000001
 30
0.0
 11
94.28864999999991
 21
62.75
 31
0.0
  0
LINE
  5
1B2
330
1E
100
AcDbEntity
  8
0
100
AcDbLine
 10
88.26374999999989
 20
68.63800000000001
 30
0.0
 11
89.0791499999999
 21
62.75
 31
0.0
  0
LINE
  5
1B4
330
1E
100
AcDbEntity
  8
0
100
AcDbLine
 10
216.1332499999999
 20
68.63800000000001
 30
0.0
 11
216.1332499999999
 21
73.134
 31
0.0
  0
LINE
  5
1B5
330
1E
100
AcDbEntity
  8
0
100
AcDbLine
 10
216.1332499999999
 20
68.63800000000001
 30
0.0
 11
216.1332499999999
 21
62.75
 31
0.0
  0
LINE
  5
1B6
330
1E
100
AcDbEntity
  8
0
100
AcDbLine
 10
216.1332499999999
 20
56.09399999999999
 30
0.0
 11
216.1332499999999
 21
62.75
 31
0.0
  0
LINE
  5
1B7
330
1E
100
AcDbEntity
  8
0
100
AcDbLine
 10
216.1332499999999
 20
56.09399999999999
 30
0.0
 11
216.1332499999999
 21
49.854
 31
0.0
  0
LINE
  5
1B8
330
1E
100
AcDbEntity
  8
0
100
AcDbLine
 10
216.1332499999999
 20
49.854
 30
0.0
 11
216.1332499999999
 21
56.09399999999999
 31
0.0
  0
LINE
  5
1B9
330
1E
100
AcDbEntity
  8
0
100
AcDbLine
 10
216.1332499999999
 20
49.854
 30
0.0
 11
216.1332499999999
 21
44.34199999999999
 31
0.0
  0
LINE
  5
1BA
330
1E
100
AcDbEntity
  8
0
100
AcDbLine
 10
216.1332499999999
 20
44.34199999999999
 30
0.0
 11
216.1332499999999
 21
49.854
 31
0.0
  0
LINE
  5
1BB
330
1E
100
AcDbEntity
  8
0
100
AcDbLine
 10
216.1332499999999
 20
44.34199999999999
 30
0.0
 11
216.1332499999999
 21
40.826
 31
0.0
  0
LINE
  5
1BC
330
1E
100
AcDbEntity
  8
0
100
AcDbLine
 10
216.1332499999999
 20
40.826
 30
0.0
 11
216.1332499999999
 21
44.34199999999999
 31
0.0
  0
LINE
  5
1BD
330
1E
100
AcDbEntity
  8
0
100
AcDbLine
 10
216.1332499999999
 20
62.75
 30
0.0
 11
216.1332499999999
 21
69.406
 31
0.0
  0
LINE
  5
1BE
330
1E
100
AcDbEntity
  8
0
100
AcDbLine
 10
216.1332499999999
 20
62.75
 30
0.0
 11
216.1332499999999
 21
56.09399999999999
 31
0.0
  0
LINE
  5
1BF
330
1E
100
AcDbEntity
  8
0
100
AcDbLine
 10
216.1332499999999
 20
62.75
 30
0.0
 11
216.1332499999999
 21
68.63800000000001
 31
0.0
  0
LINE
  5
1C0
330
1E
100
AcDbEntity
  8
0
100
AcDbLine
 10
216.1332499999999
 20
62.75
 30
0.0
 11
216.1332499999999
 21
56.86199999999999
 31
0.0
  0
LINE
  5
1C5
330
1E
100
AcDbEntity
  8
0
100
AcDbLine
 10
13.4695499999999
 20
71.39712
 30
0.0
 11
14.0415499999999
 21
79.4265
 31
0.0
  0
LINE
  5
1C6
330
1E
100
AcDbEntity
  8
0
100
AcDbLine
 10
13.78314999999989
 20
71.60292
 30
0.0
 11
14.3730499999999
 21
79.94119999999999
 31
0.0
  0
LINE
  5
1C7
330
1E
100
AcDbEntity
  8
0
100
AcDbLine
 10
39.7072499999999
 20
72.47802
 30
0.0
 11
40.3406499999999
 21
81.598
 31
0.0
  0
LINE
  5
1C8
330
1E
100
AcDbEntity
  8
0
100
AcDbLine
 10
37.3236499999999
 20
72.47802
 30
0.0
 11
37.9571499999999
 21
81.598
 31
0.0
  0
LINE
  5
1D0
330
1E
100
AcDbEntity
  8
0
100
AcDbLine
 10
202.13325
 20
72.67
 30
0.0
 11
202.13325
 21
67.87
 31
0.0
  0
LINE
  5
1D1
330
1E
100
AcDbEntity
  8
0
100
AcDbLine
 10
27.3075019999999
 20
72.83
 30
0.0
 11
27.9743109999999
 21
82.11
 31
0.0
  0
LINE
  5
1D2
330
1E
100
AcDbEntity
  8
0
100
AcDbLine
 10
36.4179799999999
 20
72.98999999999999
 30
0.0
 11
37.08478999999989
 21
82.59
 31
0.0
  0
LINE
  5
1D3
330
1E
100
AcDbEntity
  8
0
100
AcDbLine
 10
27.7116919999999
 20
72.98999999999999
 30
0.0
 11
28.3784999999999
 21
82.59
 31
0.0
  0
LINE
  5
1D4
330
1E
100
AcDbEntity
  8
0
100
AcDbLine
 10
11.4362499999999
 20
72.8788
 30
0.0
 11
13.5968289758338
 21
73.1837830471704
 31
0.0
  0
LINE
  5
1D5
330
1E
100
AcDbEntity
  8
0
100
AcDbLine
 10
9.141049999999911
 20
73.2028
 30
0.0
 11
11.4362499999999
 21
72.8788
 31
0.0
  0
LINE
  5
1D6
330
1E
100
AcDbEntity
  8
0
100
AcDbLine
 10
6.98924999999991
 20
74.0668
 30
0.0
 11
9.141049999999911
 21
73.2028
 31
0.0
  0
LINE
  5
1DA
330
1E
100
AcDbEntity
  8
0
100
AcDbLine
 10
80.9067499999999
 20
73.166
 30
0.0
 11
82.8920499999999
 21
68.126
 31
0.0
  0
LINE
  5
1DC
330
1E
100
AcDbEntity
  8
0
100
AcDbLine
 10
84.37964999999989
 20
73.166
 30
0.0
 11
86.3650499999999
 21
68.126
 31
0.0
  0
LINE
  5
1DE
330
1E
100
AcDbEntity
  8
0
100
AcDbLine
 10
91.29874999999989
 20
74.158
 30
0.0
 11
93.4732499999999
 21
68.63800000000001
 31
0.0
  0
LINE
  5
1DF
330
1E
100
AcDbEntity
  8
0
100
AcDbLine
 10
86.0892499999999
 20
74.158
 30
0.0
 11
88.26374999999989
 21
68.63800000000001
 31
0.0
  0
LINE
  5
1E1
330
1E
100
AcDbEntity
  8
0
100
AcDbLine
 10
58.8372499999999
 20
73.166
 30
0.0
 11
60.82264999999989
 21
68.126
 31
0.0
  0
LINE
  5
1E5
330
1E
100
AcDbEntity
  8
0
100
AcDbLine
 10
180.13325
 20
72.67
 30
0.0
 11
180.13325
 21
76.90999999999999
 31
0.0
  0
LINE
  5
1E6
330
1E
100
AcDbEntity
  8
0
100
AcDbLine
 10
202.13325
 20
73.134
 30
0.0
 11
202.13325
 21
74.866
 31
0.0
  0
LINE
  5
1E7
330
1E
100
AcDbEntity
  8
0
100
AcDbLine
 10
202.13325
 20
73.134
 30
0.0
 11
202.13325
 21
74.634
 31
0.0
  0
LINE
  5
1E8
330
1E
100
AcDbEntity
  8
0
100
AcDbLine
 10
5.088549999999909
 20
75.50679999999999
 30
0.0
 11
6.98924999999991
 21
74.0668
 31
0.0
  0
LINE
  5
1F5
330
1E
100
AcDbEntity
  8
0
100
AcDbLine
 10
202.13325
 20
74.634
 30
0.0
 11
216.1332499999999
 21
74.634
 31
0.0
  0
LINE
  5
1F6
330
1E
100
AcDbEntity
  8
0
100
AcDbLine
 10
202.13325
 20
74.634
 30
0.0
 11
202.13325
 21
73.134
 31
0.0
  0
LINE
  5
1F7
330
1E
100
AcDbEntity
  8
0
100
AcDbLine
 10
202.13325
 20
74.634
 30
0.0
 11
202.13325
 21
76.366
 31
0.0
  0
LINE
  5
1F8
330
1E
100
AcDbEntity
  8
0
100
AcDbLine
 10
202.13325
 20
74.866
 30
0.0
 11
202.13325
 21
76.366
 31
0.0
  0
LINE
  5
1F9
330
1E
100
AcDbEntity
  8
0
100
AcDbLine
 10
202.13325
 20
74.866
 30
0.0
 11
202.13325
 21
73.134
 31
0.0
  0
LINE
  5
1FA
330
1E
100
AcDbEntity
  8
0
100
AcDbLine
 10
202.13325
 20
76.366
 30
0.0
 11
216.1332499999999
 21
76.366
 31
0.0
  0
LINE
  5
1FB
330
1E
100
AcDbEntity
  8
0
100
AcDbLine
 10
202.13325
 20
76.366
 30
0.0
 11
202.13325
 21
74.634
 31
0.0
  0
LINE
  5
1FC
330
1E
100
AcDbEntity
  8
0
100
AcDbLine
 10
202.13325
 20
76.366
 30
0.0
 11
202.13325
 21
74.866
 31
0.0
  0
LINE
  5
1FD
330
1E
100
AcDbEntity
  8
0
100
AcDbLine
 10
216.1332499999999
 20
74.634
 30
0.0
 11
216.1332499999999
 21
76.366
 31
0.0
  0
LINE
  5
1FE
330
1E
100
AcDbEntity
  8
0
100
AcDbLine
 10
216.1332499999999
 20
74.634
 30
0.0
 11
216.1332499999999
 21
73.134
 31
0.0
  0
LINE
  5
1FF
330
1E
100
AcDbEntity
  8
0
100
AcDbLine
 10
216.1332499999999
 20
73.134
 30
0.0
 11
216.1332499999999
 21
68.63800000000001
 31
0.0
  0
LINE
  5
200
330
1E
100
AcDbEntity
  8
0
100
AcDbLine
 10
216.1332499999999
 20
73.134
 30
0.0
 11
216.1332499999999
 21
74.634
 31
0.0
  0
LINE
  5
201
330
1E
100
AcDbEntity
  8
0
100
AcDbLine
 10
202.13325
 20
74.158
 30
0.0
 11
202.13325
 21
79.03399999999999
 31
0.0
  0
LINE
  5
202
330
1E
100
AcDbEntity
  8
0
100
AcDbLine
 10
202.13325
 20
74.158
 30
0.0
 11
202.13325
 21
68.63800000000001
 31
0.0
  0
LINE
  5
210
330
1E
100
AcDbEntity
  8
0
100
AcDbLine
 10
3.65404999999991
 20
77.4148
 30
0.0
 11
5.088549999999909
 21
75.50679999999999
 31
0.0
  0
LINE
  5
211
330
1E
100
AcDbEntity
  8
0
100
AcDbLine
 10
2.793349999999899
 20
79.5748
 30
0.0
 11
3.65404999999991
 21
77.4148
 31
0.0
  0
LINE
  5
212
330
1E
100
AcDbEntity
  8
0
100
AcDbLine
 10
14.0415499999999
 20
79.4265
 30
0.0
 11
14.95314999999989
 21
86.42650000000001
 31
0.0
  0
LINE
  5
213
330
1E
100
AcDbEntity
  8
0
100
AcDbLine
 10
77.5977499999999
 20
77.618
 30
0.0
 11
80.9067499999999
 21
73.166
 31
0.0
  0
LINE
  5
215
330
1E
100
AcDbEntity
  8
0
100
AcDbLine
 10
81.07074999999991
 20
77.618
 30
0.0
 11
84.37964999999989
 21
73.166
 31
0.0
  0
LINE
  5
218
330
1E
100
AcDbEntity
  8
0
100
AcDbLine
 10
87.6746499999999
 20
79.03399999999999
 30
0.0
 11
91.29874999999989
 21
74.158
 31
0.0
  0
LINE
  5
21A
330
1E
100
AcDbEntity
  8
0
100
AcDbLine
 10
82.46524999999989
 20
79.03399999999999
 30
0.0
 11
86.0892499999999
 21
74.158
 31
0.0
  0
LINE
  5
21C
330
1E
100
AcDbEntity
  8
0
100
AcDbLine
 10
52.282946051243
 20
80.105126463786
 30
0.0
 11
55.5283499999999
 21
77.618
 31
0.0
  0
LINE
  5
21D
330
1E
100
AcDbEntity
  8
0
100
AcDbLine
 10
55.5283499999999
 20
77.618
 30
0.0
 11
58.8372499999999
 21
73.166
 31
0.0
  0
LINE
  5
21E
330
1E
100
AcDbEntity
  8
0
100
AcDbLine
 10
14.3730499999999
 20
79.94119999999999
 30
0.0
 11
15.3204499999999
 21
87.1471
 31
0.0
  0
LINE
  5
220
330
1E
100
AcDbEntity
  8
0
100
AcDbLine
 10
202.13325
 20
76.90999999999999
 30
0.0
 11
202.13325
 21
72.67
 31
0.0
  0
LINE
  5
221
330
1E
100
AcDbEntity
  8
0
100
AcDbLine
 10
202.13325
 20
80.11000000000001
 30
0.0
 11
202.13325
 21
76.90999999999999
 31
0.0
  0
LINE
  5
222
330
1E
100
AcDbEntity
  8
0
100
AcDbLine
 10
180.13325
 20
76.90999999999999
 30
0.0
 11
180.13325
 21
80.11000000000001
 31
0.0
  0
LINE
  5
224
330
1E
100
AcDbEntity
  8
0
100
AcDbLine
 10
52.4003439285713
 20
80.75000000000001
 30
0.0
 11
52.69784999999989
 21
80.97800000000001
 31
0.0
  0
LINE
  5
225
330
1E
100
AcDbEntity
  8
0
100
AcDbLine
 10
73.2133499999999
 20
80.97800000000001
 30
0.0
 11
77.5977499999999
 21
77.618
 31
0.0
  0
LINE
  5
228
330
1E
100
AcDbEntity
  8
0
100
AcDbLine
 10
52.69784999999989
 20
80.97800000000001
 30
0.0
 11
57.66134999999989
 21
82.994
 31
0.0
  0
LINE
  5
229
330
1E
100
AcDbEntity
  8
0
100
AcDbLine
 10
76.68634999999991
 20
80.97800000000001
 30
0.0
 11
81.07074999999991
 21
77.618
 31
0.0
  0
LINE
  5
22C
330
1E
100
AcDbEntity
  8
0
100
AcDbLine
 10
52.20844999999989
 20
81.142
 30
0.0
 11
52.5298926076283
 21
76.66800000000001
 31
0.0
  0
LINE
  5
22D
330
1E
100
AcDbEntity
  8
0
100
AcDbLine
 10
180.13325
 20
80.11000000000001
 30
0.0
 11
180.13325
 21
82.03000000000001
 31
0.0
  0
LINE
  5
22E
330
1E
100
AcDbEntity
  8
0
100
AcDbLine
 10
202.13325
 20
79.03399999999999
 30
0.0
 11
202.13325
 21
82.71399999999999
 31
0.0
  0
LINE
  5
22F
330
1E
100
AcDbEntity
  8
0
100
AcDbLine
 10
202.13325
 20
79.03399999999999
 30
0.0
 11
202.13325
 21
74.158
 31
0.0
  0
LINE
  5
230
330
1E
100
AcDbEntity
  8
0
100
AcDbLine
 10
216.1332499999999
 20
76.366
 30
0.0
 11
216.1332499999999
 21
79.03399999999999
 31
0.0
  0
LINE
  5
231
330
1E
100
AcDbEntity
  8
0
100
AcDbLine
 10
216.1332499999999
 20
76.366
 30
0.0
 11
216.1332499999999
 21
74.634
 31
0.0
  0
LINE
  5
232
330
1E
100
AcDbEntity
  8
0
100
AcDbLine
 10
216.1332499999999
 20
79.03399999999999
 30
0.0
 11
216.1332499999999
 21
82.71399999999999
 31
0.0
  0
LINE
  5
233
330
1E
100
AcDbEntity
  8
0
100
AcDbLine
 10
216.1332499999999
 20
79.03399999999999
 30
0.0
 11
216.1332499999999
 21
76.366
 31
0.0
  0
LINE
  5
234
330
1E
100
AcDbEntity
  8
0
100
AcDbLine
 10
216.1332499999999
 20
69.406
 30
0.0
 11
216.1332499999999
 21
75.646
 31
0.0
  0
LINE
  5
235
330
1E
100
AcDbEntity
  8
0
100
AcDbLine
 10
216.1332499999999
 20
69.406
 30
0.0
 11
216.1332499999999
 21
62.75
 31
0.0
  0
LINE
  5
236
330
1E
100
AcDbEntity
  8
0
100
AcDbLine
 10
216.1332499999999
 20
75.646
 30
0.0
 11
216.1332499999999
 21
81.158
 31
0.0
  0
LINE
  5
237
330
1E
100
AcDbEntity
  8
0
100
AcDbLine
 10
216.1332499999999
 20
75.646
 30
0.0
 11
216.1332499999999
 21
69.406
 31
0.0
  0
LINE
  5
238
330
1E
100
AcDbEntity
  8
0
100
AcDbLine
 10
53.18893356676779
 20
81.17746095912242
 30
0.0
 11
55.19394999999989
 21
82.71399999999999
 31
0.0
  0
LINE
  5
239
330
1E
100
AcDbEntity
  8
0
100
AcDbLine
 10
40.3406499999999
 20
81.598
 30
0.0
 11
41.3964499999999
 21
89.654
 31
0.0
  0
LINE
  5
23A
330
1E
100
AcDbEntity
  8
0
100
AcDbLine
 10
27.9743109999999
 20
82.11
 30
0.0
 11
29.0578799999999
 21
90.26999999999999
 31
0.0
  0
LINE
  5
23B
330
1E
100
AcDbEntity
  8
0
100
AcDbLine
 10
82.87274999999992
 20
82.71399999999999
 30
0.0
 11
87.6746499999999
 21
79.03399999999999
 31
0.0
  0
LINE
  5
23C
330
1E
100
AcDbEntity
  8
0
100
AcDbLine
 10
37.08478999999989
 20
82.59
 30
0.0
 11
38.19614999999989
 21
91.06999999999999
 31
0.0
  0
LINE
  5
23D
330
1E
100
AcDbEntity
  8
0
100
AcDbLine
 10
28.3784999999999
 20
82.59
 30
0.0
 11
29.4898499999999
 21
91.06999999999999
 31
0.0
  0
LINE
  5
23E
330
1E
100
AcDbEntity
  8
0
100
AcDbLine
 10
2.47054999999991
 20
81.87879999999999
 30
0.0
 11
2.793349999999899
 21
84.18280000000001
 31
0.0
  0
LINE
  5
23F
330
1E
100
AcDbEntity
  8
0
100
AcDbLine
 10
2.47054999999991
 20
81.87879999999999
 30
0.0
 11
2.793349999999899
 21
79.5748
 31
0.0
  0
LINE
  5
240
330
1E
100
AcDbEntity
  8
0
100
AcDbLine
 10
0.188749999999908
 20
82.4167
 30
0.0
 11
0.188749999999908
 21
0.25
 31
0.0
  0
LINE
  5
241
330
1E
100
AcDbEntity
  8
0
100
AcDbLine
 10
0.188749999999908
 20
82.4167
 30
0.0
 11
0.443649999999907
 21
84.30559999999999
 31
0.0
  0
LINE
  5
242
330
1E
100
AcDbEntity
  8
0
100
AcDbLine
 10
37.9571499999999
 20
81.598
 30
0.0
 11
39.0129499999999
 21
89.654
 31
0.0
  0
LINE
  5
243
330
1E
100
AcDbEntity
  8
0
100
AcDbLine
 10
202.13325
 20
82.03000000000001
 30
0.0
 11
202.13325
 21
80.11000000000001
 31
0.0
  0
LINE
  5
244
330
1E
100
AcDbEntity
  8
0
100
AcDbLine
 10
180.13325
 20
82.03000000000001
 30
0.0
 11
180.13325
 21
82.75
 31
0.0
  0
LINE
  5
245
330
1E
100
AcDbEntity
  8
0
100
AcDbLine
 10
77.66324999999991
 20
82.71399999999999
 30
0.0
 11
82.46524999999989
 21
79.03399999999999
 31
0.0
  0
LINE
  5
248
330
1E
100
AcDbEntity
  8
0
100
AcDbLine
 10
55.19394999999989
 20
82.71399999999999
 30
0.0
 11
60.63004999999989
 21
84.92200000000002
 31
0.0
  0
LINE
  5
249
330
1E
100
AcDbEntity
  8
0
100
AcDbLine
 10
115.10985
 20
82.75
 30
0.0
 11
123.13325
 21
82.75
 31
0.0
  0
LINE
  5
24A
330
1E
100
AcDbEntity
  8
0
100
AcDbLine
 10
107.63325
 20
82.75
 30
0.0
 11
115.10985
 21
82.75
 31
0.0
  0
LINE
  5
24B
330
1E
100
AcDbEntity
  8
0
100
AcDbLine
 10
68.2499499999999
 20
82.994
 30
0.0
 11
73.2133499999999
 21
80.97800000000001
 31
0.0
  0
LINE
  5
24E
330
1E
100
AcDbEntity
  8
0
100
AcDbLine
 10
57.66134999999989
 20
82.994
 30
0.0
 11
62.95564999999989
 21
83.75
 31
0.0
  0
LINE
  5
24F
330
1E
100
AcDbEntity
  8
0
100
AcDbLine
 10
71.7229499999999
 20
82.994
 30
0.0
 11
76.68634999999991
 21
80.97800000000001
 31
0.0
  0
LINE
  5
251
330
1E
100
AcDbEntity
  8
0
100
AcDbLine
 10
62.95564999999989
 20
83.75
 30
0.0
 11
66.4285499999999
 21
83.75
 31
0.0
  0
LINE
  5
252
330
1E
100
AcDbEntity
  8
0
100
AcDbLine
 10
62.95564999999989
 20
83.75
 30
0.0
 11
68.2499499999999
 21
82.994
 31
0.0
  0
LINE
  5
255
330
1E
100
AcDbEntity
  8
0
100
AcDbLine
 10
66.4285499999999
 20
83.75
 30
0.0
 11
71.7229499999999
 21
82.994
 31
0.0
  0
LINE
  5
256
330
1E
100
AcDbEntity
  8
0
100
AcDbLine
 10
93.18954999999991
 20
82.75
 30
0.0
 11
96.28644999999991
 21
82.75
 31
0.0
  0
LINE
  5
257
330
1E
100
AcDbEntity
  8
0
100
AcDbLine
 10
96.28644999999991
 20
82.75
 30
0.0
 11
101.21295
 21
82.75
 31
0.0
  0
LINE
  5
258
330
1E
100
AcDbEntity
  8
0
100
AcDbLine
 10
101.21295
 20
82.75
 30
0.0
 11
107.63325
 21
82.75
 31
0.0
  0
LINE
  5
259
330
1E
100
AcDbEntity
  8
0
100
AcDbLine
 10
82.78411630434771
 20
82.75
 30
0.0
 11
93.18954999999991
 21
82.75
 31
0.0
  0
LINE
  5
25A
330
1E
100
AcDbEntity
  8
0
100
AcDbLine
 10
123.13325
 20
82.75
 30
0.0
 11
202.13325
 21
82.75
 31
0.0
  0
LINE
  5
25B
330
1E
100
AcDbEntity
  8
0
100
AcDbLine
 10
2.793349999999899
 20
84.18280000000001
 30
0.0
 11
3.65404999999991
 21
86.3428
 31
0.0
  0
LINE
  5
25C
330
1E
100
AcDbEntity
  8
0
100
AcDbLine
 10
0.443649999999907
 20
84.30559999999999
 30
0.0
 11
0.953349999999903
 21
85.25
 31
0.0
  0
LINE
  5
25D
330
1E
100
AcDbEntity
  8
0
100
AcDbLine
 10
180.13325
 20
82.75
 30
0.0
 11
202.13325
 21
82.75
 31
0.0
  0
LINE
  5
25E
330
1E
100
AcDbEntity
  8
0
100
AcDbLine
 10
202.13325
 20
82.71399999999999
 30
0.0
 11
202.13325
 21
84.92200000000002
 31
0.0
  0
LINE
  5
25F
330
1E
100
AcDbEntity
  8
0
100
AcDbLine
 10
202.13325
 20
82.71399999999999
 30
0.0
 11
202.13325
 21
79.03399999999999
 31
0.0
  0
LINE
  5
260
330
1E
100
AcDbEntity
  8
0
100
AcDbLine
 10
202.13325
 20
82.75
 30
0.0
 11
202.13325
 21
84.92200000000002
 31
0.0
  0
LINE
  5
261
330
1E
100
AcDbEntity
  8
0
100
AcDbLine
 10
202.13325
 20
82.75
 30
0.0
 11
202.13325
 21
82.03000000000001
 31
0.0
  0
LINE
  5
262
330
1E
100
AcDbEntity
  8
0
100
AcDbLine
 10
77.43654999999991
 20
84.92200000000002
 30
0.0
 11
82.87274999999992
 21
82.71399999999999
 31
0.0
  0
LINE
  5
263
330
1E
100
AcDbEntity
  8
0
100
AcDbLine
 10
72.22714999999991
 20
84.92200000000002
 30
0.0
 11
77.66324999999991
 21
82.71399999999999
 31
0.0
  0
LINE
  5
266
330
1E
100
AcDbEntity
  8
0
100
AcDbLine
 10
60.63004999999989
 20
84.92200000000002
 30
0.0
 11
66.4285499999999
 21
85.75000000000001
 31
0.0
  0
LINE
  5
267
330
1E
100
AcDbEntity
  8
0
100
AcDbLine
 10
3.65404999999991
 20
86.3428
 30
0.0
 11
5.088549999999909
 21
88.25079999999999
 31
0.0
  0
LINE
  5
268
330
1E
100
AcDbEntity
  8
0
100
AcDbLine
 10
14.95314999999989
 20
86.42650000000001
 30
0.0
 11
16.1687499999999
 21
91.6765
 31
0.0
  0
LINE
  5
269
330
1E
100
AcDbEntity
  8
0
100
AcDbLine
 10
71.63804999999991
 20
85.75000000000001
 30
0.0
 11
77.43654999999991
 21
84.92200000000002
 31
0.0
  0
LINE
  5
26A
330
1E
100
AcDbEntity
  8
0
100
AcDbLine
 10
66.4285499999999
 20
85.75000000000001
 30
0.0
 11
71.63804999999991
 21
85.75000000000001
 31
0.0
  0
LINE
  5
26B
330
1E
100
AcDbEntity
  8
0
100
AcDbLine
 10
66.4285499999999
 20
85.75000000000001
 30
0.0
 11
72.22714999999991
 21
84.92200000000002
 31
0.0
  0
LINE
  5
26D
330
1E
100
AcDbEntity
  8
0
100
AcDbLine
 10
15.3204499999999
 20
87.1471
 30
0.0
 11
16.57174999999989
 21
92.60290000000001
 31
0.0
  0
LINE
  5
26E
330
1E
100
AcDbEntity
  8
0
100
AcDbLine
 10
1.85184999999991
 20
85.25
 30
0.0
 11
3.21859955555546
 21
85.25
 31
0.0
  0
LINE
  5
26F
330
1E
100
AcDbEntity
  8
0
100
AcDbLine
 10
0.953349999999903
 20
85.25
 30
0.0
 11
1.85184999999991
 21
85.25
 31
0.0
  0
LINE
  5
270
330
1E
100
AcDbEntity
  8
0
100
AcDbLine
 10
202.13325
 20
85.25
 30
0.0
 11
202.13325
 21
88.25000000000001
 31
0.0
  0
LINE
  5
271
330
1E
100
AcDbEntity
  8
0
100
AcDbLine
 10
202.13325
 20
84.92200000000002
 30
0.0
 11
202.13325
 21
85.75000000000001
 31
0.0
  0
LINE
  5
272
330
1E
100
AcDbEntity
  8
0
100
AcDbLine
 10
202.13325
 20
84.92200000000002
 30
0.0
 11
202.13325
 21
82.71399999999999
 31
0.0
  0
LINE
  5
273
330
1E
100
AcDbEntity
  8
0
100
AcDbLine
 10
202.13325
 20
84.92200000000002
 30
0.0
 11
202.13325
 21
82.75
 31
0.0
  0
LINE
  5
274
330
1E
100
AcDbEntity
  8
0
100
AcDbLine
 10
202.13325
 20
84.92200000000002
 30
0.0
 11
202.13325
 21
85.75000000000001
 31
0.0
  0
LINE
  5
275
330
1E
100
AcDbEntity
  8
0
100
AcDbLine
 10
216.1332499999999
 20
82.71399999999999
 30
0.0
 11
216.1332499999999
 21
84.92200000000002
 31
0.0
  0
LINE
  5
276
330
1E
100
AcDbEntity
  8
0
100
AcDbLine
 10
216.1332499999999
 20
82.71399999999999
 30
0.0
 11
216.1332499999999
 21
79.03399999999999
 31
0.0
  0
LINE
  5
277
330
1E
100
AcDbEntity
  8
0
100
AcDbLine
 10
216.1332499999999
 20
85.75000000000001
 30
0.0
 11
216.1332499999999
 21
84.92200000000002
 31
0.0
  0
LINE
  5
278
330
1E
100
AcDbEntity
  8
0
100
AcDbLine
 10
216.1332499999999
 20
85.75000000000001
 30
0.0
 11
216.1332499999999
 21
88.25000000000001
 31
0.0
  0
LINE
  5
279
330
1E
100
AcDbEntity
  8
0
100
AcDbLine
 10
216.1332499999999
 20
84.92200000000002
 30
0.0
 11
216.1332499999999
 21
85.75000000000001
 31
0.0
  0
LINE
  5
27A
330
1E
100
AcDbEntity
  8
0
100
AcDbLine
 10
216.1332499999999
 20
84.92200000000002
 30
0.0
 11
216.1332499999999
 21
82.71399999999999
 31
0.0
  0
LINE
  5
27B
330
1E
100
AcDbEntity
  8
0
100
AcDbLine
 10
202.13325
 20
85.75000000000001
 30
0.0
 11
202.13325
 21
84.92200000000002
 31
0.0
  0
LINE
  5
27C
330
1E
100
AcDbEntity
  8
0
100
AcDbLine
 10
202.13325
 20
85.75000000000001
 30
0.0
 11
202.13325
 21
84.92200000000002
 31
0.0
  0
LINE
  5
27D
330
1E
100
AcDbEntity
  8
0
100
AcDbLine
 10
216.1332499999999
 20
81.158
 30
0.0
 11
216.1332499999999
 21
85.318
 31
0.0
  0
LINE
  5
27E
330
1E
100
AcDbEntity
  8
0
100
AcDbLine
 10
216.1332499999999
 20
81.158
 30
0.0
 11
216.1332499999999
 21
75.646
 31
0.0
  0
LINE
  5
27F
330
1E
100
AcDbEntity
  8
0
100
AcDbLine
 10
216.1332499999999
 20
85.318
 30
0.0
 11
216.1332499999999
 21
87.81399999999999
 31
0.0
  0
LINE
  5
280
330
1E
100
AcDbEntity
  8
0
100
AcDbLine
 10
216.1332499999999
 20
85.318
 30
0.0
 11
216.1332499999999
 21
81.158
 31
0.0
  0
LINE
  5
281
330
1E
100
AcDbEntity
  8
0
100
AcDbLine
 10
5.088549999999909
 20
88.25079999999999
 30
0.0
 11
6.98924999999991
 21
89.69079999999999
 31
0.0
  0
LINE
  5
282
330
1E
100
AcDbEntity
  8
0
100
AcDbLine
 10
202.13325
 20
88.25000000000001
 30
0.0
 11
216.1332499999999
 21
88.25000000000001
 31
0.0
  0
LINE
  5
283
330
1E
100
AcDbEntity
  8
0
100
AcDbLine
 10
202.13325
 20
88.25000000000001
 30
0.0
 11
202.13325
 21
85.25
 31
0.0
  0
LINE
  5
284
330
1E
100
AcDbEntity
  8
0
100
AcDbLine
 10
216.1332499999999
 20
87.81399999999999
 30
0.0
 11
216.1332499999999
 21
88.75
 31
0.0
  0
LINE
  5
285
330
1E
100
AcDbEntity
  8
0
100
AcDbLine
 10
216.1332499999999
 20
87.81399999999999
 30
0.0
 11
216.1332499999999
 21
85.318
 31
0.0
  0
LINE
  5
286
330
1E
100
AcDbEntity
  8
0
100
AcDbLine
 10
218.1332499999999
 20
25.75
 30
0.0
 11
218.1332499999999
 21
26.074
 31
0.0
  0
LINE
  5
287
330
1E
100
AcDbEntity
  8
0
100
AcDbLine
 10
218.1332499999999
 20
25.75
 30
0.0
 11
228.1332499999999
 21
25.75
 31
0.0
  0
LINE
  5
288
330
1E
100
AcDbEntity
  8
0
100
AcDbLine
 10
218.1332499999999
 20
26.074
 30
0.0
 11
218.1332499999999
 21
26.938
 31
0.0
  0
LINE
  5
289
330
1E
100
AcDbEntity
  8
0
100
AcDbLine
 10
218.1332499999999
 20
26.074
 30
0.0
 11
218.1332499999999
 21
25.75
 31
0.0
  0
LINE
  5
28A
330
1E
100
AcDbEntity
  8
0
100
AcDbLine
 10
218.1332499999999
 20
26.938
 30
0.0
 11
218.1332499999999
 21
27.75
 31
0.0
  0
LINE
  5
28B
330
1E
100
AcDbEntity
  8
0
100
AcDbLine
 10
218.1332499999999
 20
26.938
 30
0.0
 11
218.1332499999999
 21
26.074
 31
0.0
  0
LINE
  5
28C
330
1E
100
AcDbEntity
  8
0
100
AcDbLine
 10
218.1332499999999
 20
26.938
 30
0.0
 11
218.1332499999999
 21
28.378
 31
0.0
  0
LINE
  5
28D
330
1E
100
AcDbEntity
  8
0
100
AcDbLine
 10
218.1332499999999
 20
27.75
 30
0.0
 11
218.1332499999999
 21
28.002
 31
0.0
  0
LINE
  5
28E
330
1E
100
AcDbEntity
  8
0
100
AcDbLine
 10
218.1332499999999
 20
27.75
 30
0.0
 11
218.1332499999999
 21
26.938
 31
0.0
  0
LINE
  5
28F
330
1E
100
AcDbEntity
  8
0
100
AcDbLine
 10
218.1332499999999
 20
28.378
 30
0.0
 11
218.1332499999999
 21
26.938
 31
0.0
  0
LINE
  5
290
330
1E
100
AcDbEntity
  8
0
100
AcDbLine
 10
218.1332499999999
 20
28.378
 30
0.0
 11
218.1332499999999
 21
30.28599999999999
 31
0.0
  0
LINE
  5
291
330
1E
100
AcDbEntity
  8
0
100
AcDbLine
 10
218.1332499999999
 20
28.002
 30
0.0
 11
218.1332499999999
 21
27.75
 31
0.0
  0
LINE
  5
292
330
1E
100
AcDbEntity
  8
0
100
AcDbLine
 10
218.1332499999999
 20
28.002
 30
0.0
 11
218.1332499999999
 21
28.67399999999999
 31
0.0
  0
LINE
  5
293
330
1E
100
AcDbEntity
  8
0
100
AcDbLine
 10
218.1332499999999
 20
28.67399999999999
 30
0.0
 11
218.1332499999999
 21
28.002
 31
0.0
  0
LINE
  5
294
330
1E
100
AcDbEntity
  8
0
100
AcDbLine
 10
218.1332499999999
 20
28.67399999999999
 30
0.0
 11
218.1332499999999
 21
29.794
 31
0.0
  0
LINE
  5
295
330
1E
100
AcDbEntity
  8
0
100
AcDbLine
 10
218.1332499999999
 20
30.28599999999999
 30
0.0
 11
218.1332499999999
 21
28.378
 31
0.0
  0
LINE
  5
296
330
1E
100
AcDbEntity
  8
0
100
AcDbLine
 10
218.1332499999999
 20
30.28599999999999
 30
0.0
 11
218.1332499999999
 21
32.446
 31
0.0
  0
LINE
  5
297
330
1E
100
AcDbEntity
  8
0
100
AcDbLine
 10
218.1332499999999
 20
32.446
 30
0.0
 11
218.1332499999999
 21
30.28599999999999
 31
0.0
  0
LINE
  5
298
330
1E
100
AcDbEntity
  8
0
100
AcDbLine
 10
218.1332499999999
 20
32.446
 30
0.0
 11
218.1332499999999
 21
34.75
 31
0.0
  0
LINE
  5
299
330
1E
100
AcDbEntity
  8
0
100
AcDbLine
 10
218.1332499999999
 20
29.794
 30
0.0
 11
218.1332499999999
 21
28.67399999999999
 31
0.0
  0
LINE
  5
29A
330
1E
100
AcDbEntity
  8
0
100
AcDbLine
 10
218.1332499999999
 20
29.794
 30
0.0
 11
218.1332499999999
 21
31.278
 31
0.0
  0
LINE
  5
29B
330
1E
100
AcDbEntity
  8
0
100
AcDbLine
 10
218.1332499999999
 20
31.278
 30
0.0
 11
218.1332499999999
 21
29.794
 31
0.0
  0
LINE
  5
29C
330
1E
100
AcDbEntity
  8
0
100
AcDbLine
 10
218.1332499999999
 20
31.278
 30
0.0
 11
218.1332499999999
 21
32.95799999999999
 31
0.0
  0
LINE
  5
29D
330
1E
100
AcDbEntity
  8
0
100
AcDbLine
 10
218.1332499999999
 20
37.054
 30
0.0
 11
218.1332499999999
 21
34.75
 31
0.0
  0
LINE
  5
29E
330
1E
100
AcDbEntity
  8
0
100
AcDbLine
 10
218.1332499999999
 20
37.054
 30
0.0
 11
218.1332499999999
 21
39.214
 31
0.0
  0
LINE
  5
29F
330
1E
100
AcDbEntity
  8
0
100
AcDbLine
 10
218.1332499999999
 20
32.95799999999999
 30
0.0
 11
218.1332499999999
 21
31.278
 31
0.0
  0
LINE
  5
2A0
330
1E
100
AcDbEntity
  8
0
100
AcDbLine
 10
218.1332499999999
 20
32.95799999999999
 30
0.0
 11
218.1332499999999
 21
34.75
 31
0.0
  0
LINE
  5
2A1
330
1E
100
AcDbEntity
  8
0
100
AcDbLine
 10
218.1332499999999
 20
34.75
 30
0.0
 11
218.1332499999999
 21
36.542
 31
0.0
  0
LINE
  5
2A2
330
1E
100
AcDbEntity
  8
0
100
AcDbLine
 10
218.1332499999999
 20
34.75
 30
0.0
 11
218.1332499999999
 21
32.95799999999999
 31
0.0
  0
LINE
  5
2A3
330
1E
100
AcDbEntity
  8
0
100
AcDbLine
 10
218.1332499999999
 20
34.75
 30
0.0
 11
218.1332499999999
 21
37.054
 31
0.0
  0
LINE
  5
2A4
330
1E
100
AcDbEntity
  8
0
100
AcDbLine
 10
218.1332499999999
 20
34.75
 30
0.0
 11
218.1332499999999
 21
32.446
 31
0.0
  0
LINE
  5
2A5
330
1E
100
AcDbEntity
  8
0
100
AcDbLine
 10
218.1332499999999
 20
39.214
 30
0.0
 11
218.1332499999999
 21
37.054
 31
0.0
  0
LINE
  5
2A6
330
1E
100
AcDbEntity
  8
0
100
AcDbLine
 10
218.1332499999999
 20
39.214
 30
0.0
 11
218.1332499999999
 21
41.122
 31
0.0
  0
LINE
  5
2A7
330
1E
100
AcDbEntity
  8
0
100
AcDbLine
 10
218.1332499999999
 20
39.70599999999999
 30
0.0
 11
218.1332499999999
 21
38.222
 31
0.0
  0
LINE
  5
2A8
330
1E
100
AcDbEntity
  8
0
100
AcDbLine
 10
218.1332499999999
 20
39.70599999999999
 30
0.0
 11
218.1332499999999
 21
40.826
 31
0.0
  0
LINE
  5
2A9
330
1E
100
AcDbEntity
  8
0
100
AcDbLine
 10
218.1332499999999
 20
38.222
 30
0.0
 11
218.1332499999999
 21
36.542
 31
0.0
  0
LINE
  5
2AA
330
1E
100
AcDbEntity
  8
0
100
AcDbLine
 10
218.1332499999999
 20
38.222
 30
0.0
 11
218.1332499999999
 21
39.70599999999999
 31
0.0
  0
LINE
  5
2AB
330
1E
100
AcDbEntity
  8
0
100
AcDbLine
 10
218.1332499999999
 20
36.542
 30
0.0
 11
218.1332499999999
 21
34.75
 31
0.0
  0
LINE
  5
2AC
330
1E
100
AcDbEntity
  8
0
100
AcDbLine
 10
218.1332499999999
 20
36.542
 30
0.0
 11
218.1332499999999
 21
38.222
 31
0.0
  0
LINE
  5
2AD
330
1E
100
AcDbEntity
  8
0
100
AcDbLine
 10
218.1332499999999
 20
43.75
 30
0.0
 11
228.1332499999999
 21
43.75
 31
0.0
  0
LINE
  5
2AE
330
1E
100
AcDbEntity
  8
0
100
AcDbLine
 10
218.1332499999999
 20
42.56199999999999
 30
0.0
 11
218.1332499999999
 21
41.122
 31
0.0
  0
LINE
  5
2AF
330
1E
100
AcDbEntity
  8
0
100
AcDbLine
 10
218.1332499999999
 20
41.122
 30
0.0
 11
218.1332499999999
 21
39.214
 31
0.0
  0
LINE
  5
2B0
330
1E
100
AcDbEntity
  8
0
100
AcDbLine
 10
218.1332499999999
 20
41.122
 30
0.0
 11
218.1332499999999
 21
42.56199999999999
 31
0.0
  0
LINE
  5
2B1
330
1E
100
AcDbEntity
  8
0
100
AcDbLine
 10
218.1332499999999
 20
56.09399999999999
 30
0.0
 11
218.1332499999999
 21
62.75
 31
0.0
  0
LINE
  5
2B2
330
1E
100
AcDbEntity
  8
0
100
AcDbLine
 10
218.1332499999999
 20
56.09399999999999
 30
0.0
 11
218.1332499999999
 21
49.854
 31
0.0
  0
LINE
  5
2B3
330
1E
100
AcDbEntity
  8
0
100
AcDbLine
 10
218.1332499999999
 20
49.854
 30
0.0
 11
218.1332499999999
 21
56.09399999999999
 31
0.0
  0
LINE
  5
2B4
330
1E
100
AcDbEntity
  8
0
100
AcDbLine
 10
218.1332499999999
 20
49.854
 30
0.0
 11
218.1332499999999
 21
44.34199999999999
 31
0.0
  0
LINE
  5
2B5
330
1E
100
AcDbEntity
  8
0
100
AcDbLine
 10
218.1332499999999
 20
44.34199999999999
 30
0.0
 11
218.1332499999999
 21
49.854
 31
0.0
  0
LINE
  5
2B6
330
1E
100
AcDbEntity
  8
0
100
AcDbLine
 10
218.1332499999999
 20
44.34199999999999
 30
0.0
 11
218.1332499999999
 21
40.826
 31
0.0
  0
LINE
  5
2B7
330
1E
100
AcDbEntity
  8
0
100
AcDbLine
 10
218.1332499999999
 20
40.826
 30
0.0
 11
218.1332499999999
 21
44.34199999999999
 31
0.0
  0
LINE
  5
2B8
330
1E
100
AcDbEntity
  8
0
100
AcDbLine
 10
218.1332499999999
 20
40.826
 30
0.0
 11
218.1332499999999
 21
39.70599999999999
 31
0.0
  0
LINE
  5
2B9
330
1E
100
AcDbEntity
  8
0
100
AcDbLine
 10
218.1332499999999
 20
62.75
 30
0.0
 11
218.1332499999999
 21
69.406
 31
0.0
  0
LINE
  5
2BA
330
1E
100
AcDbEntity
  8
0
100
AcDbLine
 10
218.1332499999999
 20
62.75
 30
0.0
 11
218.1332499999999
 21
56.09399999999999
 31
0.0
  0
LINE
  5
2BB
330
1E
100
AcDbEntity
  8
0
100
AcDbLine
 10
218.1332499999999
 20
69.406
 30
0.0
 11
218.1332499999999
 21
75.646
 31
0.0
  0
LINE
  5
2BC
330
1E
100
AcDbEntity
  8
0
100
AcDbLine
 10
218.1332499999999
 20
69.406
 30
0.0
 11
218.1332499999999
 21
62.75
 31
0.0
  0
LINE
  5
2BD
330
1E
100
AcDbEntity
  8
0
100
AcDbLine
 10
218.1332499999999
 20
75.646
 30
0.0
 11
218.1332499999999
 21
81.158
 31
0.0
  0
LINE
  5
2BE
330
1E
100
AcDbEntity
  8
0
100
AcDbLine
 10
218.1332499999999
 20
75.646
 30
0.0
 11
218.1332499999999
 21
69.406
 31
0.0
  0
LINE
  5
2BF
330
1E
100
AcDbEntity
  8
0
100
AcDbLine
 10
218.1332499999999
 20
82.75
 30
0.0
 11
255.0186839622639
 21
82.75
 31
0.0
  0
LINE
  5
2C0
330
1E
100
AcDbEntity
  8
0
100
AcDbLine
 10
218.1332499999999
 20
81.158
 30
0.0
 11
218.1332499999999
 21
85.318
 31
0.0
  0
LINE
  5
2C1
330
1E
100
AcDbEntity
  8
0
100
AcDbLine
 10
218.1332499999999
 20
81.158
 30
0.0
 11
218.1332499999999
 21
75.646
 31
0.0
  0
LINE
  5
2C2
330
1E
100
AcDbEntity
  8
0
100
AcDbLine
 10
228.1332499999999
 20
25.75
 30
0.0
 11
228.1332499999999
 21
26.074
 31
0.0
  0
LINE
  5
2C3
330
1E
100
AcDbEntity
  8
0
100
AcDbLine
 10
228.1332499999999
 20
26.074
 30
0.0
 11
228.1332499999999
 21
25.75
 31
0.0
  0
LINE
  5
2C4
330
1E
100
AcDbEntity
  8
0
100
AcDbLine
 10
228.1332499999999
 20
26.074
 30
0.0
 11
228.1332499999999
 21
26.938
 31
0.0
  0
LINE
  5
2C5
330
1E
100
AcDbEntity
  8
0
100
AcDbLine
 10
228.1332499999999
 20
26.938
 30
0.0
 11
228.1332499999999
 21
26.074
 31
0.0
  0
LINE
  5
2C6
330
1E
100
AcDbEntity
  8
0
100
AcDbLine
 10
228.1332499999999
 20
26.938
 30
0.0
 11
228.1332499999999
 21
28.378
 31
0.0
  0
LINE
  5
2C7
330
1E
100
AcDbEntity
  8
0
100
AcDbLine
 10
228.1332499999999
 20
28.378
 30
0.0
 11
228.1332499999999
 21
26.938
 31
0.0
  0
LINE
  5
2C8
330
1E
100
AcDbEntity
  8
0
100
AcDbLine
 10
228.1332499999999
 20
28.378
 30
0.0
 11
228.1332499999999
 21
30.28599999999999
 31
0.0
  0
LINE
  5
2C9
330
1E
100
AcDbEntity
  8
0
100
AcDbLine
 10
228.1332499999999
 20
30.28599999999999
 30
0.0
 11
228.1332499999999
 21
28.378
 31
0.0
  0
LINE
  5
2CA
330
1E
100
AcDbEntity
  8
0
100
AcDbLine
 10
228.1332499999999
 20
30.28599999999999
 30
0.0
 11
228.1332499999999
 21
32.446
 31
0.0
  0
LINE
  5
2CB
330
1E
100
AcDbEntity
  8
0
100
AcDbLine
 10
228.1332499999999
 20
32.446
 30
0.0
 11
228.1332499999999
 21
30.28599999999999
 31
0.0
  0
LINE
  5
2CC
330
1E
100
AcDbEntity
  8
0
100
AcDbLine
 10
228.1332499999999
 20
32.446
 30
0.0
 11
228.1332499999999
 21
34.75
 31
0.0
  0
LINE
  5
2CD
330
1E
100
AcDbEntity
  8
0
100
AcDbLine
 10
228.1332499999999
 20
34.75
 30
0.0
 11
228.1332499999999
 21
37.054
 31
0.0
  0
LINE
  5
2CE
330
1E
100
AcDbEntity
  8
0
100
AcDbLine
 10
228.1332499999999
 20
34.75
 30
0.0
 11
228.1332499999999
 21
32.446
 31
0.0
  0
LINE
  5
2CF
330
1E
100
AcDbEntity
  8
0
100
AcDbLine
 10
228.1332499999999
 20
42.56199999999999
 30
0.0
 11
228.1332499999999
 21
41.122
 31
0.0
  0
LINE
  5
2D0
330
1E
100
AcDbEntity
  8
0
100
AcDbLine
 10
228.1332499999999
 20
42.56199999999999
 30
0.0
 11
228.1332499999999
 21
43.426
 31
0.0
  0
LINE
  5
2D1
330
1E
100
AcDbEntity
  8
0
100
AcDbLine
 10
228.1332499999999
 20
41.122
 30
0.0
 11
228.1332499999999
 21
39.214
 31
0.0
  0
LINE
  5
2D2
330
1E
100
AcDbEntity
  8
0
100
AcDbLine
 10
228.1332499999999
 20
41.122
 30
0.0
 11
228.1332499999999
 21
42.56199999999999
 31
0.0
  0
LINE
  5
2D3
330
1E
100
AcDbEntity
  8
0
100
AcDbLine
 10
228.1332499999999
 20
39.214
 30
0.0
 11
228.1332499999999
 21
37.054
 31
0.0
  0
LINE
  5
2D4
330
1E
100
AcDbEntity
  8
0
100
AcDbLine
 10
228.1332499999999
 20
39.214
 30
0.0
 11
228.1332499999999
 21
41.122
 31
0.0
  0
LINE
  5
2D5
330
1E
100
AcDbEntity
  8
0
100
AcDbLine
 10
228.1332499999999
 20
37.054
 30
0.0
 11
228.1332499999999
 21
34.75
 31
0.0
  0
LINE
  5
2D6
330
1E
100
AcDbEntity
  8
0
100
AcDbLine
 10
228.1332499999999
 20
37.054
 30
0.0
 11
228.1332499999999
 21
39.214
 31
0.0
  0
LINE
  5
2D7
330
1E
100
AcDbEntity
  8
0
100
AcDbLine
 10
228.1332499999999
 20
27.75
 30
0.0
 11
238.13325
 21
27.75
 31
0.0
  0
LINE
  5
2D8
330
1E
100
AcDbEntity
  8
0
100
AcDbLine
 10
238.13325
 20
25.75
 30
0.0
 11
238.13325
 21
62.75
 31
0.0
  0
LINE
  5
2D9
330
1E
100
AcDbEntity
  8
0
100
AcDbLine
 10
238.13325
 20
25.75
 30
0.0
 11
268.1332499999999
 21
25.75
 31
0.0
  0
LINE
  5
2DA
330
1E
100
AcDbEntity
  8
0
100
AcDbLine
 10
238.13325
 20
27.75
 30
0.0
 11
238.13325
 21
25.75
 31
0.0
  0
LINE
  5
2DB
330
1E
100
AcDbEntity
  8
0
100
AcDbLine
 10
238.13325
 20
42.75
 30
0.0
 11
238.13325
 21
41.74999999999999
 31
0.0
  0
LINE
  5
2DC
330
1E
100
AcDbEntity
  8
0
100
AcDbLine
 10
238.13325
 20
41.74999999999999
 30
0.0
 11
238.13325
 21
42.75
 31
0.0
  0
LINE
  5
2DD
330
1E
100
AcDbEntity
  8
0
100
AcDbLine
 10
238.13325
 20
25.75
 30
0.0
 11
238.13325
 21
27.75
 31
0.0
  0
LINE
  5
2DE
330
1E
100
AcDbEntity
  8
0
100
AcDbLine
 10
238.13325
 20
25.75
 30
0.0
 11
268.1332499999999
 21
25.75
 31
0.0
  0
LINE
  5
2DF
330
1E
100
AcDbEntity
  8
0
100
AcDbLine
 10
228.1332499999999
 20
41.74999999999999
 30
0.0
 11
238.13325
 21
41.74999999999999
 31
0.0
  0
LINE
  5
2E0
330
1E
100
AcDbEntity
  8
0
100
AcDbLine
 10
228.1332499999999
 20
43.75
 30
0.0
 11
228.1332499999999
 21
43.426
 31
0.0
  0
LINE
  5
2E1
330
1E
100
AcDbEntity
  8
0
100
AcDbLine
 10
250.5012499999999
 20
53.022
 30
0.0
 11
254.1492499999999
 21
43.902
 31
0.0
  0
LINE
  5
2E2
330
1E
100
AcDbEntity
  8
0
100
AcDbLine
 10
249.1332499999999
 20
62.75
 30
0.0
 11
250.5012499999999
 21
53.022
 31
0.0
  0
LINE
  5
2E3
330
1E
100
AcDbEntity
  8
0
100
AcDbLine
 10
249.1332499999999
 20
62.75
 30
0.0
 11
250.5012499999999
 21
72.47800000000001
 31
0.0
  0
LINE
  5
2E4
330
1E
100
AcDbEntity
  8
0
100
AcDbLine
 10
250.5012499999999
 20
72.47800000000001
 30
0.0
 11
254.1492499999999
 21
81.598
 31
0.0
  0
LINE
  5
2E5
330
1E
100
AcDbEntity
  8
0
100
AcDbLine
 10
238.13325
 20
62.75
 30
0.0
 11
238.13325
 21
25.75
 31
0.0
  0
LINE
  5
2E6
330
1E
100
AcDbEntity
  8
0
100
AcDbLine
 10
238.13325
 20
62.75
 30
0.0
 11
249.1332499999999
 21
62.75
 31
0.0
  0
LINE
  5
2E7
330
1E
100
AcDbEntity
  8
0
100
AcDbLine
 10
228.1332499999999
 20
43.426
 30
0.0
 11
228.1332499999999
 21
42.56199999999999
 31
0.0
  0
LINE
  5
2E8
330
1E
100
AcDbEntity
  8
0
100
AcDbLine
 10
228.1332499999999
 20
43.426
 30
0.0
 11
228.1332499999999
 21
43.75
 31
0.0
  0
LINE
  5
2E9
330
1E
100
AcDbEntity
  8
0
100
AcDbLine
 10
228.1332499999999
 20
42.75
 30
0.0
 11
238.13325
 21
42.75
 31
0.0
  0
LINE
  5
2EA
330
1E
100
AcDbEntity
  8
0
100
AcDbLine
 10
218.1332499999999
 20
85.318
 30
0.0
 11
218.1332499999999
 21
87.81399999999999
 31
0.0
  0
LINE
  5
2EB
330
1E
100
AcDbEntity
  8
0
100
AcDbLine
 10
218.1332499999999
 20
85.318
 30
0.0
 11
218.1332499999999
 21
81.158
 31
0.0
  0
LINE
  5
2EC
330
1E
100
AcDbEntity
  8
0
100
AcDbLine
 10
218.1332499999999
 20
88.75
 30
0.0
 11
218.1332499999999
 21
87.81399999999999
 31
0.0
  0
LINE
  5
2ED
330
1E
100
AcDbEntity
  8
0
100
AcDbLine
 10
218.1332499999999
 20
87.81399999999999
 30
0.0
 11
218.1332499999999
 21
88.75
 31
0.0
  0
LINE
  5
2EE
330
1E
100
AcDbEntity
  8
0
100
AcDbLine
 10
218.1332499999999
 20
87.81399999999999
 30
0.0
 11
218.1332499999999
 21
85.318
 31
0.0
  0
LINE
  5
2EF
330
1E
100
AcDbEntity
  8
0
100
AcDbLine
 10
216.1332499999999
 20
88.25000000000001
 30
0.0
 11
216.1332499999999
 21
88.75
 31
0.0
  0
LINE
  5
2F0
330
1E
100
AcDbEntity
  8
0
100
AcDbLine
 10
216.1332499999999
 20
88.25000000000001
 30
0.0
 11
216.1332499999999
 21
85.75000000000001
 31
0.0
  0
LINE
  5
2F1
330
1E
100
AcDbEntity
  8
0
100
AcDbLine
 10
9.141049999999911
 20
90.55480000000001
 30
0.0
 11
11.4362499999999
 21
90.8788
 31
0.0
  0
LINE
  5
2F2
330
1E
100
AcDbEntity
  8
0
100
AcDbLine
 10
6.98924999999991
 20
89.69079999999999
 30
0.0
 11
9.141049999999911
 21
90.55480000000001
 31
0.0
  0
LINE
  5
2F3
330
1E
100
AcDbEntity
  8
0
100
AcDbLine
 10
11.4362499999999
 20
90.8788
 30
0.0
 11
13.73154999999989
 21
90.55480000000001
 31
0.0
  0
LINE
  5
2F4
330
1E
100
AcDbEntity
  8
0
100
AcDbLine
 10
11.4362499999999
 20
90.8788
 30
0.0
 11
15.79404999999989
 21
90.8788
 31
0.0
  0
LINE
  5
2F5
330
1E
100
AcDbEntity
  8
0
100
AcDbLine
 10
13.73154999999989
 20
90.55480000000001
 30
0.0
 11
15.7238001075481
 21
89.75482598274771
 31
0.0
  0
LINE
  5
2F6
330
1E
100
AcDbEntity
  8
0
100
AcDbLine
 10
15.79404999999989
 20
90.8788
 30
0.0
 11
15.9780347755675
 21
90.8528286210347
 31
0.0
  0
LINE
  5
2F7
330
1E
100
AcDbEntity
  8
0
100
AcDbLine
 10
29.0578799999999
 20
90.26999999999999
 30
0.0
 11
30.4748399999999
 21
96.51000000000001
 31
0.0
  0
LINE
  5
2F8
330
1E
100
AcDbEntity
  8
0
100
AcDbLine
 10
38.19614999999989
 20
91.06999999999999
 30
0.0
 11
39.6686499999999
 21
97.46999999999999
 31
0.0
  0
LINE
  5
2F9
330
1E
100
AcDbEntity
  8
0
100
AcDbLine
 10
29.4898499999999
 20
91.06999999999999
 30
0.0
 11
30.96238999999989
 21
97.46999999999999
 31
0.0
  0
LINE
  5
2FA
330
1E
100
AcDbEntity
  8
0
100
AcDbLine
 10
16.1687499999999
 20
91.6765
 30
0.0
 11
17.56299999999989
 21
94.97060000000001
 31
0.0
  0
LINE
  5
2FB
330
1E
100
AcDbEntity
  8
0
100
AcDbLine
 10
16.57174999999989
 20
92.60290000000001
 30
0.0
 11
18.01966999999989
 21
96.0
 31
0.0
  0
LINE
  5
2FC
330
1E
100
AcDbEntity
  8
0
100
AcDbLine
 10
41.3964499999999
 20
89.654
 30
0.0
 11
42.7953499999999
 21
95.73399999999999
 31
0.0
  0
LINE
  5
2FD
330
1E
100
AcDbEntity
  8
0
100
AcDbLine
 10
39.0129499999999
 20
89.654
 30
0.0
 11
40.4118499999999
 21
95.73399999999999
 31
0.0
  0
LINE
  5
2FE
330
1E
100
AcDbEntity
  8
0
100
AcDbLine
 10
17.56299999999989
 20
94.97060000000001
 30
0.0
 11
18.01966999999989
 21
96.0
 31
0.0
  0
LINE
  5
2FF
330
1E
100
AcDbEntity
  8
0
100
AcDbLine
 10
18.01966999999989
 20
96.0
 30
0.0
 11
19.55695999999989
 21
97.2353
 31
0.0
  0
LINE
  5
300
330
1E
100
AcDbEntity
  8
0
100
AcDbLine
 10
30.4748399999999
 20
96.51000000000001
 30
0.0
 11
32.0862999999999
 21
100.35
 31
0.0
  0
LINE
  5
301
330
1E
100
AcDbEntity
  8
0
100
AcDbLine
 10
39.6686499999999
 20
97.46999999999999
 30
0.0
 11
41.3356499999999
 21
101.31
 31
0.0
  0
LINE
  5
302
330
1E
100
AcDbEntity
  8
0
100
AcDbLine
 10
30.96238999999989
 20
97.46999999999999
 30
0.0
 11
32.6294099999999
 21
101.31
 31
0.0
  0
LINE
  5
303
330
1E
100
AcDbEntity
  8
0
100
AcDbLine
 10
19.55695999999989
 20
97.2353
 30
0.0
 11
20.54176999999989
 21
97.75
 31
0.0
  0
LINE
  5
304
330
1E
100
AcDbEntity
  8
0
100
AcDbLine
 10
20.54176999999989
 20
97.75
 30
0.0
 11
30.9952072916666
 21
97.75
 31
0.0
  0
LINE
  5
305
330
1E
100
AcDbEntity
  8
0
100
AcDbLine
 10
41.9955499999999
 20
99.38200000000001
 30
0.0
 11
43.68474999999989
 21
100.75
 31
0.0
  0
LINE
  5
306
330
1E
100
AcDbEntity
  8
0
100
AcDbLine
 10
44.37904999999989
 20
99.38200000000001
 30
0.0
 11
46.06824999999989
 21
100.75
 31
0.0
  0
LINE
  5
307
330
1E
100
AcDbEntity
  8
0
100
AcDbLine
 10
42.7953499999999
 20
95.73399999999999
 30
0.0
 11
44.37904999999989
 21
99.38200000000001
 31
0.0
  0
LINE
  5
308
330
1E
100
AcDbEntity
  8
0
100
AcDbLine
 10
40.4118499999999
 20
95.73399999999999
 30
0.0
 11
41.9955499999999
 21
99.38200000000001
 31
0.0
  0
LINE
  5
309
330
1E
100
AcDbEntity
  8
0
100
AcDbLine
 10
32.0862999999999
 20
100.35
 30
0.0
 11
32.6294099999999
 21
101.31
 31
0.0
  0
LINE
  5
30A
330
1E
100
AcDbEntity
  8
0
100
AcDbLine
 10
32.6294099999999
 20
101.31
 30
0.0
 11
34.4075699999999
 21
102.75
 31
0.0
  0
LINE
  5
30B
330
1E
100
AcDbEntity
  8
0
100
AcDbLine
 10
41.3356499999999
 20
101.31
 30
0.0
 11
43.11384999999989
 21
102.75
 31
0.0
  0
LINE
  5
30C
330
1E
100
AcDbEntity
  8
0
100
AcDbLine
 10
34.4075699999999
 20
102.75
 30
0.0
 11
43.11384999999989
 21
102.75
 31
0.0
  0
LINE
  5
30D
330
1E
100
AcDbEntity
  8
0
100
AcDbLine
 10
43.11384999999989
 20
102.75
 30
0.0
 11
44.8920499999999
 21
101.31
 31
0.0
  0
LINE
  5
30E
330
1E
100
AcDbEntity
  8
0
100
AcDbLine
 10
44.8920499999999
 20
101.31
 30
0.0
 11
45.2088583333332
 21
100.75
 31
0.0
  0
LINE
  5
30F
330
1E
100
AcDbEntity
  8
0
100
AcDbLine
 10
43.68474999999989
 20
100.75
 30
0.0
 11
46.06824999999989
 21
100.75
 31
0.0
  0
LINE
  5
310
330
1E
100
AcDbEntity
  8
0
100
AcDbLine
 10
46.06824999999989
 20
100.75
 30
0.0
 11
47.75754999999989
 21
99.38200000000001
 31
0.0
  0
LINE
  5
311
330
1E
100
AcDbEntity
  8
0
100
AcDbLine
 10
47.75754999999989
 20
99.38200000000001
 30
0.0
 11
48.30204999999989
 21
98.47000000000001
 31
0.0
  0
LINE
  5
312
330
1E
100
AcDbEntity
  8
0
100
AcDbLine
 10
48.30204999999989
 20
98.47000000000001
 30
0.0
 11
49.8329499999999
 21
94.822
 31
0.0
  0
LINE
  5
313
330
1E
100
AcDbEntity
  8
0
100
AcDbLine
 10
49.8329499999999
 20
94.822
 30
0.0
 11
51.17904999999989
 21
88.894
 31
0.0
  0
LINE
  5
314
330
1E
100
AcDbEntity
  8
0
100
AcDbLine
 10
51.17904999999989
 20
88.894
 30
0.0
 11
52.20844999999989
 21
81.142
 31
0.0
  0
LINE
  5
315
330
1E
100
AcDbEntity
  8
0
100
AcDbLine
 10
216.1332499999999
 20
88.75
 30
0.0
 11
216.1332499999999
 21
88.25000000000001
 31
0.0
  0
LINE
  5
316
330
1E
100
AcDbEntity
  8
0
100
AcDbLine
 10
216.1332499999999
 20
88.75
 30
0.0
 11
218.1332499999999
 21
88.75
 31
0.0
  0
LINE
  5
317
330
1E
100
AcDbEntity
  8
0
100
AcDbLine
 10
216.1332499999999
 20
88.75
 30
0.0
 11
216.1332499999999
 21
87.81399999999999
 31
0.0
  0
LINE
  5
318
330
1E
100
AcDbEntity
  8
0
100
AcDbLine
 10
254.1492499999999
 20
43.902
 30
0.0
 11
260.2292499999999
 21
35.846
 31
0.0
  0
LINE
  5
319
330
1E
100
AcDbEntity
  8
0
100
AcDbLine
 10
260.2292499999999
 20
35.846
 30
0.0
 11
268.28525
 21
29.76599999999999
 31
0.0
  0
LINE
  5
31A
330
1E
100
AcDbEntity
  8
0
100
AcDbLine
 10
268.28525
 20
29.76599999999999
 30
0.0
 11
277.40525
 21
26.118
 31
0.0
  0
LINE
  5
31B
330
1E
100
AcDbEntity
  8
0
100
AcDbLine
 10
268.1332499999999
 20
29.8807169811321
 30
0.0
 11
268.1332499999999
 21
25.75
 31
0.0
  0
LINE
  5
31C
330
1E
100
AcDbEntity
  8
0
100
AcDbLine
 10
268.1332499999999
 20
25.75
 30
0.0
 11
270.1332499999999
 21
25.75
 31
0.0
  0
LINE
  5
31D
330
1E
100
AcDbEntity
  8
0
100
AcDbLine
 10
268.1332499999999
 20
25.75
 30
0.0
 11
268.1332499999999
 21
29.8807169811321
 31
0.0
  0
LINE
  5
31E
330
1E
100
AcDbEntity
  8
0
100
AcDbLine
 10
270.1332499999999
 20
25.75
 30
0.0
 11
270.1332499999999
 21
26.074
 31
0.0
  0
LINE
  5
31F
330
1E
100
AcDbEntity
  8
0
100
AcDbLine
 10
270.1332499999999
 20
26.074
 30
0.0
 11
270.1332499999999
 21
25.75
 31
0.0
  0
LINE
  5
320
330
1E
100
AcDbEntity
  8
0
100
AcDbLine
 10
270.1332499999999
 20
26.074
 30
0.0
 11
270.1332499999999
 21
26.938
 31
0.0
  0
LINE
  5
321
330
1E
100
AcDbEntity
  8
0
100
AcDbLine
 10
287.1332499999999
 20
24.75
 30
0.0
 11
296.8612499999999
 21
26.118
 31
0.0
  0
LINE
  5
322
330
1E
100
AcDbEntity
  8
0
100
AcDbLine
 10
277.40525
 20
26.118
 30
0.0
 11
287.1332499999999
 21
24.75
 31
0.0
  0
LINE
  5
323
330
1E
100
AcDbEntity
  8
0
100
AcDbLine
 10
270.1332499999999
 20
26.938
 30
0.0
 11
270.1332499999999
 21
26.074
 31
0.0
  0
LINE
  5
324
330
1E
100
AcDbEntity
  8
0
100
AcDbLine
 10
270.1332499999999
 20
26.938
 30
0.0
 11
270.1332499999999
 21
28.378
 31
0.0
  0
LINE
  5
325
330
1E
100
AcDbEntity
  8
0
100
AcDbLine
 10
270.1332499999999
 20
28.378
 30
0.0
 11
270.1332499999999
 21
26.938
 31
0.0
  0
LINE
  5
326
330
1E
100
AcDbEntity
  8
0
100
AcDbLine
 10
270.1332499999999
 20
28.378
 30
0.0
 11
270.1332499999999
 21
29.0268
 31
0.0
  0
LINE
  5
327
330
1E
100
AcDbEntity
  8
0
100
AcDbLine
 10
296.8612499999999
 20
26.118
 30
0.0
 11
305.98125
 21
29.76599999999999
 31
0.0
  0
LINE
  5
328
330
1E
100
AcDbEntity
  8
0
100
AcDbLine
 10
296.09325
 20
29.01
 30
0.0
 11
304.4932499999999
 21
32.37
 31
0.0
  0
LINE
  5
329
330
1E
100
AcDbEntity
  8
0
100
AcDbLine
 10
287.1332499999999
 20
27.75
 30
0.0
 11
296.09325
 21
29.01
 31
0.0
  0
LINE
  5
32A
330
1E
100
AcDbEntity
  8
0
100
AcDbLine
 10
270.1332499999999
 20
29.0268
 30
0.0
 11
270.1332499999999
 21
28.378
 31
0.0
  0
LINE
  5
32B
330
1E
100
AcDbEntity
  8
0
100
AcDbLine
 10
305.98125
 20
29.76599999999999
 30
0.0
 11
314.0372499999999
 21
35.846
 31
0.0
  0
LINE
  5
32C
330
1E
100
AcDbEntity
  8
0
100
AcDbLine
 10
313.91005
 20
35.75
 30
0.0
 11
360.1332499999999
 21
35.75
 31
0.0
  0
LINE
  5
32D
330
1E
100
AcDbEntity
  8
0
100
AcDbLine
 10
314.0372499999999
 20
35.846
 30
0.0
 11
320.11725
 21
43.902
 31
0.0
  0
LINE
  5
32E
330
1E
100
AcDbEntity
  8
0
100
AcDbLine
 10
314.453853773585
 20
36.398
 30
0.0
 11
360.1332499999999
 21
36.398
 31
0.0
  0
LINE
  5
32F
330
1E
100
AcDbEntity
  8
0
100
AcDbLine
 10
360.1332499999999
 20
36.398
 30
0.0
 11
364.847391732283
 21
37.0714488188976
 31
0.0
  0
LINE
  5
330
330
1E
100
AcDbEntity
  8
0
100
AcDbLine
 10
360.1332499999999
 20
35.75
 30
0.0
 11
367.04525
 21
36.722
 31
0.0
  0
LINE
  5
331
330
1E
100
AcDbEntity
  8
0
100
AcDbLine
 10
367.04525
 20
36.722
 30
0.0
 11
367.1199320809249
 21
36.7518728323699
 31
0.0
  0
LINE
  5
332
330
1E
100
AcDbEntity
  8
0
100
AcDbLine
 10
360.47725
 20
37.686
 30
0.0
 11
367.1332499999999
 21
36.75
 31
0.0
  0
LINE
  5
333
330
1E
100
AcDbEntity
  8
0
100
AcDbLine
 10
373.78925
 20
37.686
 30
0.0
 11
380.0292499999999
 21
40.18199999999999
 31
0.0
  0
LINE
  5
334
330
1E
100
AcDbEntity
  8
0
100
AcDbLine
 10
367.1332499999999
 20
36.75
 30
0.0
 11
373.78925
 21
37.686
 31
0.0
  0
LINE
  5
335
330
1E
100
AcDbEntity
  8
0
100
AcDbLine
 10
414.1332499999999
 20
37.25
 30
0.0
 11
428.1332499999999
 21
37.25
 31
0.0
  0
LINE
  5
336
330
1E
100
AcDbEntity
  8
0
100
AcDbLine
 10
428.1332499999999
 20
37.25
 30
0.0
 11
428.1332499999999
 21
39.75
 31
0.0
  0
LINE
  5
337
330
1E
100
AcDbEntity
  8
0
100
AcDbLine
 10
414.1332499999999
 20
37.686
 30
0.0
 11
414.1332499999999
 21
40.18199999999999
 31
0.0
  0
LINE
  5
338
330
1E
100
AcDbEntity
  8
0
100
AcDbLine
 10
414.1332499999999
 20
37.686
 30
0.0
 11
414.1332499999999
 21
36.75
 31
0.0
  0
LINE
  5
339
330
1E
100
AcDbEntity
  8
0
100
AcDbLine
 10
414.1332499999999
 20
36.75
 30
0.0
 11
414.1332499999999
 21
37.686
 31
0.0
  0
LINE
  5
33A
330
1E
100
AcDbEntity
  8
0
100
AcDbLine
 10
412.1332499999999
 20
36.75
 30
0.0
 11
412.1332499999999
 21
37.686
 31
0.0
  0
LINE
  5
33B
330
1E
100
AcDbEntity
  8
0
100
AcDbLine
 10
412.1332499999999
 20
36.75
 30
0.0
 11
414.1332499999999
 21
36.75
 31
0.0
  0
LINE
  5
33C
330
1E
100
AcDbEntity
  8
0
100
AcDbLine
 10
412.1332499999999
 20
37.686
 30
0.0
 11
412.1332499999999
 21
36.75
 31
0.0
  0
LINE
  5
33D
330
1E
100
AcDbEntity
  8
0
100
AcDbLine
 10
412.1332499999999
 20
37.686
 30
0.0
 11
412.1332499999999
 21
40.18199999999999
 31
0.0
  0
LINE
  5
33E
330
1E
100
AcDbEntity
  8
0
100
AcDbLine
 10
412.1332499999999
 20
37.686
 30
0.0
 11
412.1332499999999
 21
40.18199999999999
 31
0.0
  0
LINE
  5
33F
330
1E
100
AcDbEntity
  8
0
100
AcDbLine
 10
526.4842499999999
 20
37.686
 30
0.0
 11
530.89725
 21
40.18199999999999
 31
0.0
  0
LINE
  5
340
330
1E
100
AcDbEntity
  8
0
100
AcDbLine
 10
522.4852499999999
 20
36.75
 30
0.0
 11
527.19125
 21
37.686
 31
0.0
  0
LINE
  5
341
330
1E
100
AcDbEntity
  8
0
100
AcDbLine
 10
527.19125
 20
37.686
 30
0.0
 11
531.60425
 21
40.18199999999999
 31
0.0
  0
LINE
  5
342
330
1E
100
AcDbEntity
  8
0
100
AcDbLine
 10
521.7782499999999
 20
36.75
 30
0.0
 11
522.4852499999999
 21
36.75
 31
0.0
  0
LINE
  5
343
330
1E
100
AcDbEntity
  8
0
100
AcDbLine
 10
521.7782499999999
 20
36.75
 30
0.0
 11
526.4842499999999
 21
37.686
 31
0.0
  0
LINE
  5
344
330
1E
100
AcDbEntity
  8
0
100
AcDbLine
 10
557.1332499999999
 20
37.75
 30
0.0
 11
561.65925
 21
38.65
 31
0.0
  0
LINE
  5
345
330
1E
100
AcDbEntity
  8
0
100
AcDbLine
 10
527.3044038461541
 20
37.75
 30
0.0
 11
557.1332499999999
 21
37.75
 31
0.0
  0
LINE
  5
346
330
1E
100
AcDbEntity
  8
0
100
AcDbLine
 10
517.0712499999999
 20
37.686
 30
0.0
 11
521.7782499999999
 21
36.75
 31
0.0
  0
LINE
  5
347
330
1E
100
AcDbEntity
  8
0
100
AcDbLine
 10
304.4932499999999
 20
32.37
 30
0.0
 11
311.91325
 21
37.97
 31
0.0
  0
LINE
  5
348
330
1E
100
AcDbEntity
  8
0
100
AcDbLine
 10
311.91325
 20
37.97
 30
0.0
 11
317.51325
 21
45.39
 31
0.0
  0
LINE
  5
349
330
1E
100
AcDbEntity
  8
0
100
AcDbLine
 10
287.1332499999999
 20
37.75
 30
0.0
 11
293.53325
 21
38.65
 31
0.0
  0
LINE
  5
34A
330
1E
100
AcDbEntity
  8
0
100
AcDbLine
 10
278.1732499999999
 20
29.01
 30
0.0
 11
287.1332499999999
 21
27.75
 31
0.0
  0
LINE
  5
34B
330
1E
100
AcDbEntity
  8
0
100
AcDbLine
 10
269.77325
 20
32.37
 30
0.0
 11
278.1732499999999
 21
29.01
 31
0.0
  0
LINE
  5
34C
330
1E
100
AcDbEntity
  8
0
100
AcDbLine
 10
561.65925
 20
38.65
 30
0.0
 11
565.90125
 21
41.04999999999999
 31
0.0
  0
LINE
  5
34D
330
1E
100
AcDbEntity
  8
0
100
AcDbLine
 10
293.53325
 20
38.65
 30
0.0
 11
299.5332499999999
 21
41.04999999999999
 31
0.0
  0
LINE
  5
34E
330
1E
100
AcDbEntity
  8
0
100
AcDbLine
 10
299.5332499999999
 20
41.04999999999999
 30
0.0
 11
304.83325
 21
45.04999999999999
 31
0.0
  0
LINE
  5
34F
330
1E
100
AcDbEntity
  8
0
100
AcDbLine
 10
354.23725
 20
40.18199999999999
 30
0.0
 11
360.47725
 21
37.686
 31
0.0
  0
LINE
  5
350
330
1E
100
AcDbEntity
  8
0
100
AcDbLine
 10
380.0292499999999
 20
40.18199999999999
 30
0.0
 11
383.43185
 21
42.75
 31
0.0
  0
LINE
  5
351
330
1E
100
AcDbEntity
  8
0
100
AcDbLine
 10
428.1332499999999
 20
39.75
 30
0.0
 11
428.1332499999999
 21
40.578
 31
0.0
  0
LINE
  5
352
330
1E
100
AcDbEntity
  8
0
100
AcDbLine
 10
428.1332499999999
 20
39.75
 30
0.0
 11
428.1332499999999
 21
37.25
 31
0.0
  0
LINE
  5
353
330
1E
100
AcDbEntity
  8
0
100
AcDbLine
 10
371.2862499999999
 20
42.75
 30
0.0
 11
376.21325
 21
42.75
 31
0.0
  0
LINE
  5
354
330
1E
100
AcDbEntity
  8
0
100
AcDbLine
 10
368.18925
 20
42.75
 30
0.0
 11
371.2862499999999
 21
42.75
 31
0.0
  0
LINE
  5
355
330
1E
100
AcDbEntity
  8
0
100
AcDbLine
 10
376.21325
 20
42.75
 30
0.0
 11
382.6332499999999
 21
42.75
 31
0.0
  0
LINE
  5
356
330
1E
100
AcDbEntity
  8
0
100
AcDbLine
 10
390.11025
 20
42.75
 30
0.0
 11
398.1332499999999
 21
42.75
 31
0.0
  0
LINE
  5
357
330
1E
100
AcDbEntity
  8
0
100
AcDbLine
 10
382.6332499999999
 20
42.75
 30
0.0
 11
390.11025
 21
42.75
 31
0.0
  0
LINE
  5
358
330
1E
100
AcDbEntity
  8
0
100
AcDbLine
 10
398.1332499999999
 20
42.75
 30
0.0
 11
412.1332499999999
 21
42.75
 31
0.0
  0
LINE
  5
359
330
1E
100
AcDbEntity
  8
0
100
AcDbLine
 10
367.1332499999999
 20
42.75
 30
0.0
 11
368.18925
 21
42.75
 31
0.0
  0
LINE
  5
35A
330
1E
100
AcDbEntity
  8
0
100
AcDbLine
 10
412.1332499999999
 20
40.18199999999999
 30
0.0
 11
412.1332499999999
 21
44.34199999999999
 31
0.0
  0
LINE
  5
35B
330
1E
100
AcDbEntity
  8
0
100
AcDbLine
 10
412.1332499999999
 20
40.18199999999999
 30
0.0
 11
412.1332499999999
 21
37.686
 31
0.0
  0
LINE
  5
35C
330
1E
100
AcDbEntity
  8
0
100
AcDbLine
 10
428.1332499999999
 20
42.75
 30
0.0
 11
450.13325
 21
42.75
 31
0.0
  0
LINE
  5
35D
330
1E
100
AcDbEntity
  8
0
100
AcDbLine
 10
472.05325
 20
42.75
 30
0.0
 11
518.21325
 21
42.75
 31
0.0
  0
LINE
  5
35E
330
1E
100
AcDbEntity
  8
0
100
AcDbLine
 10
465.6332499999999
 20
42.75
 30
0.0
 11
472.05325
 21
42.75
 31
0.0
  0
LINE
  5
35F
330
1E
100
AcDbEntity
  8
0
100
AcDbLine
 10
450.13325
 20
42.75
 30
0.0
 11
458.15625
 21
42.75
 31
0.0
  0
LINE
  5
360
330
1E
100
AcDbEntity
  8
0
100
AcDbLine
 10
458.15625
 20
42.75
 30
0.0
 11
465.6332499999999
 21
42.75
 31
0.0
  0
LINE
  5
361
330
1E
100
AcDbEntity
  8
0
100
AcDbLine
 10
428.1332499999999
 20
40.578
 30
0.0
 11
428.1332499999999
 21
42.78599999999999
 31
0.0
  0
LINE
  5
362
330
1E
100
AcDbEntity
  8
0
100
AcDbLine
 10
428.1332499999999
 20
40.578
 30
0.0
 11
428.1332499999999
 21
39.75
 31
0.0
  0
LINE
  5
363
330
1E
100
AcDbEntity
  8
0
100
AcDbLine
 10
414.1332499999999
 20
40.18199999999999
 30
0.0
 11
414.1332499999999
 21
44.34199999999999
 31
0.0
  0
LINE
  5
364
330
1E
100
AcDbEntity
  8
0
100
AcDbLine
 10
414.1332499999999
 20
40.18199999999999
 30
0.0
 11
414.1332499999999
 21
37.686
 31
0.0
  0
LINE
  5
365
330
1E
100
AcDbEntity
  8
0
100
AcDbLine
 10
412.1332499999999
 20
42.75
 30
0.0
 11
412.1332499999999
 21
40.18199999999999
 31
0.0
  0
LINE
  5
366
330
1E
100
AcDbEntity
  8
0
100
AcDbLine
 10
412.1332499999999
 20
40.18199999999999
 30
0.0
 11
412.1332499999999
 21
37.686
 31
0.0
  0
LINE
  5
367
330
1E
100
AcDbEntity
  8
0
100
AcDbLine
 10
412.1332499999999
 20
40.18199999999999
 30
0.0
 11
412.1332499999999
 21
42.75
 31
0.0
  0
LINE
  5
368
330
1E
100
AcDbEntity
  8
0
100
AcDbLine
 10
530.89725
 20
40.18199999999999
 30
0.0
 11
534.79425
 21
44.34199999999999
 31
0.0
  0
LINE
  5
369
330
1E
100
AcDbEntity
  8
0
100
AcDbLine
 10
518.21325
 20
42.75
 30
0.0
 11
521.7492499999999
 21
42.75
 31
0.0
  0
LINE
  5
36A
330
1E
100
AcDbEntity
  8
0
100
AcDbLine
 10
565.90125
 20
41.04999999999999
 30
0.0
 11
569.64925
 21
45.04999999999999
 31
0.0
  0
LINE
  5
36B
330
1E
100
AcDbEntity
  8
0
100
AcDbLine
 10
531.60425
 20
40.18199999999999
 30
0.0
 11
535.5012499999999
 21
44.34199999999999
 31
0.0
  0
LINE
  5
36C
330
1E
100
AcDbEntity
  8
0
100
AcDbLine
 10
512.65925
 20
40.18199999999999
 30
0.0
 11
517.0712499999999
 21
37.686
 31
0.0
  0
LINE
  5
36D
330
1E
100
AcDbEntity
  8
0
100
AcDbLine
 10
320.11725
 20
43.902
 30
0.0
 11
323.7652499999999
 21
53.022
 31
0.0
  0
LINE
  5
36E
330
1E
100
AcDbEntity
  8
0
100
AcDbLine
 10
362.01325
 20
43.47
 30
0.0
 11
367.1332499999999
 21
42.75
 31
0.0
  0
LINE
  5
36F
330
1E
100
AcDbEntity
  8
0
100
AcDbLine
 10
348.72525
 20
44.34199999999999
 30
0.0
 11
354.23725
 21
40.18199999999999
 31
0.0
  0
LINE
  5
370
330
1E
100
AcDbEntity
  8
0
100
AcDbLine
 10
428.1332499999999
 20
42.78599999999999
 30
0.0
 11
428.1332499999999
 21
46.466
 31
0.0
  0
LINE
  5
371
330
1E
100
AcDbEntity
  8
0
100
AcDbLine
 10
428.1332499999999
 20
42.78599999999999
 30
0.0
 11
428.1332499999999
 21
40.578
 31
0.0
  0
LINE
  5
372
330
1E
100
AcDbEntity
  8
0
100
AcDbLine
 10
414.1332499999999
 20
44.34199999999999
 30
0.0
 11
414.1332499999999
 21
49.854
 31
0.0
  0
LINE
  5
373
330
1E
100
AcDbEntity
  8
0
100
AcDbLine
 10
414.1332499999999
 20
44.34199999999999
 30
0.0
 11
414.1332499999999
 21
40.18199999999999
 31
0.0
  0
LINE
  5
374
330
1E
100
AcDbEntity
  8
0
100
AcDbLine
 10
412.1332499999999
 20
44.34199999999999
 30
0.0
 11
412.1332499999999
 21
49.854
 31
0.0
  0
LINE
  5
375
330
1E
100
AcDbEntity
  8
0
100
AcDbLine
 10
412.1332499999999
 20
44.34199999999999
 30
0.0
 11
412.1332499999999
 21
40.18199999999999
 31
0.0
  0
LINE
  5
376
330
1E
100
AcDbEntity
  8
0
100
AcDbLine
 10
534.79425
 20
44.34199999999999
 30
0.0
 11
537.73625
 21
49.854
 31
0.0
  0
LINE
  5
377
330
1E
100
AcDbEntity
  8
0
100
AcDbLine
 10
569.64925
 20
45.04999999999999
 30
0.0
 11
572.47725
 21
50.35
 31
0.0
  0
LINE
  5
378
330
1E
100
AcDbEntity
  8
0
100
AcDbLine
 10
535.5012499999999
 20
44.34199999999999
 30
0.0
 11
538.44325
 21
49.854
 31
0.0
  0
LINE
  5
379
330
1E
100
AcDbEntity
  8
0
100
AcDbLine
 10
510.2529846153849
 20
42.75
 30
0.0
 11
512.65925
 21
40.18199999999999
 31
0.0
  0
LINE
  5
37A
330
1E
100
AcDbEntity
  8
0
100
AcDbLine
 10
304.83325
 20
45.04999999999999
 30
0.0
 11
308.83325
 21
50.35
 31
0.0
  0
LINE
  5
37B
330
1E
100
AcDbEntity
  8
0
100
AcDbLine
 10
280.73325
 20
38.65
 30
0.0
 11
287.1332499999999
 21
37.75
 31
0.0
  0
LINE
  5
37C
330
1E
100
AcDbEntity
  8
0
100
AcDbLine
 10
274.73325
 20
41.04999999999999
 30
0.0
 11
280.73325
 21
38.65
 31
0.0
  0
LINE
  5
37D
330
1E
100
AcDbEntity
  8
0
100
AcDbLine
 10
357.21325
 20
45.39
 30
0.0
 11
362.01325
 21
43.47
 31
0.0
  0
LINE
  5
37E
330
1E
100
AcDbEntity
  8
0
100
AcDbLine
 10
352.97325
 20
48.59
 30
0.0
 11
357.21325
 21
45.39
 31
0.0
  0
LINE
  5
37F
330
1E
100
AcDbEntity
  8
0
100
AcDbLine
 10
344.56525
 20
49.854
 30
0.0
 11
348.72525
 21
44.34199999999999
 31
0.0
  0
LINE
  5
380
330
1E
100
AcDbEntity
  8
0
100
AcDbLine
 10
414.1332499999999
 20
49.13399999999999
 30
0.0
 11
428.1332499999999
 21
49.13399999999999
 31
0.0
  0
LINE
  5
381
330
1E
100
AcDbEntity
  8
0
100
AcDbLine
 10
428.1332499999999
 20
49.13399999999999
 30
0.0
 11
428.1332499999999
 21
46.466
 31
0.0
  0
LINE
  5
382
330
1E
100
AcDbEntity
  8
0
100
AcDbLine
 10
428.1332499999999
 20
49.13399999999999
 30
0.0
 11
428.1332499999999
 21
50.866
 31
0.0
  0
LINE
  5
383
330
1E
100
AcDbEntity
  8
0
100
AcDbLine
 10
428.1332499999999
 20
46.466
 30
0.0
 11
428.1332499999999
 21
49.13399999999999
 31
0.0
  0
LINE
  5
384
330
1E
100
AcDbEntity
  8
0
100
AcDbLine
 10
428.1332499999999
 20
46.466
 30
0.0
 11
428.1332499999999
 21
42.78599999999999
 31
0.0
  0
LINE
  5
385
330
1E
100
AcDbEntity
  8
0
100
AcDbLine
 10
537.73625
 20
49.854
 30
0.0
 11
539.5012499999999
 21
56.09399999999999
 31
0.0
  0
LINE
  5
386
330
1E
100
AcDbEntity
  8
0
100
AcDbLine
 10
414.1332499999999
 20
49.854
 30
0.0
 11
414.1332499999999
 21
56.09399999999999
 31
0.0
  0
LINE
  5
387
330
1E
100
AcDbEntity
  8
0
100
AcDbLine
 10
414.1332499999999
 20
49.854
 30
0.0
 11
414.1332499999999
 21
44.34199999999999
 31
0.0
  0
LINE
  5
388
330
1E
100
AcDbEntity
  8
0
100
AcDbLine
 10
428.1332499999999
 20
50.866
 30
0.0
 11
428.1332499999999
 21
49.13399999999999
 31
0.0
  0
LINE
  5
389
330
1E
100
AcDbEntity
  8
0
100
AcDbLine
 10
428.1332499999999
 20
50.866
 30
0.0
 11
428.1332499999999
 21
52.36600000000001
 31
0.0
  0
LINE
  5
38A
330
1E
100
AcDbEntity
  8
0
100
AcDbLine
 10
323.7652499999999
 20
53.022
 30
0.0
 11
325.1332499999999
 21
62.75
 31
0.0
  0
LINE
  5
38B
330
1E
100
AcDbEntity
  8
0
100
AcDbLine
 10
349.77325
 20
52.83
 30
0.0
 11
352.97325
 21
48.59
 31
0.0
  0
LINE
  5
38C
330
1E
100
AcDbEntity
  8
0
100
AcDbLine
 10
414.1332499999999
 20
50.866
 30
0.0
 11
428.1332499999999
 21
50.866
 31
0.0
  0
LINE
  5
38D
330
1E
100
AcDbEntity
  8
0
100
AcDbLine
 10
428.1332499999999
 20
52.36600000000001
 30
0.0
 11
428.1332499999999
 21
56.86199999999999
 31
0.0
  0
LINE
  5
38E
330
1E
100
AcDbEntity
  8
0
100
AcDbLine
 10
428.1332499999999
 20
52.36600000000001
 30
0.0
 11
428.1332499999999
 21
50.866
 31
0.0
  0
LINE
  5
38F
330
1E
100
AcDbEntity
  8
0
100
AcDbLine
 10
412.1332499999999
 20
49.854
 30
0.0
 11
412.1332499999999
 21
56.09399999999999
 31
0.0
  0
LINE
  5
390
330
1E
100
AcDbEntity
  8
0
100
AcDbLine
 10
412.1332499999999
 20
49.854
 30
0.0
 11
412.1332499999999
 21
44.34199999999999
 31
0.0
  0
LINE
  5
391
330
1E
100
AcDbEntity
  8
0
100
AcDbLine
 10
572.47725
 20
50.35
 30
0.0
 11
574.1742499999999
 21
56.35
 31
0.0
  0
LINE
  5
392
330
1E
100
AcDbEntity
  8
0
100
AcDbLine
 10
538.44325
 20
49.854
 30
0.0
 11
540.20825
 21
56.09399999999999
 31
0.0
  0
LINE
  5
393
330
1E
100
AcDbEntity
  8
0
100
AcDbLine
 10
317.51325
 20
45.39
 30
0.0
 11
320.8732499999999
 21
53.79
 31
0.0
  0
LINE
  5
394
330
1E
100
AcDbEntity
  8
0
100
AcDbLine
 10
320.8732499999999
 20
53.79
 30
0.0
 11
322.1332499999999
 21
62.75
 31
0.0
  0
LINE
  5
395
330
1E
100
AcDbEntity
  8
0
100
AcDbLine
 10
308.83325
 20
50.35
 30
0.0
 11
311.2332499999999
 21
56.35
 31
0.0
  0
LINE
  5
396
330
1E
100
AcDbEntity
  8
0
100
AcDbLine
 10
269.4332499999999
 20
45.04999999999999
 30
0.0
 11
274.73325
 21
41.04999999999999
 31
0.0
  0
LINE
  5
397
330
1E
100
AcDbEntity
  8
0
100
AcDbLine
 10
265.4332499999999
 20
50.35
 30
0.0
 11
269.4332499999999
 21
45.04999999999999
 31
0.0
  0
LINE
  5
398
330
1E
100
AcDbEntity
  8
0
100
AcDbLine
 10
262.35325
 20
37.97
 30
0.0
 11
269.77325
 21
32.37
 31
0.0
  0
LINE
  5
399
330
1E
100
AcDbEntity
  8
0
100
AcDbLine
 10
256.7532499999999
 20
45.39
 30
0.0
 11
262.35325
 21
37.97
 31
0.0
  0
LINE
  5
39A
330
1E
100
AcDbEntity
  8
0
100
AcDbLine
 10
254.1492499999999
 20
81.598
 30
0.0
 11
260.2292499999999
 21
89.654
 31
0.0
  0
LINE
  5
39B
330
1E
100
AcDbEntity
  8
0
100
AcDbLine
 10
260.2292499999999
 20
89.654
 30
0.0
 11
268.28525
 21
95.73399999999999
 31
0.0
  0
LINE
  5
39C
330
1E
100
AcDbEntity
  8
0
100
AcDbLine
 10
256.7532499999999
 20
80.11000000000001
 30
0.0
 11
262.35325
 21
87.53
 31
0.0
  0
LINE
  5
39D
330
1E
100
AcDbEntity
  8
0
100
AcDbLine
 10
253.39325
 20
71.70999999999999
 30
0.0
 11
256.7532499999999
 21
80.11000000000001
 31
0.0
  0
LINE
  5
39E
330
1E
100
AcDbEntity
  8
0
100
AcDbLine
 10
342.06925
 20
56.09399999999999
 30
0.0
 11
344.56525
 21
49.854
 31
0.0
  0
LINE
  5
39F
330
1E
100
AcDbEntity
  8
0
100
AcDbLine
 10
539.5012499999999
 20
56.09399999999999
 30
0.0
 11
540.16225
 21
62.75
 31
0.0
  0
LINE
  5
3A0
330
1E
100
AcDbEntity
  8
0
100
AcDbLine
 10
414.1332499999999
 20
56.09399999999999
 30
0.0
 11
414.1332499999999
 21
62.75
 31
0.0
  0
LINE
  5
3A1
330
1E
100
AcDbEntity
  8
0
100
AcDbLine
 10
414.1332499999999
 20
56.09399999999999
 30
0.0
 11
414.1332499999999
 21
49.854
 31
0.0
  0
LINE
  5
3A2
330
1E
100
AcDbEntity
  8
0
100
AcDbLine
 10
412.1332499999999
 20
56.09399999999999
 30
0.0
 11
412.1332499999999
 21
62.75
 31
0.0
  0
LINE
  5
3A3
330
1E
100
AcDbEntity
  8
0
100
AcDbLine
 10
412.1332499999999
 20
56.09399999999999
 30
0.0
 11
412.1332499999999
 21
49.854
 31
0.0
  0
LINE
  5
3A4
330
1E
100
AcDbEntity
  8
0
100
AcDbLine
 10
574.1742499999999
 20
56.35
 30
0.0
 11
574.8112499999999
 21
62.75
 31
0.0
  0
LINE
  5
3A5
330
1E
100
AcDbEntity
  8
0
100
AcDbLine
 10
540.20825
 20
56.09399999999999
 30
0.0
 11
540.87025
 21
62.75
 31
0.0
  0
LINE
  5
3A6
330
1E
100
AcDbEntity
  8
0
100
AcDbLine
 10
311.2332499999999
 20
56.35
 30
0.0
 11
312.1332499999999
 21
62.75
 31
0.0
  0
LINE
  5
3A7
330
1E
100
AcDbEntity
  8
0
100
AcDbLine
 10
263.03325
 20
69.15
 30
0.0
 11
265.4332499999999
 21
75.15
 31
0.0
  0
LINE
  5
3A8
330
1E
100
AcDbEntity
  8
0
100
AcDbLine
 10
269.4332499999999
 20
80.44999999999999
 30
0.0
 11
274.73325
 21
84.45
 31
0.0
  0
LINE
  5
3A9
330
1E
100
AcDbEntity
  8
0
100
AcDbLine
 10
265.4332499999999
 20
75.15
 30
0.0
 11
269.4332499999999
 21
80.44999999999999
 31
0.0
  0
LINE
  5
3AA
330
1E
100
AcDbEntity
  8
0
100
AcDbLine
 10
262.35325
 20
87.53
 30
0.0
 11
269.77325
 21
93.13
 31
0.0
  0
LINE
  5
3AB
330
1E
100
AcDbEntity
  8
0
100
AcDbLine
 10
280.73325
 20
86.85
 30
0.0
 11
287.1332499999999
 21
87.75
 31
0.0
  0
LINE
  5
3AC
330
1E
100
AcDbEntity
  8
0
100
AcDbLine
 10
268.28525
 20
95.73399999999999
 30
0.0
 11
277.40525
 21
99.38200000000001
 31
0.0
  0
LINE
  5
3AD
330
1E
100
AcDbEntity
  8
0
100
AcDbLine
 10
278.1732499999999
 20
96.49
 30
0.0
 11
287.1332499999999
 21
97.75
 31
0.0
  0
LINE
  5
3AE
330
1E
100
AcDbEntity
  8
0
100
AcDbLine
 10
269.77325
 20
93.13
 30
0.0
 11
278.1732499999999
 21
96.49
 31
0.0
  0
LINE
  5
3AF
330
1E
100
AcDbEntity
  8
0
100
AcDbLine
 10
274.73325
 20
84.45
 30
0.0
 11
280.73325
 21
86.85
 31
0.0
  0
LINE
  5
3B0
330
1E
100
AcDbEntity
  8
0
100
AcDbLine
 10
274.73325
 20
84.45
 30
0.0
 11
280.73325
 21
86.85
 31
0.0
  0
LINE
  5
3B1
330
1E
100
AcDbEntity
  8
0
100
AcDbLine
 10
280.73325
 20
86.85
 30
0.0
 11
287.1332499999999
 21
87.75
 31
0.0
  0
LINE
  5
3B2
330
1E
100
AcDbEntity
  8
0
100
AcDbLine
 10
277.40525
 20
99.38200000000001
 30
0.0
 11
287.1332499999999
 21
100.75
 31
0.0
  0
LINE
  5
3B3
330
1E
100
AcDbEntity
  8
0
100
AcDbLine
 10
287.1332499999999
 20
100.75
 30
0.0
 11
296.8612499999999
 21
99.38200000000001
 31
0.0
  0
LINE
  5
3B4
330
1E
100
AcDbEntity
  8
0
100
AcDbLine
 10
287.1332499999999
 20
97.75
 30
0.0
 11
296.09325
 21
96.49
 31
0.0
  0
LINE
  5
3B5
330
1E
100
AcDbEntity
  8
0
100
AcDbLine
 10
347.1332499999999
 20
62.75
 30
0.0
 11
347.85325
 21
57.63
 31
0.0
  0
LINE
  5
3B6
330
1E
100
AcDbEntity
  8
0
100
AcDbLine
 10
347.1332499999999
 20
62.75
 30
0.0
 11
347.85325
 21
67.87
 31
0.0
  0
LINE
  5
3B7
330
1E
100
AcDbEntity
  8
0
100
AcDbLine
 10
347.85325
 20
57.63
 30
0.0
 11
349.77325
 21
52.83
 31
0.0
  0
LINE
  5
3B8
330
1E
100
AcDbEntity
  8
0
100
AcDbLine
 10
341.1332499999999
 20
62.75
 30
0.0
 11
342.06925
 21
69.406
 31
0.0
  0
LINE
  5
3B9
330
1E
100
AcDbEntity
  8
0
100
AcDbLine
 10
341.1332499999999
 20
62.75
 30
0.0
 11
342.06925
 21
56.09399999999999
 31
0.0
  0
LINE
  5
3BA
330
1E
100
AcDbEntity
  8
0
100
AcDbLine
 10
428.1332499999999
 20
56.86199999999999
 30
0.0
 11
428.1332499999999
 21
62.75
 31
0.0
  0
LINE
  5
3BB
330
1E
100
AcDbEntity
  8
0
100
AcDbLine
 10
428.1332499999999
 20
56.86199999999999
 30
0.0
 11
428.1332499999999
 21
52.36600000000001
 31
0.0
  0
LINE
  5
3BC
330
1E
100
AcDbEntity
  8
0
100
AcDbLine
 10
428.1332499999999
 20
62.75
 30
0.0
 11
428.1332499999999
 21
68.63800000000001
 31
0.0
  0
LINE
  5
3BD
330
1E
100
AcDbEntity
  8
0
100
AcDbLine
 10
428.1332499999999
 20
62.75
 30
0.0
 11
428.1332499999999
 21
56.86199999999999
 31
0.0
  0
LINE
  5
3BE
330
1E
100
AcDbEntity
  8
0
100
AcDbLine
 10
414.1332499999999
 20
62.75
 30
0.0
 11
414.1332499999999
 21
69.406
 31
0.0
  0
LINE
  5
3BF
330
1E
100
AcDbEntity
  8
0
100
AcDbLine
 10
414.1332499999999
 20
62.75
 30
0.0
 11
414.1332499999999
 21
56.09399999999999
 31
0.0
  0
LINE
  5
3C0
330
1E
100
AcDbEntity
  8
0
100
AcDbLine
 10
347.85325
 20
67.87
 30
0.0
 11
349.77325
 21
72.67
 31
0.0
  0
LINE
  5
3C1
330
1E
100
AcDbEntity
  8
0
100
AcDbLine
 10
428.1332499999999
 20
68.63800000000001
 30
0.0
 11
428.1332499999999
 21
73.134
 31
0.0
  0
LINE
  5
3C2
330
1E
100
AcDbEntity
  8
0
100
AcDbLine
 10
428.1332499999999
 20
68.63800000000001
 30
0.0
 11
428.1332499999999
 21
62.75
 31
0.0
  0
LINE
  5
3C3
330
1E
100
AcDbEntity
  8
0
100
AcDbLine
 10
412.1332499999999
 20
62.75
 30
0.0
 11
412.1332499999999
 21
69.406
 31
0.0
  0
LINE
  5
3C4
330
1E
100
AcDbEntity
  8
0
100
AcDbLine
 10
412.1332499999999
 20
62.75
 30
0.0
 11
412.1332499999999
 21
56.09399999999999
 31
0.0
  0
LINE
  5
3C5
330
1E
100
AcDbEntity
  8
0
100
AcDbLine
 10
574.1742499999999
 20
69.15
 30
0.0
 11
574.8112499999999
 21
62.75
 31
0.0
  0
LINE
  5
3C6
330
1E
100
AcDbEntity
  8
0
100
AcDbLine
 10
317.51325
 20
80.11000000000001
 30
0.0
 11
320.8732499999999
 21
71.70999999999999
 31
0.0
  0
LINE
  5
3C7
330
1E
100
AcDbEntity
  8
0
100
AcDbLine
 10
342.06925
 20
69.406
 30
0.0
 11
344.56525
 21
75.646
 31
0.0
  0
LINE
  5
3C8
330
1E
100
AcDbEntity
  8
0
100
AcDbLine
 10
414.1332499999999
 20
69.406
 30
0.0
 11
414.1332499999999
 21
75.646
 31
0.0
  0
LINE
  5
3C9
330
1E
100
AcDbEntity
  8
0
100
AcDbLine
 10
414.1332499999999
 20
69.406
 30
0.0
 11
414.1332499999999
 21
62.75
 31
0.0
  0
LINE
  5
3CA
330
1E
100
AcDbEntity
  8
0
100
AcDbLine
 10
412.1332499999999
 20
69.406
 30
0.0
 11
412.1332499999999
 21
75.646
 31
0.0
  0
LINE
  5
3CB
330
1E
100
AcDbEntity
  8
0
100
AcDbLine
 10
412.1332499999999
 20
69.406
 30
0.0
 11
412.1332499999999
 21
62.75
 31
0.0
  0
LINE
  5
3CC
330
1E
100
AcDbEntity
  8
0
100
AcDbLine
 10
539.5012499999999
 20
69.406
 30
0.0
 11
540.16225
 21
62.75
 31
0.0
  0
LINE
  5
3CD
330
1E
100
AcDbEntity
  8
0
100
AcDbLine
 10
323.7652499999999
 20
72.47800000000001
 30
0.0
 11
325.1332499999999
 21
62.75
 31
0.0
  0
LINE
  5
3CE
330
1E
100
AcDbEntity
  8
0
100
AcDbLine
 10
349.77325
 20
72.67
 30
0.0
 11
352.97325
 21
76.90999999999999
 31
0.0
  0
LINE
  5
3CF
330
1E
100
AcDbEntity
  8
0
100
AcDbLine
 10
428.1332499999999
 20
74.634
 30
0.0
 11
428.1332499999999
 21
73.134
 31
0.0
  0
LINE
  5
3D0
330
1E
100
AcDbEntity
  8
0
100
AcDbLine
 10
428.1332499999999
 20
74.634
 30
0.0
 11
428.1332499999999
 21
76.366
 31
0.0
  0
LINE
  5
3D1
330
1E
100
AcDbEntity
  8
0
100
AcDbLine
 10
344.56525
 20
75.646
 30
0.0
 11
348.72525
 21
81.158
 31
0.0
  0
LINE
  5
3D2
330
1E
100
AcDbEntity
  8
0
100
AcDbLine
 10
414.1332499999999
 20
74.634
 30
0.0
 11
428.1332499999999
 21
74.634
 31
0.0
  0
LINE
  5
3D3
330
1E
100
AcDbEntity
  8
0
100
AcDbLine
 10
428.1332499999999
 20
73.134
 30
0.0
 11
428.1332499999999
 21
68.63800000000001
 31
0.0
  0
LINE
  5
3D4
330
1E
100
AcDbEntity
  8
0
100
AcDbLine
 10
428.1332499999999
 20
73.134
 30
0.0
 11
428.1332499999999
 21
74.634
 31
0.0
  0
LINE
  5
3D5
330
1E
100
AcDbEntity
  8
0
100
AcDbLine
 10
352.97325
 20
76.90999999999999
 30
0.0
 11
357.21325
 21
80.11000000000001
 31
0.0
  0
LINE
  5
3D6
330
1E
100
AcDbEntity
  8
0
100
AcDbLine
 10
357.21325
 20
80.11000000000001
 30
0.0
 11
362.01325
 21
82.03000000000001
 31
0.0
  0
LINE
  5
3D7
330
1E
100
AcDbEntity
  8
0
100
AcDbLine
 10
414.1332499999999
 20
76.366
 30
0.0
 11
428.1332499999999
 21
76.366
 31
0.0
  0
LINE
  5
3D8
330
1E
100
AcDbEntity
  8
0
100
AcDbLine
 10
428.1332499999999
 20
76.366
 30
0.0
 11
428.1332499999999
 21
79.03399999999999
 31
0.0
  0
LINE
  5
3D9
330
1E
100
AcDbEntity
  8
0
100
AcDbLine
 10
428.1332499999999
 20
76.366
 30
0.0
 11
428.1332499999999
 21
74.634
 31
0.0
  0
LINE
  5
3DA
330
1E
100
AcDbEntity
  8
0
100
AcDbLine
 10
428.1332499999999
 20
79.03399999999999
 30
0.0
 11
428.1332499999999
 21
82.71399999999999
 31
0.0
  0
LINE
  5
3DB
330
1E
100
AcDbEntity
  8
0
100
AcDbLine
 10
428.1332499999999
 20
79.03399999999999
 30
0.0
 11
428.1332499999999
 21
76.366
 31
0.0
  0
LINE
  5
3DC
330
1E
100
AcDbEntity
  8
0
100
AcDbLine
 10
414.1332499999999
 20
75.646
 30
0.0
 11
414.1332499999999
 21
81.158
 31
0.0
  0
LINE
  5
3DD
330
1E
100
AcDbEntity
  8
0
100
AcDbLine
 10
414.1332499999999
 20
75.646
 30
0.0
 11
414.1332499999999
 21
69.406
 31
0.0
  0
LINE
  5
3DE
330
1E
100
AcDbEntity
  8
0
100
AcDbLine
 10
412.1332499999999
 20
75.646
 30
0.0
 11
412.1332499999999
 21
81.158
 31
0.0
  0
LINE
  5
3DF
330
1E
100
AcDbEntity
  8
0
100
AcDbLine
 10
412.1332499999999
 20
75.646
 30
0.0
 11
412.1332499999999
 21
69.406
 31
0.0
  0
LINE
  5
3E0
330
1E
100
AcDbEntity
  8
0
100
AcDbLine
 10
537.73625
 20
75.646
 30
0.0
 11
539.5012499999999
 21
69.406
 31
0.0
  0
LINE
  5
3E1
330
1E
100
AcDbEntity
  8
0
100
AcDbLine
 10
569.64925
 20
80.44999999999999
 30
0.0
 11
572.47725
 21
75.15
 31
0.0
  0
LINE
  5
3E2
330
1E
100
AcDbEntity
  8
0
100
AcDbLine
 10
572.47725
 20
75.15
 30
0.0
 11
574.1742499999999
 21
69.15
 31
0.0
  0
LINE
  5
3E3
330
1E
100
AcDbEntity
  8
0
100
AcDbLine
 10
538.44325
 20
75.646
 30
0.0
 11
540.20825
 21
69.406
 31
0.0
  0
LINE
  5
3E4
330
1E
100
AcDbEntity
  8
0
100
AcDbLine
 10
540.20825
 20
69.406
 30
0.0
 11
540.87025
 21
62.75
 31
0.0
  0
LINE
  5
3E5
330
1E
100
AcDbEntity
  8
0
100
AcDbLine
 10
320.8732499999999
 20
71.70999999999999
 30
0.0
 11
322.1332499999999
 21
62.75
 31
0.0
  0
LINE
  5
3E6
330
1E
100
AcDbEntity
  8
0
100
AcDbLine
 10
311.2332499999999
 20
69.15
 30
0.0
 11
312.1332499999999
 21
62.75
 31
0.0
  0
LINE
  5
3E7
330
1E
100
AcDbEntity
  8
0
100
AcDbLine
 10
308.83325
 20
75.15
 30
0.0
 11
311.2332499999999
 21
69.15
 31
0.0
  0
LINE
  5
3E8
330
1E
100
AcDbEntity
  8
0
100
AcDbLine
 10
348.72525
 20
81.158
 30
0.0
 11
354.23725
 21
85.318
 31
0.0
  0
LINE
  5
3E9
330
1E
100
AcDbEntity
  8
0
100
AcDbLine
 10
320.11725
 20
81.598
 30
0.0
 11
323.7652499999999
 21
72.47800000000001
 31
0.0
  0
LINE
  5
3EA
330
1E
100
AcDbEntity
  8
0
100
AcDbLine
 10
320.11725
 20
81.598
 30
0.0
 11
323.7652499999999
 21
72.47800000000001
 31
0.0
  0
LINE
  5
3EB
330
1E
100
AcDbEntity
  8
0
100
AcDbLine
 10
376.21325
 20
82.75
 30
0.0
 11
382.6332499999999
 21
82.75
 31
0.0
  0
LINE
  5
3EC
330
1E
100
AcDbEntity
  8
0
100
AcDbLine
 10
371.2862499999999
 20
82.75
 30
0.0
 11
376.21325
 21
82.75
 31
0.0
  0
LINE
  5
3ED
330
1E
100
AcDbEntity
  8
0
100
AcDbLine
 10
368.18925
 20
82.75
 30
0.0
 11
371.2862499999999
 21
82.75
 31
0.0
  0
LINE
  5
3EE
330
1E
100
AcDbEntity
  8
0
100
AcDbLine
 10
367.1332499999999
 20
82.75
 30
0.0
 11
368.18925
 21
82.75
 31
0.0
  0
LINE
  5
3EF
330
1E
100
AcDbEntity
  8
0
100
AcDbLine
 10
362.01325
 20
82.03000000000001
 30
0.0
 11
367.1332499999999
 21
82.75
 31
0.0
  0
LINE
  5
3F0
330
1E
100
AcDbEntity
  8
0
100
AcDbLine
 10
354.23725
 20
85.318
 30
0.0
 11
360.47725
 21
87.81399999999999
 31
0.0
  0
LINE
  5
3F1
330
1E
100
AcDbEntity
  8
0
100
AcDbLine
 10
398.1332499999999
 20
82.75
 30
0.0
 11
412.1332499999999
 21
82.75
 31
0.0
  0
LINE
  5
3F2
330
1E
100
AcDbEntity
  8
0
100
AcDbLine
 10
390.11025
 20
82.75
 30
0.0
 11
398.1332499999999
 21
82.75
 31
0.0
  0
LINE
  5
3F3
330
1E
100
AcDbEntity
  8
0
100
AcDbLine
 10
382.6332499999999
 20
82.75
 30
0.0
 11
390.11025
 21
82.75
 31
0.0
  0
LINE
  5
3F4
330
1E
100
AcDbEntity
  8
0
100
AcDbLine
 10
380.0292499999999
 20
85.318
 30
0.0
 11
383.43185
 21
82.75
 31
0.0
  0
LINE
  5
3F5
330
1E
100
AcDbEntity
  8
0
100
AcDbLine
 10
412.1332499999999
 20
81.158
 30
0.0
 11
412.1332499999999
 21
85.318
 31
0.0
  0
LINE
  5
3F6
330
1E
100
AcDbEntity
  8
0
100
AcDbLine
 10
412.1332499999999
 20
81.158
 30
0.0
 11
412.1332499999999
 21
75.646
 31
0.0
  0
LINE
  5
3F7
330
1E
100
AcDbEntity
  8
0
100
AcDbLine
 10
428.1332499999999
 20
82.75
 30
0.0
 11
450.13325
 21
82.75
 31
0.0
  0
LINE
  5
3F8
330
1E
100
AcDbEntity
  8
0
100
AcDbLine
 10
428.1332499999999
 20
82.71399999999999
 30
0.0
 11
428.1332499999999
 21
84.92200000000002
 31
0.0
  0
LINE
  5
3F9
330
1E
100
AcDbEntity
  8
0
100
AcDbLine
 10
428.1332499999999
 20
82.71399999999999
 30
0.0
 11
428.1332499999999
 21
79.03399999999999
 31
0.0
  0
LINE
  5
3FA
330
1E
100
AcDbEntity
  8
0
100
AcDbLine
 10
450.13325
 20
82.75
 30
0.0
 11
458.15625
 21
82.75
 31
0.0
  0
LINE
  5
3FB
330
1E
100
AcDbEntity
  8
0
100
AcDbLine
 10
465.6332499999999
 20
82.75
 30
0.0
 11
472.05325
 21
82.75
 31
0.0
  0
LINE
  5
3FC
330
1E
100
AcDbEntity
  8
0
100
AcDbLine
 10
458.15625
 20
82.75
 30
0.0
 11
465.6332499999999
 21
82.75
 31
0.0
  0
LINE
  5
3FD
330
1E
100
AcDbEntity
  8
0
100
AcDbLine
 10
472.05325
 20
82.75
 30
0.0
 11
518.21325
 21
82.75
 31
0.0
  0
LINE
  5
3FE
330
1E
100
AcDbEntity
  8
0
100
AcDbLine
 10
428.1332499999999
 20
84.92200000000002
 30
0.0
 11
428.1332499999999
 21
85.75000000000001
 31
0.0
  0
LINE
  5
3FF
330
1E
100
AcDbEntity
  8
0
100
AcDbLine
 10
428.1332499999999
 20
84.92200000000002
 30
0.0
 11
428.1332499999999
 21
82.71399999999999
 31
0.0
  0
LINE
  5
400
330
1E
100
AcDbEntity
  8
0
100
AcDbLine
 10
414.1332499999999
 20
81.158
 30
0.0
 11
414.1332499999999
 21
85.318
 31
0.0
  0
LINE
  5
401
330
1E
100
AcDbEntity
  8
0
100
AcDbLine
 10
414.1332499999999
 20
81.158
 30
0.0
 11
414.1332499999999
 21
75.646
 31
0.0
  0
LINE
  5
402
330
1E
100
AcDbEntity
  8
0
100
AcDbLine
 10
412.1332499999999
 20
82.75
 30
0.0
 11
412.1332499999999
 21
85.318
 31
0.0
  0
LINE
  5
403
330
1E
100
AcDbEntity
  8
0
100
AcDbLine
 10
412.1332499999999
 20
85.318
 30
0.0
 11
412.1332499999999
 21
82.75
 31
0.0
  0
LINE
  5
404
330
1E
100
AcDbEntity
  8
0
100
AcDbLine
 10
412.1332499999999
 20
85.318
 30
0.0
 11
412.1332499999999
 21
87.81399999999999
 31
0.0
  0
LINE
  5
405
330
1E
100
AcDbEntity
  8
0
100
AcDbLine
 10
518.21325
 20
82.75
 30
0.0
 11
521.7492499999999
 21
82.75
 31
0.0
  0
LINE
  5
406
330
1E
100
AcDbEntity
  8
0
100
AcDbLine
 10
512.65925
 20
85.318
 30
0.0
 11
517.0712499999999
 21
87.81399999999999
 31
0.0
  0
LINE
  5
407
330
1E
100
AcDbEntity
  8
0
100
AcDbLine
 10
510.2529846153849
 20
82.75
 30
0.0
 11
512.65925
 21
85.318
 31
0.0
  0
LINE
  5
408
330
1E
100
AcDbEntity
  8
0
100
AcDbLine
 10
530.89725
 20
85.318
 30
0.0
 11
534.79425
 21
81.158
 31
0.0
  0
LINE
  5
409
330
1E
100
AcDbEntity
  8
0
100
AcDbLine
 10
534.79425
 20
81.158
 30
0.0
 11
537.73625
 21
75.646
 31
0.0
  0
LINE
  5
40A
330
1E
100
AcDbEntity
  8
0
100
AcDbLine
 10
428.1332499999999
 20
85.75000000000001
 30
0.0
 11
428.1332499999999
 21
84.92200000000002
 31
0.0
  0
LINE
  5
40B
330
1E
100
AcDbEntity
  8
0
100
AcDbLine
 10
428.1332499999999
 20
85.75000000000001
 30
0.0
 11
428.1332499999999
 21
88.25000000000001
 31
0.0
  0
LINE
  5
40C
330
1E
100
AcDbEntity
  8
0
100
AcDbLine
 10
414.1332499999999
 20
85.318
 30
0.0
 11
414.1332499999999
 21
87.81399999999999
 31
0.0
  0
LINE
  5
40D
330
1E
100
AcDbEntity
  8
0
100
AcDbLine
 10
414.1332499999999
 20
85.318
 30
0.0
 11
414.1332499999999
 21
81.158
 31
0.0
  0
LINE
  5
40E
330
1E
100
AcDbEntity
  8
0
100
AcDbLine
 10
412.1332499999999
 20
85.318
 30
0.0
 11
412.1332499999999
 21
87.81399999999999
 31
0.0
  0
LINE
  5
40F
330
1E
100
AcDbEntity
  8
0
100
AcDbLine
 10
412.1332499999999
 20
85.318
 30
0.0
 11
412.1332499999999
 21
81.158
 31
0.0
  0
LINE
  5
410
330
1E
100
AcDbEntity
  8
0
100
AcDbLine
 10
531.60425
 20
85.318
 30
0.0
 11
535.5012499999999
 21
81.158
 31
0.0
  0
LINE
  5
411
330
1E
100
AcDbEntity
  8
0
100
AcDbLine
 10
561.65925
 20
86.85
 30
0.0
 11
565.90125
 21
84.45
 31
0.0
  0
LINE
  5
412
330
1E
100
AcDbEntity
  8
0
100
AcDbLine
 10
565.90125
 20
84.45
 30
0.0
 11
569.64925
 21
80.44999999999999
 31
0.0
  0
LINE
  5
413
330
1E
100
AcDbEntity
  8
0
100
AcDbLine
 10
535.5012499999999
 20
81.158
 30
0.0
 11
538.44325
 21
75.646
 31
0.0
  0
LINE
  5
414
330
1E
100
AcDbEntity
  8
0
100
AcDbLine
 10
304.83325
 20
80.44999999999999
 30
0.0
 11
308.83325
 21
75.15
 31
0.0
  0
LINE
  5
415
330
1E
100
AcDbEntity
  8
0
100
AcDbLine
 10
299.5332499999999
 20
84.45
 30
0.0
 11
304.83325
 21
80.44999999999999
 31
0.0
  0
LINE
  5
416
330
1E
100
AcDbEntity
  8
0
100
AcDbLine
 10
293.53325
 20
86.85
 30
0.0
 11
299.5332499999999
 21
84.45
 31
0.0
  0
LINE
  5
417
330
1E
100
AcDbEntity
  8
0
100
AcDbLine
 10
296.8612499999999
 20
99.38200000000001
 30
0.0
 11
305.98125
 21
95.73399999999999
 31
0.0
  0
LINE
  5
418
330
1E
100
AcDbEntity
  8
0
100
AcDbLine
 10
305.98125
 20
95.73399999999999
 30
0.0
 11
314.0372499999999
 21
89.654
 31
0.0
  0
LINE
  5
419
330
1E
100
AcDbEntity
  8
0
100
AcDbLine
 10
296.09325
 20
96.49
 30
0.0
 11
304.4932499999999
 21
93.13
 31
0.0
  0
LINE
  5
41A
330
1E
100
AcDbEntity
  8
0
100
AcDbLine
 10
304.4932499999999
 20
93.13
 30
0.0
 11
311.91325
 21
87.53
 31
0.0
  0
LINE
  5
41B
330
1E
100
AcDbEntity
  8
0
100
AcDbLine
 10
360.47725
 20
87.81399999999999
 30
0.0
 11
367.1332499999999
 21
88.75
 31
0.0
  0
LINE
  5
41C
330
1E
100
AcDbEntity
  8
0
100
AcDbLine
 10
373.78925
 20
87.81399999999999
 30
0.0
 11
380.0292499999999
 21
85.318
 31
0.0
  0
LINE
  5
41D
330
1E
100
AcDbEntity
  8
0
100
AcDbLine
 10
517.0712499999999
 20
87.81399999999999
 30
0.0
 11
521.7782499999999
 21
88.75
 31
0.0
  0
LINE
  5
41E
330
1E
100
AcDbEntity
  8
0
100
AcDbLine
 10
557.1332499999999
 20
87.75
 30
0.0
 11
561.65925
 21
86.85
 31
0.0
  0
LINE
  5
41F
330
1E
100
AcDbEntity
  8
0
100
AcDbLine
 10
527.3044038461541
 20
87.75
 30
0.0
 11
557.1332499999999
 21
87.75
 31
0.0
  0
LINE
  5
420
330
1E
100
AcDbEntity
  8
0
100
AcDbLine
 10
526.4842499999999
 20
87.81399999999999
 30
0.0
 11
530.89725
 21
85.318
 31
0.0
  0
LINE
  5
421
330
1E
100
AcDbEntity
  8
0
100
AcDbLine
 10
367.1332499999999
 20
88.75
 30
0.0
 11
373.78925
 21
87.81399999999999
 31
0.0
  0
LINE
  5
422
330
1E
100
AcDbEntity
  8
0
100
AcDbLine
 10
428.1332499999999
 20
88.25000000000001
 30
0.0
 11
428.1332499999999
 21
85.75000000000001
 31
0.0
  0
LINE
  5
423
330
1E
100
AcDbEntity
  8
0
100
AcDbLine
 10
414.1332499999999
 20
88.25000000000001
 30
0.0
 11
428.1332499999999
 21
88.25000000000001
 31
0.0
  0
LINE
  5
424
330
1E
100
AcDbEntity
  8
0
100
AcDbLine
 10
414.1332499999999
 20
87.81399999999999
 30
0.0
 11
414.1332499999999
 21
88.75
 31
0.0
  0
LINE
  5
425
330
1E
100
AcDbEntity
  8
0
100
AcDbLine
 10
414.1332499999999
 20
87.81399999999999
 30
0.0
 11
414.1332499999999
 21
85.318
 31
0.0
  0
LINE
  5
426
330
1E
100
AcDbEntity
  8
0
100
AcDbLine
 10
412.1332499999999
 20
87.81399999999999
 30
0.0
 11
412.1332499999999
 21
85.318
 31
0.0
  0
LINE
  5
427
330
1E
100
AcDbEntity
  8
0
100
AcDbLine
 10
412.1332499999999
 20
87.81399999999999
 30
0.0
 11
412.1332499999999
 21
88.75
 31
0.0
  0
LINE
  5
428
330
1E
100
AcDbEntity
  8
0
100
AcDbLine
 10
412.1332499999999
 20
87.81399999999999
 30
0.0
 11
412.1332499999999
 21
85.318
 31
0.0
  0
LINE
  5
429
330
1E
100
AcDbEntity
  8
0
100
AcDbLine
 10
314.453853773585
 20
89.10200000000001
 30
0.0
 11
360.1332499999999
 21
89.10200000000001
 31
0.0
  0
LINE
  5
42A
330
1E
100
AcDbEntity
  8
0
100
AcDbLine
 10
314.0372499999999
 20
89.654
 30
0.0
 11
320.11725
 21
81.598
 31
0.0
  0
LINE
  5
42B
330
1E
100
AcDbEntity
  8
0
100
AcDbLine
 10
313.91005
 20
89.74999999999999
 30
0.0
 11
360.1332499999999
 21
89.74999999999999
 31
0.0
  0
LINE
  5
42C
330
1E
100
AcDbEntity
  8
0
100
AcDbLine
 10
360.1332499999999
 20
89.10200000000001
 30
0.0
 11
364.847391732283
 21
88.42855118110229
 31
0.0
  0
LINE
  5
42D
330
1E
100
AcDbEntity
  8
0
100
AcDbLine
 10
367.04525
 20
88.77799999999998
 30
0.0
 11
367.1199320809249
 21
88.74812716763001
 31
0.0
  0
LINE
  5
42E
330
1E
100
AcDbEntity
  8
0
100
AcDbLine
 10
367.04525
 20
88.77799999999991
 30
0.0
 11
367.1199320809249
 21
88.74812716763001
 31
0.0
  0
LINE
  5
42F
330
1E
100
AcDbEntity
  8
0
100
AcDbLine
 10
414.1332499999999
 20
88.75
 30
0.0
 11
414.1332499999999
 21
87.81399999999999
 31
0.0
  0
LINE
  5
430
330
1E
100
AcDbEntity
  8
0
100
AcDbLine
 10
412.1332499999999
 20
88.75
 30
0.0
 11
412.1332499999999
 21
87.81399999999999
 31
0.0
  0
LINE
  5
431
330
1E
100
AcDbEntity
  8
0
100
AcDbLine
 10
412.1332499999999
 20
88.75
 30
0.0
 11
414.1332499999999
 21
88.75
 31
0.0
  0
LINE
  5
432
330
1E
100
AcDbEntity
  8
0
100
AcDbLine
 10
521.7782499999999
 20
88.75
 30
0.0
 11
526.4842499999999
 21
87.81399999999999
 31
0.0
  0
LINE
  5
433
330
1E
100
AcDbEntity
  8
0
100
AcDbLine
 10
521.7782499999999
 20
88.75
 30
0.0
 11
522.4852499999999
 21
88.75
 31
0.0
  0
LINE
  5
434
330
1E
100
AcDbEntity
  8
0
100
AcDbLine
 10
522.4852499999999
 20
88.75
 30
0.0
 11
527.19125
 21
87.81399999999999
 31
0.0
  0
LINE
  5
435
330
1E
100
AcDbEntity
  8
0
100
AcDbLine
 10
527.19125
 20
87.81399999999999
 30
0.0
 11
531.60425
 21
85.318
 31
0.0
  0
LINE
  5
436
330
1E
100
AcDbEntity
  8
0
100
AcDbLine
 10
311.91325
 20
87.53
 30
0.0
 11
317.51325
 21
80.11000000000001
 31
0.0
  0
LINE
  5
437
330
1E
100
AcDbEntity
  8
0
100
AcDbLine
 10
293.53325
 20
86.85
 30
0.0
 11
299.5332499999999
 21
84.45
 31
0.0
  0
LINE
  5
438
330
1E
100
AcDbEntity
  8
0
100
AcDbLine
 10
287.1332499999999
 20
87.75
 30
0.0
 11
293.53325
 21
86.85
 31
0.0
  0
LINE
  5
439
330
1E
100
AcDbEntity
  8
0
100
AcDbLine
 10
287.1332499999999
 20
87.75
 30
0.0
 11
293.53325
 21
86.85
 31
0.0
  0
LINE
  5
43A
330
1E
100
AcDbEntity
  8
0
100
AcDbLine
 10
263.03325
 20
56.35
 30
0.0
 11
265.4332499999999
 21
50.35
 31
0.0
  0
LINE
  5
43B
330
1E
100
AcDbEntity
  8
0
100
AcDbLine
 10
262.1332499999999
 20
62.75
 30
0.0
 11
263.03325
 21
56.35
 31
0.0
  0
LINE
  5
43C
330
1E
100
AcDbEntity
  8
0
100
AcDbLine
 10
262.1332499999999
 20
62.75
 30
0.0
 11
263.03325
 21
69.15
 31
0.0
  0
LINE
  5
43D
330
1E
100
AcDbEntity
  8
0
100
AcDbLine
 10
253.39325
 20
53.79
 30
0.0
 11
256.7532499999999
 21
45.39
 31
0.0
  0
LINE
  5
43E
330
1E
100
AcDbEntity
  8
0
100
AcDbLine
 10
252.13325
 20
62.75
 30
0.0
 11
253.39325
 21
53.79
 31
0.0
  0
LINE
  5
43F
330
1E
100
AcDbEntity
  8
0
100
AcDbLine
 10
252.13325
 20
62.75
 30
0.0
 11
253.39325
 21
71.70999999999999
 31
0.0
  0
LINE
  5
444
330
1E
100
AcDbEntity
  8
0
100
AcDbLine
 10
360.1332499999999
 20
89.74999999999999
 30
0.0
 11
367.04525
 21
88.77799999999998
 31
0.0
  0
LINE
  5
445
330
1E
100
AcDbEntity
  8
0
100
AcDbLine
 10
34.00115999999989
 20
23.0791213389121
 30
0.0
 11
24.97134908212319
 21
25.08330111063253
 31
0.0
  0
LINE
  5
446
330
1E
100
AcDbEntity
  8
0
100
AcDbLine
 10
24.97134908212319
 20
25.08330111063253
 30
0.0
 11
19.13482961985482
 21
28.94037474170875
 31
0.0
  0
LINE
  5
447
330
1E
100
AcDbEntity
  8
0
100
AcDbLine
 10
19.13482961985482
 20
28.94037474170875
 30
0.0
 11
16.57174999999989
 21
32.8971
 31
0.0
  0
LINE
  5
448
330
1E
100
AcDbEntity
  8
0
100
AcDbLine
 10
52.5298926076283
 20
76.66800000000001
 30
0.0
 11
53.5936812185189
 21
62.66877074801425
 31
0.0
  0
LINE
  5
449
330
1E
100
AcDbEntity
  8
0
100
AcDbLine
 10
53.5936812185189
 20
62.66877074801425
 30
0.0
 11
52.51810832654641
 21
48.668
 31
0.0
  0
ENDSEC
  0
SECTION
  2
OBJECTS
  0
DICTIONARY
  5
C
330
0
100
AcDbDictionary
281
     1
  3
ACAD_GROUP
350
D
  3
ACAD_LAYOUT
350
19
  3
ACAD_MLINESTYLE
350
16
  3
ACAD_PLOTSETTINGS
350
18
  3
ACAD_PLOTSTYLENAME
350
E
  3
AcDbVariableDictionary
350
44A
  0
DICTIONARY
  5
D
102
{ACAD_REACTORS
330
C
102
}
330
C
100
AcDbDictionary
281
     1
  0
DICTIONARY
  5
19
102
{ACAD_REACTORS
330
C
102
}
330
C
100
AcDbDictionary
281
     1
  3
Layout1
350
1D
  3
Model
350
21
  0
DICTIONARY
  5
16
102
{ACAD_REACTORS
330
C
102
}
330
C
100
AcDbDictionary
281
     1
  3
Standard
350
17
  0
DICTIONARY
  5
18
102
{ACAD_REACTORS
330
C
102
}
330
C
100
AcDbDictionary
281
     1
  0
ACDBDICTIONARYWDFLT
  5
E
102
{ACAD_REACTORS
330
C
102
}
330
C
100
AcDbDictionary
281
     1
  3
Normal
350
F
100
AcDbDictionaryWithDefault
340
F
  0
DICTIONARY
  5
44A
102
{ACAD_REACTORS
330
C
102
}
330
C
100
AcDbDictionary
281
     1
  3
DIMASSOC
350
44B
  0
LAYOUT
  5
1D
102
{ACAD_REACTORS
330
19
102
}
330
19
100
AcDbPlotSettings
  1

  2
hp deskjet 980c series
  4

  6

 40
0.0
 41
0.0
 42
0.0
 43
0.0
 44
0.0
 45
0.0
 46
0.0
 47
0.0
 48
0.0
 49
0.0
140
0.0
141
0.0
142
1.0
143
1.0
 70
   688
 72
     0
 73
     0
 74
     5
  7

 75
    16
147
1.0
148
0.0
149
0.0
100
AcDbLayout
  1
Layout1
 70
     1
 71
     1
 10
0.0
 20
0.0
 11
12.0
 21
9.0
 12
0.0
 22
0.0
 32
0.0
 14
1.000000000000000E+20
 24
1.000000000000000E+20
 34
1.000000000000000E+20
 15
-1.000000000000000E+20
 25
-1.000000000000000E+20
 35
-1.000000000000000E+20
146
0.0
 13
0.0
 23
0.0
 33
0.0
 16
1.0
 26
0.0
 36
0.0
 17
0.0
 27
1.0
 37
0.0
 76
     0
330
1A
  0
LAYOUT
  5
21
102
{ACAD_REACTORS
330
19
102
}
330
19
100
AcDbPlotSettings
  1

  2
hp deskjet 980c series
  4

  6

 40
0.0
 41
0.0
 42
0.0
 43
0.0
 44
0.0
 45
0.0
 46
0.0
 47
0.0
 48
0.0
 49
0.0
140
0.0
141
0.0
142
1.0
143
1.0
 70
  1712
 72
     0
 73
     0
 74
     0
  7

 75
     0
147
1.0
148
0.0
149
0.0
100
AcDbLayout
  1
Model
 70
     1
 71
     0
 10
0.0
 20
0.0
 11
12.0
 21
9.0
 12
0.0
 22
0.0
 32
0.0
 14
0.0
 24
0.0
 34
0.0
 15
0.0
 25
0.0
 35
0.0
146
0.0
 13
0.0
 23
0.0
 33
0.0
 16
1.0
 26
0.0
 36
0.0
 17
0.0
 27
1.0
 37
0.0
 76
     0
330
1E
  0
MLINESTYLE
  5
17
102
{ACAD_REACTORS
330
16
102
}
330
16
100
AcDbMlineStyle
  2
STANDARD
 70
     0
  3

 62
   256
 51
90.0
 52
90.0
 71
     2
 49
0.5
 62
   256
  6
BYLAYER
 49
-0.5
 62
   256
  6
BYLAYER
  0
ACDBPLACEHOLDER
  5
F
102
{ACAD_REACTORS
330
E
102
}
330
E
  0
DICTIONARYVAR
  5
44B
102
{ACAD_REACTORS
330
44A
102
}
330
44A
100
DictionaryVariables
280
     0
  1
1
  0
ENDSEC
  0
EOF
