  0
SECTION
  2
HEADER
  9
$ACADVER
  1
AC1015
  9
$ACADMAINTVER
 70
    13
  9
$DWGCODEPAGE
  3
ANSI_1252
  9
$INSBASE
 10
0.0
 20
0.0
 30
0.0
  9
$EXTMIN
 10
-0.164080000000028
 20
-0.0000000000000059
 30
0.0
  9
$EXTMAX
 10
594.16408
 20
100.0
 30
0.0
  9
$LIMMIN
 10
0.0
 20
0.0
  9
$LIMMAX
 10
12.0
 20
9.0
  9
$ORTHOMODE
 70
     0
  9
$REGENMODE
 70
     1
  9
$FILLMODE
 70
     1
  9
$QTEXTMODE
 70
     0
  9
$MIRRTEXT
 70
     1
  9
$LTSCALE
 40
1.0
  9
$ATTMODE
 70
     1
  9
$TEXTSIZE
 40
0.2
  9
$TRACEWID
 40
0.05
  9
$TEXTSTYLE
  7
Standard
  9
$CLAYER
  8
0
  9
$CELTYPE
  6
Continuous
  9
$CECOLOR
 62
   256
  9
$CELTSCALE
 40
1.0
  9
$DISPSILH
 70
     0
  9
$DIMSCALE
 40
1.0
  9
$DIMASZ
 40
0.18
  9
$DIMEXO
 40
0.0625
  9
$DIMDLI
 40
0.38
  9
$DIMRND
 40
0.0
  9
$DIMDLE
 40
0.0
  9
$DIMEXE
 40
0.18
  9
$DIMTP
 40
0.0
  9
$DIMTM
 40
0.0
  9
$DIMTXT
 40
0.18
  9
$DIMCEN
 40
0.09
  9
$DIMTSZ
 40
0.0
  9
$DIMTOL
 70
     0
  9
$DIMLIM
 70
     0
  9
$DIMTIH
 70
     1
  9
$DIMTOH
 70
     1
  9
$DIMSE1
 70
     0
  9
$DIMSE2
 70
     0
  9
$DIMTAD
 70
     0
  9
$DIMZIN
 70
     0
  9
$DIMBLK
  1

  9
$DIMASO
 70
     1
  9
$DIMSHO
 70
     1
  9
$DIMPOST
  1

  9
$DIMAPOST
  1

  9
$DIMALT
 70
     0
  9
$DIMALTD
 70
     2
  9
$DIMALTF
 40
25.4
  9
$DIMLFAC
 40
1.0
  9
$DIMTOFL
 70
     0
  9
$DIMTVP
 40
0.0
  9
$DIMTIX
 70
     0
  9
$DIMSOXD
 70
     0
  9
$DIMSAH
 70
     0
  9
$DIMBLK1
  1

  9
$DIMBLK2
  1

  9
$DIMSTYLE
  2
Standard
  9
$DIMCLRD
 70
     0
  9
$DIMCLRE
 70
     0
  9
$DIMCLRT
 70
     0
  9
$DIMTFAC
 40
1.0
  9
$DIMGAP
 40
0.09
  9
$DIMJUST
 70
     0
  9
$DIMSD1
 70
     0
  9
$DIMSD2
 70
     0
  9
$DIMTOLJ
 70
     1
  9
$DIMTZIN
 70
     0
  9
$DIMALTZ
 70
     0
  9
$DIMALTTZ
 70
     0
  9
$DIMUPT
 70
     0
  9
$DIMDEC
 70
     4
  9
$DIMTDEC
 70
     4
  9
$DIMALTU
 70
     2
  9
$DIMALTTD
 70
     2
  9
$DIMTXSTY
  7
Standard
  9
$DIMAUNIT
 70
     0
  9
$DIMADEC
 70
     0
  9
$DIMALTRND
 40
0.0
  9
$DIMAZIN
 70
     0
  9
$DIMDSEP
 70
    46
  9
$DIMATFIT
 70
     3
  9
$DIMFRAC
 70
     0
  9
$DIMLDRBLK
  1

  9
$DIMLUNIT
 70
     2
  9
$DIMLWD
 70
    -2
  9
$DIMLWE
 70
    -2
  9
$DIMTMOVE
 70
     0
  9
$LUNITS
 70
     2
  9
$LUPREC
 70
     4
  9
$SKETCHINC
 40
0.1
  9
$FILLETRAD
 40
0.0
  9
$AUNITS
 70
     0
  9
$AUPREC
 70
     0
  9
$MENU
  1
.
  9
$ELEVATION
 40
0.0
  9
$PELEVATION
 40
0.0
  9
$THICKNESS
 40
0.0
  9
$LIMCHECK
 70
     0
  9
$CHAMFERA
 40
0.0
  9
$CHAMFERB
 40
0.0
  9
$CHAMFERC
 40
0.0
  9
$CHAMFERD
 40
0.0
  9
$SKPOLY
 70
     0
  9
$TDCREATE
 40
2454781.437496921
  9
$TDUCREATE
 40
2454781.395830254
  9
$TDUPDATE
 40
2454781.439273182
  9
$TDUUPDATE
 40
2454781.397606516
  9
$TDINDWG
 40
0.0017762616
  9
$TDUSRTIMER
 40
0.0017762616
  9
$USRTIMER
 70
     1
  9
$ANGBASE
 50
0.0
  9
$ANGDIR
 70
     0
  9
$PDMODE
 70
     0
  9
$PDSIZE
 40
0.0
  9
$PLINEWID
 40
0.0
  9
$SPLFRAME
 70
     0
  9
$SPLINETYPE
 70
     6
  9
$SPLINESEGS
 70
     8
  9
$HANDSEED
  5
812
  9
$SURFTAB1
 70
     6
  9
$SURFTAB2
 70
     6
  9
$SURFTYPE
 70
     6
  9
$SURFU
 70
     6
  9
$SURFV
 70
     6
  9
$UCSBASE
  2

  9
$UCSNAME
  2

  9
$UCSORG
 10
0.0
 20
0.0
 30
0.0
  9
$UCSXDIR
 10
1.0
 20
0.0
 30
0.0
  9
$UCSYDIR
 10
0.0
 20
1.0
 30
0.0
  9
$UCSORTHOREF
  2

  9
$UCSORTHOVIEW
 70
     1
  9
$UCSORGTOP
 10
0.0
 20
0.0
 30
0.0
  9
$UCSORGBOTTOM
 10
0.0
 20
0.0
 30
0.0
  9
$UCSORGLEFT
 10
0.0
 20
0.0
 30
0.0
  9
$UCSORGRIGHT
 10
0.0
 20
0.0
 30
0.0
  9
$UCSORGFRONT
 10
0.0
 20
0.0
 30
0.0
  9
$UCSORGBACK
 10
0.0
 20
0.0
 30
0.0
  9
$PUCSBASE
  2

  9
$PUCSNAME
  2

  9
$PUCSORG
 10
0.0
 20
0.0
 30
0.0
  9
$PUCSXDIR
 10
1.0
 20
0.0
 30
0.0
  9
$PUCSYDIR
 10
0.0
 20
1.0
 30
0.0
  9
$PUCSORTHOREF
  2

  9
$PUCSORTHOVIEW
 70
     0
  9
$PUCSORGTOP
 10
0.0
 20
0.0
 30
0.0
  9
$PUCSORGBOTTOM
 10
0.0
 20
0.0
 30
0.0
  9
$PUCSORGLEFT
 10
0.0
 20
0.0
 30
0.0
  9
$PUCSORGRIGHT
 10
0.0
 20
0.0
 30
0.0
  9
$PUCSORGFRONT
 10
0.0
 20
0.0
 30
0.0
  9
$PUCSORGBACK
 10
0.0
 20
0.0
 30
0.0
  9
$USERI1
 70
     0
  9
$USERI2
 70
     0
  9
$USERI3
 70
     0
  9
$USERI4
 70
     0
  9
$USERI5
 70
     0
  9
$USERR1
 40
0.0
  9
$USERR2
 40
0.0
  9
$USERR3
 40
0.0
  9
$USERR4
 40
0.0
  9
$USERR5
 40
0.0
  9
$WORLDVIEW
 70
     1
  9
$SHADEDGE
 70
     3
  9
$SHADEDIF
 70
    70
  9
$TILEMODE
 70
     1
  9
$MAXACTVP
 70
    64
  9
$PINSBASE
 10
0.0
 20
0.0
 30
0.0
  9
$PLIMCHECK
 70
     0
  9
$PEXTMIN
 10
1.000000000000000E+20
 20
1.000000000000000E+20
 30
1.000000000000000E+20
  9
$PEXTMAX
 10
-1.000000000000000E+20
 20
-1.000000000000000E+20
 30
-1.000000000000000E+20
  9
$PLIMMIN
 10
0.0
 20
0.0
  9
$PLIMMAX
 10
12.0
 20
9.0
  9
$UNITMODE
 70
     0
  9
$VISRETAIN
 70
     1
  9
$PLINEGEN
 70
     0
  9
$PSLTSCALE
 70
     1
  9
$TREEDEPTH
 70
  3020
  9
$CMLSTYLE
  2
Standard
  9
$CMLJUST
 70
     0
  9
$CMLSCALE
 40
1.0
  9
$PROXYGRAPHICS
 70
     1
  9
$MEASUREMENT
 70
     0
  9
$CELWEIGHT
370
    -1
  9
$ENDCAPS
280
     0
  9
$JOINSTYLE
280
     0
  9
$LWDISPLAY
290
     0
  9
$INSUNITS
 70
     0
  9
$HYPERLINKBASE
  1

  9
$STYLESHEET
  1

  9
$XEDIT
290
     1
  9
$CEPSNTYPE
380
     0
  9
$PSTYLEMODE
290
     1
  9
$FINGERPRINTGUID
  2
{33234681-713E-4207-A892-3C5B54C7342B}
  9
$VERSIONGUID
  2
{1CEDF354-13B9-4403-AE66-499EEE1C4076}
  9
$EXTNAMES
290
     1
  9
$PSVPSCALE
 40
0.0
  9
$OLESTARTUP
290
     0
  0
ENDSEC
  0
SECTION
  2
CLASSES
  0
CLASS
  1
ACDBDICTIONARYWDFLT
  2
AcDbDictionaryWithDefault
  3
AutoCAD 2000
 90
        0
280
     0
281
     0
  0
CLASS
  1
ACDBPLACEHOLDER
  2
AcDbPlaceHolder
  3
AutoCAD 2000
 90
        0
280
     0
281
     0
  0
CLASS
  1
LAYOUT
  2
AcDbLayout
  3
AutoCAD 2000
 90
        0
280
     0
281
     0
  0
CLASS
  1
DICTIONARYVAR
  2
AcDbDictionaryVar
  3
AutoCAD 2000
 90
        0
280
     0
281
     0
  0
ENDSEC
  0
SECTION
  2
TABLES
  0
TABLE
  2
VPORT
  5
8
330
0
100
AcDbSymbolTable
 70
     3
  0
VPORT
  5
811
330
8
100
AcDbSymbolTableRecord
100
AcDbViewportTableRecord
  2
*Active
 70
     0
 10
0.0
 20
0.0
 11
1.0
 21
1.0
 12
297.0
 22
50.0
 13
0.0
 23
0.0
 14
1.0
 24
1.0
 15
0.0
 25
0.0
 16
0.0
 26
0.0
 36
1.0
 17
0.0
 27
0.0
 37
0.0
 40
287.0518840637511
 41
2.078104993597951
 42
50.0
 43
0.0
 44
0.0
 50
0.0
 51
0.0
 71
     0
 72
   100
 73
     1
 74
     3
 75
     0
 76
     0
 77
     0
 78
     0
281
     0
 65
     1
110
0.0
120
0.0
130
0.0
111
1.0
121
0.0
131
0.0
112
0.0
122
1.0
132
0.0
 79
     1
146
0.0
  0
ENDTAB
  0
TABLE
  2
LTYPE
  5
5
330
0
100
AcDbSymbolTable
 70
     1
  0
LTYPE
  5
13
330
5
100
AcDbSymbolTableRecord
100
AcDbLinetypeTableRecord
  2
ByBlock
 70
     0
  3

 72
    65
 73
     0
 40
0.0
  0
LTYPE
  5
14
330
5
100
AcDbSymbolTableRecord
100
AcDbLinetypeTableRecord
  2
ByLayer
 70
     0
  3

 72
    65
 73
     0
 40
0.0
  0
LTYPE
  5
15
330
5
100
AcDbSymbolTableRecord
100
AcDbLinetypeTableRecord
  2
Continuous
 70
     0
  3
Solid line
 72
    65
 73
     0
 40
0.0
  0
ENDTAB
  0
TABLE
  2
LAYER
  5
2
330
0
100
AcDbSymbolTable
 70
     1
  0
LAYER
  5
10
330
2
100
AcDbSymbolTableRecord
100
AcDbLayerTableRecord
  2
0
 70
     0
 62
     7
  6
Continuous
370
    -3
390
F
  0
ENDTAB
  0
TABLE
  2
STYLE
  5
3
330
0
100
AcDbSymbolTable
 70
     1
  0
STYLE
  5
11
330
3
100
AcDbSymbolTableRecord
100
AcDbTextStyleTableRecord
  2
Standard
 70
     0
 40
0.0
 41
1.0
 50
0.0
 71
     0
 42
0.2
  3
txt
  4

  0
ENDTAB
  0
TABLE
  2
VIEW
  5
6
330
0
100
AcDbSymbolTable
 70
     0
  0
ENDTAB
  0
TABLE
  2
UCS
  5
7
330
0
100
AcDbSymbolTable
 70
     0
  0
ENDTAB
  0
TABLE
  2
APPID
  5
9
330
0
100
AcDbSymbolTable
 70
     1
  0
APPID
  5
12
330
9
100
AcDbSymbolTableRecord
100
AcDbRegAppTableRecord
  2
ACAD
 70
     0
  0
ENDTAB
  0
TABLE
  2
DIMSTYLE
  5
A
330
0
100
AcDbSymbolTable
 70
     1
100
AcDbDimStyleTable
 71
     0
  0
DIMSTYLE
105
383
330
A
100
AcDbSymbolTableRecord
100
AcDbDimStyleTableRecord
  2
Standard
 70
     0
340
11
  0
ENDTAB
  0
TABLE
  2
BLOCK_RECORD
  5
1
330
0
100
AcDbSymbolTable
 70
     1
  0
BLOCK_RECORD
  5
1E
330
1
100
AcDbSymbolTableRecord
100
AcDbBlockTableRecord
  2
*Model_Space
340
21
  0
BLOCK_RECORD
  5
1A
330
1
100
AcDbSymbolTableRecord
100
AcDbBlockTableRecord
  2
*Paper_Space
340
1D
  0
ENDTAB
  0
ENDSEC
  0
SECTION
  2
BLOCKS
  0
BLOCK
  5
1F
330
1E
100
AcDbEntity
  8
0
100
AcDbBlockBegin
  2
*Model_Space
 70
     0
 10
0.0
 20
0.0
 30
0.0
  3
*Model_Space
  1

  0
ENDBLK
  5
20
330
1E
100
AcDbEntity
  8
0
100
AcDbBlockEnd
  0
BLOCK
  5
1B
330
1A
100
AcDbEntity
 67
     1
  8
0
100
AcDbBlockBegin
  2
*Paper_Space
 70
     0
 10
0.0
 20
0.0
 30
0.0
  3
*Paper_Space
  1

  0
ENDBLK
  5
1C
330
1A
100
AcDbEntity
 67
     1
  8
0
100
AcDbBlockEnd
  0
ENDSEC
  0
SECTION
  2
ENTITIES
  0
LINE
  5
22
330
1E
100
AcDbEntity
  8
0
100
AcDbLine
 10
34.21898
 20
-0.0000000000000059
 30
0.0
 11
38.35277999999999
 21
-0.0000000000000059
 31
0.0
  0
LINE
  5
23
330
1E
100
AcDbEntity
  8
0
100
AcDbLine
 10
30.17058
 20
-0.0000000000000058
 30
0.0
 11
34.21898
 21
-0.0000000000000059
 31
0.0
  0
LINE
  5
24
330
1E
100
AcDbEntity
  8
0
100
AcDbLine
 10
26.38557999999999
 20
-0.0000000000000057
 30
0.0
 11
30.17058
 21
-0.0000000000000058
 31
0.0
  0
LINE
  5
25
330
1E
100
AcDbEntity
  8
0
100
AcDbLine
 10
38.35277999999999
 20
-0.0000000000000059
 30
0.0
 11
42.28647999999999
 21
-0.0000000000000058
 31
0.0
  0
LINE
  5
26
330
1E
100
AcDbEntity
  8
0
100
AcDbLine
 10
42.28647999999999
 20
-0.0000000000000058
 30
0.0
 11
45.80148
 21
-0.0000000000000057
 31
0.0
  0
LINE
  5
27
330
1E
100
AcDbEntity
  8
0
100
AcDbLine
 10
23.27547999999999
 20
-0.0000000000000055
 30
0.0
 11
26.38557999999999
 21
-0.0000000000000057
 31
0.0
  0
LINE
  5
28
330
1E
100
AcDbEntity
  8
0
100
AcDbLine
 10
21.09597999999999
 20
-0.0000000000000053
 30
0.0
 11
23.27547999999999
 21
-0.0000000000000055
 31
0.0
  0
LINE
  5
29
330
1E
100
AcDbEntity
  8
0
100
AcDbLine
 10
45.80148
 20
-0.0000000000000057
 30
0.0
 11
48.69737999999999
 21
-0.0000000000000055
 31
0.0
  0
LINE
  5
2A
330
1E
100
AcDbEntity
  8
0
100
AcDbLine
 10
48.69737999999999
 20
-0.0000000000000055
 30
0.0
 11
50.62948
 21
-0.0000000000000052
 31
0.0
  0
LINE
  5
2B
330
1E
100
AcDbEntity
  8
0
100
AcDbLine
 10
19.67347999999999
 20
-0.0000000000000048
 30
0.0
 11
19.81747999999999
 21
-0.0000000000000051
 31
0.0
  0
LINE
  5
2C
330
1E
100
AcDbEntity
  8
0
100
AcDbLine
 10
19.67347999999999
 20
-0.0000000000000048
 30
0.0
 11
20.51927999999999
 21
-0.0000000000000046
 31
0.0
  0
LINE
  5
2D
330
1E
100
AcDbEntity
  8
0
100
AcDbLine
 10
19.67347999999999
 20
-0.0000000000000048
 30
0.0
 11
19.67347999999999
 21
27.1373270669226
 31
0.0
  0
LINE
  5
2E
330
1E
100
AcDbEntity
  8
0
100
AcDbLine
 10
47.87338
 20
-0.0000000000000043
 30
0.0
 11
50.05278
 21
-0.0000000000000045
 31
0.0
  0
LINE
  5
2F
330
1E
100
AcDbEntity
  8
0
100
AcDbLine
 10
50.05278
 20
-0.0000000000000045
 30
0.0
 11
51.33128
 21
-0.0000000000000047
 31
0.0
  0
LINE
  5
30
330
1E
100
AcDbEntity
  8
0
100
AcDbLine
 10
32.79607999999999
 20
-0.0000000000000039
 30
0.0
 11
36.92978
 21
-0.0000000000000039
 31
0.0
  0
LINE
  5
31
330
1E
100
AcDbEntity
  8
0
100
AcDbLine
 10
36.92978
 20
-0.0000000000000039
 30
0.0
 11
40.97818
 21
-0.000000000000004
 31
0.0
  0
LINE
  5
32
330
1E
100
AcDbEntity
  8
0
100
AcDbLine
 10
40.97818
 20
-0.000000000000004
 30
0.0
 11
44.76318
 21
-0.0000000000000041
 31
0.0
  0
LINE
  5
33
330
1E
100
AcDbEntity
  8
0
100
AcDbLine
 10
44.76318
 20
-0.0000000000000041
 30
0.0
 11
47.87338
 21
-0.0000000000000043
 31
0.0
  0
LINE
  5
34
330
1E
100
AcDbEntity
  8
0
100
AcDbLine
 10
28.86228
 20
-0.000000000000004
 30
0.0
 11
32.79607999999999
 21
-0.0000000000000039
 31
0.0
  0
LINE
  5
35
330
1E
100
AcDbEntity
  8
0
100
AcDbLine
 10
25.34737999999999
 20
-0.0000000000000042
 30
0.0
 11
28.86228
 21
-0.000000000000004
 31
0.0
  0
LINE
  5
36
330
1E
100
AcDbEntity
  8
0
100
AcDbLine
 10
22.45138
 20
-0.0000000000000043
 30
0.0
 11
25.34737999999999
 21
-0.0000000000000042
 31
0.0
  0
LINE
  5
37
330
1E
100
AcDbEntity
  8
0
100
AcDbLine
 10
20.51927999999999
 20
-0.0000000000000046
 30
0.0
 11
22.45138
 21
-0.0000000000000043
 31
0.0
  0
LINE
  5
38
330
1E
100
AcDbEntity
  8
0
100
AcDbLine
 10
19.81747999999999
 20
-0.0000000000000051
 30
0.0
 11
21.09597999999999
 21
-0.0000000000000053
 31
0.0
  0
LINE
  5
39
330
1E
100
AcDbEntity
  8
0
100
AcDbLine
 10
50.62948
 20
-0.0000000000000052
 30
0.0
 11
51.47538
 21
-0.000000000000005
 31
0.0
  0
LINE
  5
3A
330
1E
100
AcDbEntity
  8
0
100
AcDbLine
 10
51.47538
 20
-0.000000000000005
 30
0.0
 11
51.47538
 21
26.0
 31
0.0
  0
LINE
  5
3B
330
1E
100
AcDbEntity
  8
0
100
AcDbLine
 10
51.33128
 20
-0.0000000000000047
 30
0.0
 11
51.47538
 21
-0.000000000000005
 31
0.0
  0
LINE
  5
3C
330
1E
100
AcDbEntity
  8
0
100
AcDbLine
 10
58.22498
 20
20.0
 30
0.0
 11
64.13378
 21
20.0
 31
0.0
  0
LINE
  5
3D
330
1E
100
AcDbEntity
  8
0
100
AcDbLine
 10
64.13378
 20
20.0
 30
0.0
 11
65.86719314105437
 21
23.02726251996091
 31
0.0
  0
LINE
  5
3E
330
1E
100
AcDbEntity
  8
0
100
AcDbLine
 10
56.44678
 20
21.44
 30
0.0
 11
58.22498
 21
20.0
 31
0.0
  0
LINE
  5
3F
330
1E
100
AcDbEntity
  8
0
100
AcDbLine
 10
51.47538
 20
26.0
 30
0.0
 11
51.47538
 21
0.0
 31
0.0
  0
LINE
  5
40
330
1E
100
AcDbEntity
  8
0
100
AcDbLine
 10
54.77978
 20
25.28
 30
0.0
 11
56.44678
 21
21.44
 31
0.0
  0
LINE
  5
41
330
1E
100
AcDbEntity
  8
0
100
AcDbLine
 10
62.35568
 20
21.44
 30
0.0
 11
64.13378
 21
20.0
 31
0.0
  0
LINE
  5
42
330
1E
100
AcDbEntity
  8
0
100
AcDbLine
 10
60.68868000000001
 20
25.28
 30
0.0
 11
62.35568
 21
21.44
 31
0.0
  0
LINE
  5
47
330
1E
100
AcDbEntity
  8
0
100
AcDbLine
 10
16.01957999999999
 20
31.89999999999999
 30
0.0
 11
17.37397999999999
 21
28.7
 31
0.0
  0
LINE
  5
48
330
1E
100
AcDbEntity
  8
0
100
AcDbLine
 10
17.37397999999999
 20
28.7
 30
0.0
 11
18.09687999999999
 21
27.7
 31
0.0
  0
LINE
  5
49
330
1E
100
AcDbEntity
  8
0
100
AcDbLine
 10
16.69027999999999
 20
31.0
 30
0.0
 11
18.09687999999999
 21
27.7
 31
0.0
  0
LINE
  5
4A
330
1E
100
AcDbEntity
  8
0
100
AcDbLine
 10
18.09687999999999
 20
27.7
 30
0.0
 11
19.59018
 21
26.5
 31
0.0
  0
LINE
  5
4B
330
1E
100
AcDbEntity
  8
0
100
AcDbLine
 10
19.67347999999999
 20
27.1373270669226
 30
0.0
 11
19.67347999999999
 21
0.0
 31
0.0
  0
LINE
  5
52
330
1E
100
AcDbEntity
  8
0
100
AcDbLine
 10
53.30728
 20
31.68
 30
0.0
 11
54.77978
 21
25.28
 31
0.0
  0
LINE
  5
53
330
1E
100
AcDbEntity
  8
0
100
AcDbLine
 10
59.21608
 20
31.68
 30
0.0
 11
60.68868000000001
 21
25.28
 31
0.0
  0
LINE
  5
54
330
1E
100
AcDbEntity
  8
0
100
AcDbLine
 10
19.59018
 20
26.5
 30
0.0
 11
19.67347999999999
 21
26.4725100653422
 31
0.0
  0
LINE
  5
55
330
1E
100
AcDbEntity
  8
0
100
AcDbLine
 10
51.33128
 20
26.0
 30
0.0
 11
54.61412375
 21
26.0
 31
0.0
  0
LINE
  5
56
330
1E
100
AcDbEntity
  8
0
100
AcDbLine
 10
173.72008
 20
27.17999999999999
 30
0.0
 11
174.0290799999999
 21
27.66
 31
0.0
  0
LINE
  5
57
330
1E
100
AcDbEntity
  8
0
100
AcDbLine
 10
174.0290799999999
 20
27.66
 30
0.0
 11
174.3030799999999
 21
28.46
 31
0.0
  0
LINE
  5
58
330
1E
100
AcDbEntity
  8
0
100
AcDbLine
 10
173.38908
 20
27.0
 30
0.0
 11
217.4860799999999
 21
27.0
 31
0.0
  0
LINE
  5
59
330
1E
100
AcDbEntity
  8
0
100
AcDbLine
 10
173.38908
 20
27.0
 30
0.0
 11
173.72008
 21
27.17999999999999
 31
0.0
  0
LINE
  5
5A
330
1E
100
AcDbEntity
  8
0
100
AcDbLine
 10
173.0590799999999
 20
27.17999999999999
 30
0.0
 11
173.38908
 21
27.0
 31
0.0
  0
LINE
  5
5B
330
1E
100
AcDbEntity
  8
0
100
AcDbLine
 10
174.3030799999999
 20
28.46
 30
0.0
 11
174.50908
 21
29.51999999999999
 31
0.0
  0
LINE
  5
5C
330
1E
100
AcDbEntity
  8
0
100
AcDbLine
 10
174.50908
 20
29.51999999999999
 30
0.0
 11
174.63308
 21
30.72
 31
0.0
  0
LINE
  5
5D
330
1E
100
AcDbEntity
  8
0
100
AcDbLine
 10
172.7490799999999
 20
27.66
 30
0.0
 11
173.0590799999999
 21
27.17999999999999
 31
0.0
  0
LINE
  5
5E
330
1E
100
AcDbEntity
  8
0
100
AcDbLine
 10
172.47608
 20
28.46
 30
0.0
 11
172.7490799999999
 21
27.66
 31
0.0
  0
LINE
  5
5F
330
1E
100
AcDbEntity
  8
0
100
AcDbLine
 10
174.63308
 20
30.72
 30
0.0
 11
174.68008
 21
32.0
 31
0.0
  0
LINE
  5
60
330
1E
100
AcDbEntity
  8
0
100
AcDbLine
 10
172.26908
 20
29.51999999999999
 30
0.0
 11
172.47608
 21
28.46
 31
0.0
  0
LINE
  5
61
330
1E
100
AcDbEntity
  8
0
100
AcDbLine
 10
172.14508
 20
30.72
 30
0.0
 11
172.26908
 21
29.51999999999999
 31
0.0
  0
LINE
  5
62
330
1E
100
AcDbEntity
  8
0
100
AcDbLine
 10
172.26908
 20
34.47999999999999
 30
0.0
 11
172.47608
 21
35.54
 31
0.0
  0
LINE
  5
63
330
1E
100
AcDbEntity
  8
0
100
AcDbLine
 10
172.14508
 20
33.28
 30
0.0
 11
172.26908
 21
34.47999999999999
 31
0.0
  0
LINE
  5
64
330
1E
100
AcDbEntity
  8
0
100
AcDbLine
 10
172.09908
 20
32.0
 30
0.0
 11
172.14508
 21
33.28
 31
0.0
  0
LINE
  5
65
330
1E
100
AcDbEntity
  8
0
100
AcDbLine
 10
172.09908
 20
32.0
 30
0.0
 11
172.14508
 21
30.72
 31
0.0
  0
LINE
  5
66
330
1E
100
AcDbEntity
  8
0
100
AcDbLine
 10
174.50908
 20
34.47999999999999
 30
0.0
 11
174.63308
 21
33.28
 31
0.0
  0
LINE
  5
67
330
1E
100
AcDbEntity
  8
0
100
AcDbLine
 10
217.4860799999999
 20
25.0
 30
0.0
 11
217.4860799999999
 21
25.25199999999999
 31
0.0
  0
LINE
  5
68
330
1E
100
AcDbEntity
  8
0
100
AcDbLine
 10
217.4860799999999
 20
25.0
 30
0.0
 11
237.4860799999999
 21
25.0
 31
0.0
  0
LINE
  5
69
330
1E
100
AcDbEntity
  8
0
100
AcDbLine
 10
217.4860799999999
 20
25.25199999999999
 30
0.0
 11
217.4860799999999
 21
25.924
 31
0.0
  0
LINE
  5
6A
330
1E
100
AcDbEntity
  8
0
100
AcDbLine
 10
217.4860799999999
 20
25.25199999999999
 30
0.0
 11
217.4860799999999
 21
25.0
 31
0.0
  0
LINE
  5
6B
330
1E
100
AcDbEntity
  8
0
100
AcDbLine
 10
217.4860799999999
 20
25.924
 30
0.0
 11
217.4860799999999
 21
27.0
 31
0.0
  0
LINE
  5
6C
330
1E
100
AcDbEntity
  8
0
100
AcDbLine
 10
217.4860799999999
 20
25.924
 30
0.0
 11
217.4860799999999
 21
25.25199999999999
 31
0.0
  0
LINE
  5
6D
330
1E
100
AcDbEntity
  8
0
100
AcDbLine
 10
217.4860799999999
 20
25.924
 30
0.0
 11
217.4860799999999
 21
27.044
 31
0.0
  0
LINE
  5
6E
330
1E
100
AcDbEntity
  8
0
100
AcDbLine
 10
217.4860799999999
 20
27.044
 30
0.0
 11
217.4860799999999
 21
25.924
 31
0.0
  0
LINE
  5
6F
330
1E
100
AcDbEntity
  8
0
100
AcDbLine
 10
217.4860799999999
 20
27.044
 30
0.0
 11
217.4860799999999
 21
28.528
 31
0.0
  0
LINE
  5
70
330
1E
100
AcDbEntity
  8
0
100
AcDbLine
 10
217.4860799999999
 20
27.0
 30
0.0
 11
217.4860799999999
 21
27.17999999999999
 31
0.0
  0
LINE
  5
71
330
1E
100
AcDbEntity
  8
0
100
AcDbLine
 10
217.4860799999999
 20
27.0
 30
0.0
 11
217.4860799999999
 21
25.924
 31
0.0
  0
LINE
  5
72
330
1E
100
AcDbEntity
  8
0
100
AcDbLine
 10
217.4860799999999
 20
27.17999999999999
 30
0.0
 11
217.4860799999999
 21
27.0
 31
0.0
  0
LINE
  5
73
330
1E
100
AcDbEntity
  8
0
100
AcDbLine
 10
217.4860799999999
 20
27.17999999999999
 30
0.0
 11
217.4860799999999
 21
27.66
 31
0.0
  0
LINE
  5
74
330
1E
100
AcDbEntity
  8
0
100
AcDbLine
 10
217.4860799999999
 20
28.528
 30
0.0
 11
217.4860799999999
 21
27.044
 31
0.0
  0
LINE
  5
75
330
1E
100
AcDbEntity
  8
0
100
AcDbLine
 10
217.4860799999999
 20
28.528
 30
0.0
 11
217.4860799999999
 21
30.208
 31
0.0
  0
LINE
  5
76
330
1E
100
AcDbEntity
  8
0
100
AcDbLine
 10
217.4860799999999
 20
27.66
 30
0.0
 11
217.4860799999999
 21
27.17999999999999
 31
0.0
  0
LINE
  5
77
330
1E
100
AcDbEntity
  8
0
100
AcDbLine
 10
217.4860799999999
 20
27.66
 30
0.0
 11
217.4860799999999
 21
28.46
 31
0.0
  0
LINE
  5
78
330
1E
100
AcDbEntity
  8
0
100
AcDbLine
 10
217.4860799999999
 20
28.46
 30
0.0
 11
217.4860799999999
 21
27.66
 31
0.0
  0
LINE
  5
79
330
1E
100
AcDbEntity
  8
0
100
AcDbLine
 10
217.4860799999999
 20
28.46
 30
0.0
 11
217.4860799999999
 21
29.51999999999999
 31
0.0
  0
LINE
  5
7A
330
1E
100
AcDbEntity
  8
0
100
AcDbLine
 10
217.4860799999999
 20
30.208
 30
0.0
 11
217.4860799999999
 21
28.528
 31
0.0
  0
LINE
  5
7B
330
1E
100
AcDbEntity
  8
0
100
AcDbLine
 10
217.4860799999999
 20
30.208
 30
0.0
 11
217.4860799999999
 21
32.0
 31
0.0
  0
LINE
  5
7C
330
1E
100
AcDbEntity
  8
0
100
AcDbLine
 10
217.4860799999999
 20
29.51999999999999
 30
0.0
 11
217.4860799999999
 21
28.46
 31
0.0
  0
LINE
  5
7D
330
1E
100
AcDbEntity
  8
0
100
AcDbLine
 10
217.4860799999999
 20
29.51999999999999
 30
0.0
 11
217.4860799999999
 21
30.72
 31
0.0
  0
LINE
  5
7E
330
1E
100
AcDbEntity
  8
0
100
AcDbLine
 10
217.4860799999999
 20
30.72
 30
0.0
 11
217.4860799999999
 21
29.51999999999999
 31
0.0
  0
LINE
  5
7F
330
1E
100
AcDbEntity
  8
0
100
AcDbLine
 10
217.4860799999999
 20
30.72
 30
0.0
 11
217.4860799999999
 21
32.0
 31
0.0
  0
LINE
  5
80
330
1E
100
AcDbEntity
  8
0
100
AcDbLine
 10
217.4860799999999
 20
33.792
 30
0.0
 11
217.4860799999999
 21
32.0
 31
0.0
  0
LINE
  5
81
330
1E
100
AcDbEntity
  8
0
100
AcDbLine
 10
217.4860799999999
 20
33.792
 30
0.0
 11
217.4860799999999
 21
35.472
 31
0.0
  0
LINE
  5
82
330
1E
100
AcDbEntity
  8
0
100
AcDbLine
 10
217.4860799999999
 20
32.0
 30
0.0
 11
217.4860799999999
 21
33.28
 31
0.0
  0
LINE
  5
83
330
1E
100
AcDbEntity
  8
0
100
AcDbLine
 10
217.4860799999999
 20
32.0
 30
0.0
 11
217.4860799999999
 21
30.72
 31
0.0
  0
LINE
  5
84
330
1E
100
AcDbEntity
  8
0
100
AcDbLine
 10
217.4860799999999
 20
32.0
 30
0.0
 11
217.4860799999999
 21
33.792
 31
0.0
  0
LINE
  5
85
330
1E
100
AcDbEntity
  8
0
100
AcDbLine
 10
217.4860799999999
 20
32.0
 30
0.0
 11
217.4860799999999
 21
30.208
 31
0.0
  0
LINE
  5
86
330
1E
100
AcDbEntity
  8
0
100
AcDbLine
 10
174.63308
 20
33.28
 30
0.0
 11
174.68008
 21
32.0
 31
0.0
  0
LINE
  5
8E
330
1E
100
AcDbEntity
  8
0
100
AcDbLine
 10
15.47477999999999
 20
36.29999999999999
 30
0.0
 11
16.69027999999999
 21
31.0
 31
0.0
  0
LINE
  5
8F
330
1E
100
AcDbEntity
  8
0
100
AcDbLine
 10
172.7490799999999
 20
36.34
 30
0.0
 11
173.0590799999999
 21
36.82
 31
0.0
  0
LINE
  5
90
330
1E
100
AcDbEntity
  8
0
100
AcDbLine
 10
172.47608
 20
35.54
 30
0.0
 11
172.7490799999999
 21
36.34
 31
0.0
  0
LINE
  5
91
330
1E
100
AcDbEntity
  8
0
100
AcDbLine
 10
174.0290799999999
 20
36.34
 30
0.0
 11
174.3030799999999
 21
35.54
 31
0.0
  0
LINE
  5
92
330
1E
100
AcDbEntity
  8
0
100
AcDbLine
 10
217.4860799999999
 20
35.472
 30
0.0
 11
217.4860799999999
 21
33.792
 31
0.0
  0
LINE
  5
93
330
1E
100
AcDbEntity
  8
0
100
AcDbLine
 10
217.4860799999999
 20
35.472
 30
0.0
 11
217.4860799999999
 21
36.95599999999999
 31
0.0
  0
LINE
  5
94
330
1E
100
AcDbEntity
  8
0
100
AcDbLine
 10
174.3030799999999
 20
35.54
 30
0.0
 11
174.50908
 21
34.47999999999999
 31
0.0
  0
LINE
  5
95
330
1E
100
AcDbEntity
  8
0
100
AcDbLine
 10
173.0590799999999
 20
36.82
 30
0.0
 11
173.38908
 21
37.0
 31
0.0
  0
LINE
  5
96
330
1E
100
AcDbEntity
  8
0
100
AcDbLine
 10
173.38908
 20
37.0
 30
0.0
 11
173.72008
 21
36.82
 31
0.0
  0
LINE
  5
97
330
1E
100
AcDbEntity
  8
0
100
AcDbLine
 10
173.38908
 20
37.0
 30
0.0
 11
217.4860799999999
 21
37.0
 31
0.0
  0
LINE
  5
98
330
1E
100
AcDbEntity
  8
0
100
AcDbLine
 10
217.4860799999999
 20
36.95599999999999
 30
0.0
 11
217.4860799999999
 21
35.472
 31
0.0
  0
LINE
  5
99
330
1E
100
AcDbEntity
  8
0
100
AcDbLine
 10
217.4860799999999
 20
36.95599999999999
 30
0.0
 11
217.4860799999999
 21
38.076
 31
0.0
  0
LINE
  5
9A
330
1E
100
AcDbEntity
  8
0
100
AcDbLine
 10
173.72008
 20
36.82
 30
0.0
 11
174.0290799999999
 21
36.34
 31
0.0
  0
LINE
  5
A1
330
1E
100
AcDbEntity
  8
0
100
AcDbLine
 10
14.83877999999999
 20
37.0
 30
0.0
 11
16.01957999999999
 21
31.89999999999999
 31
0.0
  0
LINE
  5
A2
330
1E
100
AcDbEntity
  8
0
100
AcDbLine
 10
217.4860799999999
 20
38.076
 30
0.0
 11
217.4860799999999
 21
36.95599999999999
 31
0.0
  0
LINE
  5
A3
330
1E
100
AcDbEntity
  8
0
100
AcDbLine
 10
217.4860799999999
 20
38.076
 30
0.0
 11
217.4860799999999
 21
38.748
 31
0.0
  0
LINE
  5
A4
330
1E
100
AcDbEntity
  8
0
100
AcDbLine
 10
217.4860799999999
 20
38.076
 30
0.0
 11
217.4860799999999
 21
37.0
 31
0.0
  0
LINE
  5
A5
330
1E
100
AcDbEntity
  8
0
100
AcDbLine
 10
217.4860799999999
 20
37.0
 30
0.0
 11
217.4860799999999
 21
36.82
 31
0.0
  0
LINE
  5
A6
330
1E
100
AcDbEntity
  8
0
100
AcDbLine
 10
217.4860799999999
 20
37.0
 30
0.0
 11
217.4860799999999
 21
38.076
 31
0.0
  0
LINE
  5
A7
330
1E
100
AcDbEntity
  8
0
100
AcDbLine
 10
217.4860799999999
 20
36.82
 30
0.0
 11
217.4860799999999
 21
36.34
 31
0.0
  0
LINE
  5
A8
330
1E
100
AcDbEntity
  8
0
100
AcDbLine
 10
217.4860799999999
 20
36.82
 30
0.0
 11
217.4860799999999
 21
37.0
 31
0.0
  0
LINE
  5
A9
330
1E
100
AcDbEntity
  8
0
100
AcDbLine
 10
217.4860799999999
 20
36.34
 30
0.0
 11
217.4860799999999
 21
35.54
 31
0.0
  0
LINE
  5
AA
330
1E
100
AcDbEntity
  8
0
100
AcDbLine
 10
217.4860799999999
 20
36.34
 30
0.0
 11
217.4860799999999
 21
36.82
 31
0.0
  0
LINE
  5
AB
330
1E
100
AcDbEntity
  8
0
100
AcDbLine
 10
217.4860799999999
 20
35.54
 30
0.0
 11
217.4860799999999
 21
34.47999999999999
 31
0.0
  0
LINE
  5
AC
330
1E
100
AcDbEntity
  8
0
100
AcDbLine
 10
217.4860799999999
 20
35.54
 30
0.0
 11
217.4860799999999
 21
36.34
 31
0.0
  0
LINE
  5
AD
330
1E
100
AcDbEntity
  8
0
100
AcDbLine
 10
217.4860799999999
 20
34.47999999999999
 30
0.0
 11
217.4860799999999
 21
33.28
 31
0.0
  0
LINE
  5
AE
330
1E
100
AcDbEntity
  8
0
100
AcDbLine
 10
217.4860799999999
 20
34.47999999999999
 30
0.0
 11
217.4860799999999
 21
35.54
 31
0.0
  0
LINE
  5
AF
330
1E
100
AcDbEntity
  8
0
100
AcDbLine
 10
217.4860799999999
 20
33.28
 30
0.0
 11
217.4860799999999
 21
32.0
 31
0.0
  0
LINE
  5
B0
330
1E
100
AcDbEntity
  8
0
100
AcDbLine
 10
217.4860799999999
 20
33.28
 30
0.0
 11
217.4860799999999
 21
34.47999999999999
 31
0.0
  0
LINE
  5
B4
330
1E
100
AcDbEntity
  8
0
100
AcDbLine
 10
217.4860799999999
 20
39.0
 30
0.0
 11
217.4860799999999
 21
38.748
 31
0.0
  0
LINE
  5
B5
330
1E
100
AcDbEntity
  8
0
100
AcDbLine
 10
217.4860799999999
 20
39.0
 30
0.0
 11
235.4860799999999
 21
39.0
 31
0.0
  0
LINE
  5
B6
330
1E
100
AcDbEntity
  8
0
100
AcDbLine
 10
217.4860799999999
 20
38.748
 30
0.0
 11
217.4860799999999
 21
38.076
 31
0.0
  0
LINE
  5
B7
330
1E
100
AcDbEntity
  8
0
100
AcDbLine
 10
217.4860799999999
 20
38.748
 30
0.0
 11
217.4860799999999
 21
39.0
 31
0.0
  0
LINE
  5
BC
330
1E
100
AcDbEntity
  8
0
100
AcDbLine
 10
112.54208
 20
40.0
 30
0.0
 11
115.63908
 21
40.0
 31
0.0
  0
LINE
  5
BD
330
1E
100
AcDbEntity
  8
0
100
AcDbLine
 10
115.63908
 20
40.0
 30
0.0
 11
120.5660799999999
 21
40.0
 31
0.0
  0
LINE
  5
BE
330
1E
100
AcDbEntity
  8
0
100
AcDbLine
 10
126.98608
 20
40.0
 30
0.0
 11
134.46308
 21
40.0
 31
0.0
  0
LINE
  5
BF
330
1E
100
AcDbEntity
  8
0
100
AcDbLine
 10
142.48608
 20
40.0
 30
0.0
 11
221.4860799999999
 21
40.0
 31
0.0
  0
LINE
  5
C0
330
1E
100
AcDbEntity
  8
0
100
AcDbLine
 10
134.46308
 20
40.0
 30
0.0
 11
142.48608
 21
40.0
 31
0.0
  0
LINE
  5
C6
330
1E
100
AcDbEntity
  8
0
100
AcDbLine
 10
120.5660799999999
 20
40.0
 30
0.0
 11
126.98608
 21
40.0
 31
0.0
  0
LINE
  5
C7
330
1E
100
AcDbEntity
  8
0
100
AcDbLine
 10
52.19587999999999
 20
40.16
 30
0.0
 11
53.30728
 21
31.68
 31
0.0
  0
LINE
  5
D2
330
1E
100
AcDbEntity
  8
0
100
AcDbLine
 10
58.10478
 20
40.16
 30
0.0
 11
59.21608
 21
31.68
 31
0.0
  0
LINE
  5
D3
330
1E
100
AcDbEntity
  8
0
100
AcDbLine
 10
14.55438
 20
43.3
 30
0.0
 11
15.47477999999999
 21
36.29999999999999
 31
0.0
  0
LINE
  5
DD
330
1E
100
AcDbEntity
  8
0
100
AcDbLine
 10
13.95318
 20
43.79999999999999
 30
0.0
 11
14.83877999999999
 21
37.0
 31
0.0
  0
LINE
  5
DE
330
1E
100
AcDbEntity
  8
0
100
AcDbLine
 10
221.4860799999999
 20
46.38399999999999
 30
0.0
 11
235.4860799999999
 21
46.38399999999999
 31
0.0
  0
LINE
  5
DF
330
1E
100
AcDbEntity
  8
0
100
AcDbLine
 10
221.4860799999999
 20
46.38399999999999
 30
0.0
 11
221.4860799999999
 21
47.88399999999999
 31
0.0
  0
LINE
  5
E0
330
1E
100
AcDbEntity
  8
0
100
AcDbLine
 10
221.4860799999999
 20
46.38399999999999
 30
0.0
 11
221.4860799999999
 21
48.11600000000001
 31
0.0
  0
LINE
  5
E1
330
1E
100
AcDbEntity
  8
0
100
AcDbLine
 10
221.4860799999999
 20
43.71599999999999
 30
0.0
 11
221.4860799999999
 21
48.592
 31
0.0
  0
LINE
  5
E2
330
1E
100
AcDbEntity
  8
0
100
AcDbLine
 10
221.4860799999999
 20
43.71599999999999
 30
0.0
 11
221.4860799999999
 21
40.036
 31
0.0
  0
LINE
  5
E3
330
1E
100
AcDbEntity
  8
0
100
AcDbLine
 10
221.4860799999999
 20
40.036
 30
0.0
 11
221.4860799999999
 21
43.71599999999999
 31
0.0
  0
LINE
  5
E4
330
1E
100
AcDbEntity
  8
0
100
AcDbLine
 10
221.4860799999999
 20
40.036
 30
0.0
 11
221.4860799999999
 21
39.0
 31
0.0
  0
LINE
  5
E5
330
1E
100
AcDbEntity
  8
0
100
AcDbLine
 10
221.4860799999999
 20
39.0
 30
0.0
 11
221.4860799999999
 21
40.0
 31
0.0
  0
LINE
  5
E6
330
1E
100
AcDbEntity
  8
0
100
AcDbLine
 10
221.4860799999999
 20
39.0
 30
0.0
 11
221.4860799999999
 21
40.036
 31
0.0
  0
LINE
  5
E7
330
1E
100
AcDbEntity
  8
0
100
AcDbLine
 10
235.4860799999999
 20
46.38399999999999
 30
0.0
 11
235.4860799999999
 21
43.71599999999999
 31
0.0
  0
LINE
  5
E8
330
1E
100
AcDbEntity
  8
0
100
AcDbLine
 10
235.4860799999999
 20
46.38399999999999
 30
0.0
 11
235.4860799999999
 21
48.11600000000001
 31
0.0
  0
LINE
  5
E9
330
1E
100
AcDbEntity
  8
0
100
AcDbLine
 10
235.4860799999999
 20
43.71599999999999
 30
0.0
 11
235.4860799999999
 21
46.38399999999999
 31
0.0
  0
LINE
  5
EA
330
1E
100
AcDbEntity
  8
0
100
AcDbLine
 10
235.4860799999999
 20
43.71599999999999
 30
0.0
 11
235.4860799999999
 21
40.036
 31
0.0
  0
LINE
  5
EB
330
1E
100
AcDbEntity
  8
0
100
AcDbLine
 10
235.4860799999999
 20
40.036
 30
0.0
 11
235.4860799999999
 21
43.71599999999999
 31
0.0
  0
LINE
  5
EC
330
1E
100
AcDbEntity
  8
0
100
AcDbLine
 10
235.4860799999999
 20
40.036
 30
0.0
 11
235.4860799999999
 21
39.0
 31
0.0
  0
LINE
  5
ED
330
1E
100
AcDbEntity
  8
0
100
AcDbLine
 10
235.4860799999999
 20
39.0
 30
0.0
 11
235.4860799999999
 21
40.036
 31
0.0
  0
LINE
  5
EE
330
1E
100
AcDbEntity
  8
0
100
AcDbLine
 10
221.4860799999999
 20
40.0
 30
0.0
 11
221.4860799999999
 21
39.0
 31
0.0
  0
LINE
  5
FA
330
1E
100
AcDbEntity
  8
0
100
AcDbLine
 10
221.4860799999999
 20
47.88399999999999
 30
0.0
 11
221.4860799999999
 21
49.616
 31
0.0
  0
LINE
  5
FB
330
1E
100
AcDbEntity
  8
0
100
AcDbLine
 10
221.4860799999999
 20
47.88399999999999
 30
0.0
 11
221.4860799999999
 21
46.38399999999999
 31
0.0
  0
LINE
  5
FC
330
1E
100
AcDbEntity
  8
0
100
AcDbLine
 10
10.96818
 20
51.324
 30
0.0
 11
13.09538
 21
52.188
 31
0.0
  0
LINE
  5
FD
330
1E
100
AcDbEntity
  8
0
100
AcDbLine
 10
8.699179999999969
 20
51.0
 30
0.0
 11
13.44022615384609
 21
51.0
 31
0.0
  0
LINE
  5
FE
330
1E
100
AcDbEntity
  8
0
100
AcDbLine
 10
8.699179999999969
 20
51.0
 30
0.0
 11
10.96818
 21
51.324
 31
0.0
  0
LINE
  5
FF
330
1E
100
AcDbEntity
  8
0
100
AcDbLine
 10
6.430179999999969
 20
51.324
 30
0.0
 11
8.699179999999969
 21
51.0
 31
0.0
  0
LINE
  5
100
330
1E
100
AcDbEntity
  8
0
100
AcDbLine
 10
13.09538
 20
52.188
 30
0.0
 11
13.3775274866971
 21
52.4042279834187
 31
0.0
  0
LINE
  5
101
330
1E
100
AcDbEntity
  8
0
100
AcDbLine
 10
4.30299999999997
 20
52.188
 30
0.0
 11
6.430179999999969
 21
51.324
 31
0.0
  0
LINE
  5
102
330
1E
100
AcDbEntity
  8
0
100
AcDbLine
 10
2.42398999999997
 20
53.628
 30
0.0
 11
4.30299999999997
 21
52.188
 31
0.0
  0
LINE
  5
103
330
1E
100
AcDbEntity
  8
0
100
AcDbLine
 10
13.39747999999999
 20
51.6
 30
0.0
 11
13.95318
 21
43.79999999999999
 31
0.0
  0
LINE
  5
104
330
1E
100
AcDbEntity
  8
0
100
AcDbLine
 10
51.52908
 20
49.75999999999999
 30
0.0
 11
52.19587999999999
 21
40.16
 31
0.0
  0
LINE
  5
10C
330
1E
100
AcDbEntity
  8
0
100
AcDbLine
 10
57.43798
 20
49.75999999999999
 30
0.0
 11
58.10478
 21
40.16
 31
0.0
  0
LINE
  5
10D
330
1E
100
AcDbEntity
  8
0
100
AcDbLine
 10
13.98138
 20
51.4
 30
0.0
 11
14.55438
 21
43.3
 31
0.0
  0
LINE
  5
10E
330
1E
100
AcDbEntity
  8
0
100
AcDbLine
 10
221.4860799999999
 20
49.616
 30
0.0
 11
221.4860799999999
 21
48.11600000000001
 31
0.0
  0
LINE
  5
10F
330
1E
100
AcDbEntity
  8
0
100
AcDbLine
 10
221.4860799999999
 20
49.616
 30
0.0
 11
221.4860799999999
 21
47.88399999999999
 31
0.0
  0
LINE
  5
110
330
1E
100
AcDbEntity
  8
0
100
AcDbLine
 10
221.4860799999999
 20
48.11600000000001
 30
0.0
 11
235.4860799999999
 21
48.11600000000001
 31
0.0
  0
LINE
  5
111
330
1E
100
AcDbEntity
  8
0
100
AcDbLine
 10
221.4860799999999
 20
48.11600000000001
 30
0.0
 11
221.4860799999999
 21
46.38399999999999
 31
0.0
  0
LINE
  5
112
330
1E
100
AcDbEntity
  8
0
100
AcDbLine
 10
221.4860799999999
 20
48.11600000000001
 30
0.0
 11
221.4860799999999
 21
49.616
 31
0.0
  0
LINE
  5
113
330
1E
100
AcDbEntity
  8
0
100
AcDbLine
 10
0.15498999999997
 20
57.696
 30
0.0
 11
1.005869999999969
 21
55.536
 31
0.0
  0
LINE
  5
114
330
1E
100
AcDbEntity
  8
0
100
AcDbLine
 10
1.005869999999969
 20
55.536
 30
0.0
 11
2.42398999999997
 21
53.628
 31
0.0
  0
LINE
  5
115
330
1E
100
AcDbEntity
  8
0
100
AcDbLine
 10
0.15498999999997
 20
57.696
 30
0.0
 11
1.005869999999969
 21
55.536
 31
0.0
  0
LINE
  5
121
330
1E
100
AcDbEntity
  8
0
100
AcDbLine
 10
221.4860799999999
 20
54.112
 30
0.0
 11
221.4860799999999
 21
60.0
 31
0.0
  0
LINE
  5
122
330
1E
100
AcDbEntity
  8
0
100
AcDbLine
 10
221.4860799999999
 20
54.112
 30
0.0
 11
221.4860799999999
 21
48.592
 31
0.0
  0
LINE
  5
123
330
1E
100
AcDbEntity
  8
0
100
AcDbLine
 10
221.4860799999999
 20
48.592
 30
0.0
 11
221.4860799999999
 21
54.112
 31
0.0
  0
LINE
  5
124
330
1E
100
AcDbEntity
  8
0
100
AcDbLine
 10
221.4860799999999
 20
48.592
 30
0.0
 11
221.4860799999999
 21
43.71599999999999
 31
0.0
  0
LINE
  5
125
330
1E
100
AcDbEntity
  8
0
100
AcDbLine
 10
-0.164080000000028
 20
60.0
 30
0.0
 11
0.15498999999997
 21
62.30399999999999
 31
0.0
  0
LINE
  5
126
330
1E
100
AcDbEntity
  8
0
100
AcDbLine
 10
-0.164080000000028
 20
60.0
 30
0.0
 11
0.15498999999997
 21
57.696
 31
0.0
  0
LINE
  5
127
330
1E
100
AcDbEntity
  8
0
100
AcDbLine
 10
-0.164080000000028
 20
60.0
 30
0.0
 11
0.15498999999997
 21
62.30399999999999
 31
0.0
  0
LINE
  5
128
330
1E
100
AcDbEntity
  8
0
100
AcDbLine
 10
-0.164080000000028
 20
60.0
 30
0.0
 11
0.15498999999997
 21
57.696
 31
0.0
  0
LINE
  5
129
330
1E
100
AcDbEntity
  8
0
100
AcDbLine
 10
0.15498999999997
 20
62.30399999999999
 30
0.0
 11
1.005869999999969
 21
64.464
 31
0.0
  0
LINE
  5
12A
330
1E
100
AcDbEntity
  8
0
100
AcDbLine
 10
1.005869999999969
 20
64.464
 30
0.0
 11
2.42398999999997
 21
66.37199999999999
 31
0.0
  0
LINE
  5
12B
330
1E
100
AcDbEntity
  8
0
100
AcDbLine
 10
0.15498999999997
 20
62.30399999999999
 30
0.0
 11
1.005869999999969
 21
64.464
 31
0.0
  0
LINE
  5
12C
330
1E
100
AcDbEntity
  8
0
100
AcDbLine
 10
13.18907999999999
 20
60.0
 30
0.0
 11
13.39747999999999
 21
68.4
 31
0.0
  0
LINE
  5
12D
330
1E
100
AcDbEntity
  8
0
100
AcDbLine
 10
13.18907999999999
 20
60.0
 30
0.0
 11
13.39747999999999
 21
51.6
 31
0.0
  0
LINE
  5
13D
330
1E
100
AcDbEntity
  8
0
100
AcDbLine
 10
51.27908
 20
60.0
 30
0.0
 11
51.52908
 21
70.24
 31
0.0
  0
LINE
  5
13E
330
1E
100
AcDbEntity
  8
0
100
AcDbLine
 10
51.27908
 20
60.0
 30
0.0
 11
51.52908
 21
49.75999999999999
 31
0.0
  0
LINE
  5
147
330
1E
100
AcDbEntity
  8
0
100
AcDbLine
 10
57.18788
 20
60.0
 30
0.0
 11
57.43798
 21
70.24
 31
0.0
  0
LINE
  5
148
330
1E
100
AcDbEntity
  8
0
100
AcDbLine
 10
57.18788
 20
60.0
 30
0.0
 11
57.43798
 21
49.75999999999999
 31
0.0
  0
LINE
  5
149
330
1E
100
AcDbEntity
  8
0
100
AcDbLine
 10
13.77297999999999
 20
60.0
 30
0.0
 11
13.98138
 21
68.59999999999999
 31
0.0
  0
LINE
  5
14A
330
1E
100
AcDbEntity
  8
0
100
AcDbLine
 10
13.77297999999999
 20
60.0
 30
0.0
 11
13.98138
 21
51.4
 31
0.0
  0
LINE
  5
14B
330
1E
100
AcDbEntity
  8
0
100
AcDbLine
 10
221.4860799999999
 20
60.0
 30
0.0
 11
221.4860799999999
 21
65.888
 31
0.0
  0
LINE
  5
14C
330
1E
100
AcDbEntity
  8
0
100
AcDbLine
 10
221.4860799999999
 20
60.0
 30
0.0
 11
221.4860799999999
 21
54.112
 31
0.0
  0
LINE
  5
14D
330
1E
100
AcDbEntity
  8
0
100
AcDbLine
 10
235.4860799999999
 20
48.11600000000001
 30
0.0
 11
235.4860799999999
 21
49.616
 31
0.0
  0
LINE
  5
14E
330
1E
100
AcDbEntity
  8
0
100
AcDbLine
 10
235.4860799999999
 20
48.11600000000001
 30
0.0
 11
235.4860799999999
 21
46.38399999999999
 31
0.0
  0
LINE
  5
14F
330
1E
100
AcDbEntity
  8
0
100
AcDbLine
 10
235.4860799999999
 20
54.112
 30
0.0
 11
235.4860799999999
 21
60.0
 31
0.0
  0
LINE
  5
150
330
1E
100
AcDbEntity
  8
0
100
AcDbLine
 10
235.4860799999999
 20
54.112
 30
0.0
 11
235.4860799999999
 21
49.616
 31
0.0
  0
LINE
  5
151
330
1E
100
AcDbEntity
  8
0
100
AcDbLine
 10
235.4860799999999
 20
49.616
 30
0.0
 11
235.4860799999999
 21
54.112
 31
0.0
  0
LINE
  5
152
330
1E
100
AcDbEntity
  8
0
100
AcDbLine
 10
235.4860799999999
 20
49.616
 30
0.0
 11
235.4860799999999
 21
48.11600000000001
 31
0.0
  0
LINE
  5
153
330
1E
100
AcDbEntity
  8
0
100
AcDbLine
 10
221.4860799999999
 20
65.888
 30
0.0
 11
221.4860799999999
 21
71.408
 31
0.0
  0
LINE
  5
154
330
1E
100
AcDbEntity
  8
0
100
AcDbLine
 10
221.4860799999999
 20
65.888
 30
0.0
 11
221.4860799999999
 21
60.0
 31
0.0
  0
LINE
  5
155
330
1E
100
AcDbEntity
  8
0
100
AcDbLine
 10
2.42398999999997
 20
66.37199999999999
 30
0.0
 11
4.30299999999997
 21
67.812
 31
0.0
  0
LINE
  5
15C
330
1E
100
AcDbEntity
  8
0
100
AcDbLine
 10
235.4860799999999
 20
65.888
 30
0.0
 11
235.4860799999999
 21
70.384
 31
0.0
  0
LINE
  5
15D
330
1E
100
AcDbEntity
  8
0
100
AcDbLine
 10
235.4860799999999
 20
65.888
 30
0.0
 11
235.4860799999999
 21
60.0
 31
0.0
  0
LINE
  5
15E
330
1E
100
AcDbEntity
  8
0
100
AcDbLine
 10
235.4860799999999
 20
53.34399999999999
 30
0.0
 11
235.4860799999999
 21
60.0
 31
0.0
  0
LINE
  5
15F
330
1E
100
AcDbEntity
  8
0
100
AcDbLine
 10
235.4860799999999
 20
53.34399999999999
 30
0.0
 11
235.4860799999999
 21
47.10399999999999
 31
0.0
  0
LINE
  5
160
330
1E
100
AcDbEntity
  8
0
100
AcDbLine
 10
235.4860799999999
 20
47.10399999999999
 30
0.0
 11
235.4860799999999
 21
53.34399999999999
 31
0.0
  0
LINE
  5
161
330
1E
100
AcDbEntity
  8
0
100
AcDbLine
 10
235.4860799999999
 20
47.10399999999999
 30
0.0
 11
235.4860799999999
 21
41.592
 31
0.0
  0
LINE
  5
162
330
1E
100
AcDbEntity
  8
0
100
AcDbLine
 10
235.4860799999999
 20
41.592
 30
0.0
 11
235.4860799999999
 21
47.10399999999999
 31
0.0
  0
LINE
  5
163
330
1E
100
AcDbEntity
  8
0
100
AcDbLine
 10
235.4860799999999
 20
41.592
 30
0.0
 11
235.4860799999999
 21
38.076
 31
0.0
  0
LINE
  5
164
330
1E
100
AcDbEntity
  8
0
100
AcDbLine
 10
235.4860799999999
 20
38.076
 30
0.0
 11
235.4860799999999
 21
41.592
 31
0.0
  0
LINE
  5
165
330
1E
100
AcDbEntity
  8
0
100
AcDbLine
 10
235.4860799999999
 20
60.0
 30
0.0
 11
235.4860799999999
 21
66.65600000000001
 31
0.0
  0
LINE
  5
166
330
1E
100
AcDbEntity
  8
0
100
AcDbLine
 10
235.4860799999999
 20
60.0
 30
0.0
 11
235.4860799999999
 21
53.34399999999999
 31
0.0
  0
LINE
  5
167
330
1E
100
AcDbEntity
  8
0
100
AcDbLine
 10
235.4860799999999
 20
60.0
 30
0.0
 11
235.4860799999999
 21
65.888
 31
0.0
  0
LINE
  5
168
330
1E
100
AcDbEntity
  8
0
100
AcDbLine
 10
235.4860799999999
 20
60.0
 30
0.0
 11
235.4860799999999
 21
54.112
 31
0.0
  0
LINE
  5
169
330
1E
100
AcDbEntity
  8
0
100
AcDbLine
 10
4.30299999999997
 20
67.812
 30
0.0
 11
6.430179999999969
 21
68.676
 31
0.0
  0
LINE
  5
16A
330
1E
100
AcDbEntity
  8
0
100
AcDbLine
 10
13.09538
 20
67.812
 30
0.0
 11
13.3775274866971
 21
67.59577201658129
 31
0.0
  0
LINE
  5
16B
330
1E
100
AcDbEntity
  8
0
100
AcDbLine
 10
13.09538
 20
67.812
 30
0.0
 11
13.3775274866971
 21
67.59577201658129
 31
0.0
  0
LINE
  5
16C
330
1E
100
AcDbEntity
  8
0
100
AcDbLine
 10
13.39747999999999
 20
68.4
 30
0.0
 11
13.95318
 21
76.2
 31
0.0
  0
LINE
  5
16D
330
1E
100
AcDbEntity
  8
0
100
AcDbLine
 10
6.430179999999969
 20
68.676
 30
0.0
 11
8.699179999999969
 21
69.0
 31
0.0
  0
LINE
  5
16E
330
1E
100
AcDbEntity
  8
0
100
AcDbLine
 10
8.699179999999969
 20
69.0
 30
0.0
 11
10.96818
 21
68.676
 31
0.0
  0
LINE
  5
16F
330
1E
100
AcDbEntity
  8
0
100
AcDbLine
 10
8.699179999999969
 20
69.0
 30
0.0
 11
13.44022615384609
 21
69.0
 31
0.0
  0
LINE
  5
170
330
1E
100
AcDbEntity
  8
0
100
AcDbLine
 10
10.96818
 20
68.676
 30
0.0
 11
13.09538
 21
67.812
 31
0.0
  0
LINE
  5
171
330
1E
100
AcDbEntity
  8
0
100
AcDbLine
 10
51.52908
 20
70.24
 30
0.0
 11
52.19587999999999
 21
79.84
 31
0.0
  0
LINE
  5
17D
330
1E
100
AcDbEntity
  8
0
100
AcDbLine
 10
57.43798
 20
70.24
 30
0.0
 11
58.10478
 21
79.84
 31
0.0
  0
LINE
  5
17E
330
1E
100
AcDbEntity
  8
0
100
AcDbLine
 10
13.98138
 20
68.59999999999999
 30
0.0
 11
14.55438
 21
76.7
 31
0.0
  0
LINE
  5
17F
330
1E
100
AcDbEntity
  8
0
100
AcDbLine
 10
221.4860799999999
 20
70.384
 30
0.0
 11
221.4860799999999
 21
72.116
 31
0.0
  0
LINE
  5
180
330
1E
100
AcDbEntity
  8
0
100
AcDbLine
 10
221.4860799999999
 20
70.384
 30
0.0
 11
221.4860799999999
 21
71.884
 31
0.0
  0
LINE
  5
185
330
1E
100
AcDbEntity
  8
0
100
AcDbLine
 10
221.4860799999999
 20
71.884
 30
0.0
 11
235.4860799999999
 21
71.884
 31
0.0
  0
LINE
  5
186
330
1E
100
AcDbEntity
  8
0
100
AcDbLine
 10
221.4860799999999
 20
71.884
 30
0.0
 11
221.4860799999999
 21
70.384
 31
0.0
  0
LINE
  5
187
330
1E
100
AcDbEntity
  8
0
100
AcDbLine
 10
221.4860799999999
 20
71.884
 30
0.0
 11
221.4860799999999
 21
73.616
 31
0.0
  0
LINE
  5
188
330
1E
100
AcDbEntity
  8
0
100
AcDbLine
 10
221.4860799999999
 20
72.116
 30
0.0
 11
221.4860799999999
 21
73.616
 31
0.0
  0
LINE
  5
189
330
1E
100
AcDbEntity
  8
0
100
AcDbLine
 10
221.4860799999999
 20
72.116
 30
0.0
 11
221.4860799999999
 21
70.384
 31
0.0
  0
LINE
  5
18A
330
1E
100
AcDbEntity
  8
0
100
AcDbLine
 10
221.4860799999999
 20
73.616
 30
0.0
 11
235.4860799999999
 21
73.616
 31
0.0
  0
LINE
  5
18B
330
1E
100
AcDbEntity
  8
0
100
AcDbLine
 10
221.4860799999999
 20
73.616
 30
0.0
 11
221.4860799999999
 21
71.884
 31
0.0
  0
LINE
  5
18C
330
1E
100
AcDbEntity
  8
0
100
AcDbLine
 10
221.4860799999999
 20
73.616
 30
0.0
 11
221.4860799999999
 21
72.116
 31
0.0
  0
LINE
  5
18D
330
1E
100
AcDbEntity
  8
0
100
AcDbLine
 10
235.4860799999999
 20
71.884
 30
0.0
 11
235.4860799999999
 21
73.616
 31
0.0
  0
LINE
  5
18E
330
1E
100
AcDbEntity
  8
0
100
AcDbLine
 10
235.4860799999999
 20
71.884
 30
0.0
 11
235.4860799999999
 21
70.384
 31
0.0
  0
LINE
  5
18F
330
1E
100
AcDbEntity
  8
0
100
AcDbLine
 10
235.4860799999999
 20
70.384
 30
0.0
 11
235.4860799999999
 21
65.888
 31
0.0
  0
LINE
  5
190
330
1E
100
AcDbEntity
  8
0
100
AcDbLine
 10
235.4860799999999
 20
70.384
 30
0.0
 11
235.4860799999999
 21
71.884
 31
0.0
  0
LINE
  5
191
330
1E
100
AcDbEntity
  8
0
100
AcDbLine
 10
221.4860799999999
 20
71.408
 30
0.0
 11
221.4860799999999
 21
76.28399999999999
 31
0.0
  0
LINE
  5
192
330
1E
100
AcDbEntity
  8
0
100
AcDbLine
 10
221.4860799999999
 20
71.408
 30
0.0
 11
221.4860799999999
 21
65.888
 31
0.0
  0
LINE
  5
19C
330
1E
100
AcDbEntity
  8
0
100
AcDbLine
 10
13.95318
 20
76.2
 30
0.0
 11
14.83877999999999
 21
83.0
 31
0.0
  0
LINE
  5
1A7
330
1E
100
AcDbEntity
  8
0
100
AcDbLine
 10
14.55438
 20
76.7
 30
0.0
 11
15.47477999999999
 21
83.7
 31
0.0
  0
LINE
  5
1A8
330
1E
100
AcDbEntity
  8
0
100
AcDbLine
 10
221.4860799999999
 20
76.28399999999999
 30
0.0
 11
221.4860799999999
 21
79.964
 31
0.0
  0
LINE
  5
1A9
330
1E
100
AcDbEntity
  8
0
100
AcDbLine
 10
221.4860799999999
 20
76.28399999999999
 30
0.0
 11
221.4860799999999
 21
71.408
 31
0.0
  0
LINE
  5
1AA
330
1E
100
AcDbEntity
  8
0
100
AcDbLine
 10
235.4860799999999
 20
73.616
 30
0.0
 11
235.4860799999999
 21
76.28399999999999
 31
0.0
  0
LINE
  5
1AB
330
1E
100
AcDbEntity
  8
0
100
AcDbLine
 10
235.4860799999999
 20
73.616
 30
0.0
 11
235.4860799999999
 21
71.884
 31
0.0
  0
LINE
  5
1AC
330
1E
100
AcDbEntity
  8
0
100
AcDbLine
 10
235.4860799999999
 20
76.28399999999999
 30
0.0
 11
235.4860799999999
 21
79.964
 31
0.0
  0
LINE
  5
1AD
330
1E
100
AcDbEntity
  8
0
100
AcDbLine
 10
235.4860799999999
 20
76.28399999999999
 30
0.0
 11
235.4860799999999
 21
73.616
 31
0.0
  0
LINE
  5
1AE
330
1E
100
AcDbEntity
  8
0
100
AcDbLine
 10
235.4860799999999
 20
66.65600000000001
 30
0.0
 11
235.4860799999999
 21
72.896
 31
0.0
  0
LINE
  5
1AF
330
1E
100
AcDbEntity
  8
0
100
AcDbLine
 10
235.4860799999999
 20
66.65600000000001
 30
0.0
 11
235.4860799999999
 21
60.0
 31
0.0
  0
LINE
  5
1B0
330
1E
100
AcDbEntity
  8
0
100
AcDbLine
 10
235.4860799999999
 20
72.896
 30
0.0
 11
235.4860799999999
 21
78.408
 31
0.0
  0
LINE
  5
1B1
330
1E
100
AcDbEntity
  8
0
100
AcDbLine
 10
235.4860799999999
 20
72.896
 30
0.0
 11
235.4860799999999
 21
66.65600000000001
 31
0.0
  0
LINE
  5
1B2
330
1E
100
AcDbEntity
  8
0
100
AcDbLine
 10
52.19587999999999
 20
79.84
 30
0.0
 11
53.30728
 21
88.31999999999998
 31
0.0
  0
LINE
  5
1B4
330
1E
100
AcDbEntity
  8
0
100
AcDbLine
 10
58.10478
 20
79.84
 30
0.0
 11
59.21608
 21
88.31999999999998
 31
0.0
  0
LINE
  5
1B8
330
1E
100
AcDbEntity
  8
0
100
AcDbLine
 10
112.54208
 20
80.0
 30
0.0
 11
115.63908
 21
80.0
 31
0.0
  0
LINE
  5
1B9
330
1E
100
AcDbEntity
  8
0
100
AcDbLine
 10
115.63908
 20
80.0
 30
0.0
 11
120.5660799999999
 21
80.0
 31
0.0
  0
LINE
  5
1BA
330
1E
100
AcDbEntity
  8
0
100
AcDbLine
 10
134.46308
 20
80.0
 30
0.0
 11
142.48608
 21
80.0
 31
0.0
  0
LINE
  5
1BB
330
1E
100
AcDbEntity
  8
0
100
AcDbLine
 10
126.98608
 20
80.0
 30
0.0
 11
134.46308
 21
80.0
 31
0.0
  0
LINE
  5
1BC
330
1E
100
AcDbEntity
  8
0
100
AcDbLine
 10
120.5660799999999
 20
80.0
 30
0.0
 11
126.98608
 21
80.0
 31
0.0
  0
LINE
  5
1C2
330
1E
100
AcDbEntity
  8
0
100
AcDbLine
 10
142.48608
 20
80.0
 30
0.0
 11
221.4860799999999
 21
80.0
 31
0.0
  0
LINE
  5
1C6
330
1E
100
AcDbEntity
  8
0
100
AcDbLine
 10
221.4860799999999
 20
79.964
 30
0.0
 11
221.4860799999999
 21
82.17200000000001
 31
0.0
  0
LINE
  5
1C7
330
1E
100
AcDbEntity
  8
0
100
AcDbLine
 10
221.4860799999999
 20
79.964
 30
0.0
 11
221.4860799999999
 21
76.28399999999999
 31
0.0
  0
LINE
  5
1C8
330
1E
100
AcDbEntity
  8
0
100
AcDbLine
 10
221.4860799999999
 20
80.0
 30
0.0
 11
221.4860799999999
 21
82.17200000000001
 31
0.0
  0
LINE
  5
1CF
330
1E
100
AcDbEntity
  8
0
100
AcDbLine
 10
14.83877999999999
 20
83.0
 30
0.0
 11
16.01957999999999
 21
88.1
 31
0.0
  0
LINE
  5
1D7
330
1E
100
AcDbEntity
  8
0
100
AcDbLine
 10
15.47477999999999
 20
83.7
 30
0.0
 11
16.69027999999999
 21
89.0
 31
0.0
  0
LINE
  5
1D8
330
1E
100
AcDbEntity
  8
0
100
AcDbLine
 10
221.4860799999999
 20
82.5
 30
0.0
 11
221.4860799999999
 21
85.5
 31
0.0
  0
LINE
  5
1D9
330
1E
100
AcDbEntity
  8
0
100
AcDbLine
 10
221.4860799999999
 20
82.17200000000001
 30
0.0
 11
221.4860799999999
 21
80.0
 31
0.0
  0
LINE
  5
1DA
330
1E
100
AcDbEntity
  8
0
100
AcDbLine
 10
221.4860799999999
 20
82.17200000000001
 30
0.0
 11
221.4860799999999
 21
83.0
 31
0.0
  0
LINE
  5
1DB
330
1E
100
AcDbEntity
  8
0
100
AcDbLine
 10
221.4860799999999
 20
82.17200000000001
 30
0.0
 11
221.4860799999999
 21
79.964
 31
0.0
  0
LINE
  5
1DC
330
1E
100
AcDbEntity
  8
0
100
AcDbLine
 10
235.4860799999999
 20
79.964
 30
0.0
 11
235.4860799999999
 21
82.17200000000001
 31
0.0
  0
LINE
  5
1DD
330
1E
100
AcDbEntity
  8
0
100
AcDbLine
 10
235.4860799999999
 20
79.964
 30
0.0
 11
235.4860799999999
 21
76.28399999999999
 31
0.0
  0
LINE
  5
1DE
330
1E
100
AcDbEntity
  8
0
100
AcDbLine
 10
235.4860799999999
 20
83.0
 30
0.0
 11
235.4860799999999
 21
82.17200000000001
 31
0.0
  0
LINE
  5
1DF
330
1E
100
AcDbEntity
  8
0
100
AcDbLine
 10
235.4860799999999
 20
83.0
 30
0.0
 11
235.4860799999999
 21
85.5
 31
0.0
  0
LINE
  5
1E0
330
1E
100
AcDbEntity
  8
0
100
AcDbLine
 10
235.4860799999999
 20
82.17200000000001
 30
0.0
 11
235.4860799999999
 21
83.0
 31
0.0
  0
LINE
  5
1E1
330
1E
100
AcDbEntity
  8
0
100
AcDbLine
 10
235.4860799999999
 20
82.17200000000001
 30
0.0
 11
235.4860799999999
 21
79.964
 31
0.0
  0
LINE
  5
1E2
330
1E
100
AcDbEntity
  8
0
100
AcDbLine
 10
221.4860799999999
 20
83.0
 30
0.0
 11
221.4860799999999
 21
82.17200000000001
 31
0.0
  0
LINE
  5
1E3
330
1E
100
AcDbEntity
  8
0
100
AcDbLine
 10
235.4860799999999
 20
78.408
 30
0.0
 11
235.4860799999999
 21
82.568
 31
0.0
  0
LINE
  5
1E4
330
1E
100
AcDbEntity
  8
0
100
AcDbLine
 10
235.4860799999999
 20
78.408
 30
0.0
 11
235.4860799999999
 21
72.896
 31
0.0
  0
LINE
  5
1E5
330
1E
100
AcDbEntity
  8
0
100
AcDbLine
 10
235.4860799999999
 20
82.568
 30
0.0
 11
235.4860799999999
 21
85.06399999999999
 31
0.0
  0
LINE
  5
1E6
330
1E
100
AcDbEntity
  8
0
100
AcDbLine
 10
235.4860799999999
 20
82.568
 30
0.0
 11
235.4860799999999
 21
78.408
 31
0.0
  0
LINE
  5
1E7
330
1E
100
AcDbEntity
  8
0
100
AcDbLine
 10
221.4860799999999
 20
85.5
 30
0.0
 11
235.4860799999999
 21
85.5
 31
0.0
  0
LINE
  5
1E8
330
1E
100
AcDbEntity
  8
0
100
AcDbLine
 10
221.4860799999999
 20
85.5
 30
0.0
 11
221.4860799999999
 21
82.5
 31
0.0
  0
LINE
  5
1E9
330
1E
100
AcDbEntity
  8
0
100
AcDbLine
 10
235.4860799999999
 20
85.06399999999999
 30
0.0
 11
235.4860799999999
 21
86.0
 31
0.0
  0
LINE
  5
1EA
330
1E
100
AcDbEntity
  8
0
100
AcDbLine
 10
235.4860799999999
 20
85.06399999999999
 30
0.0
 11
235.4860799999999
 21
82.568
 31
0.0
  0
LINE
  5
1EB
330
1E
100
AcDbEntity
  8
0
100
AcDbLine
 10
237.4860799999999
 20
23.0
 30
0.0
 11
237.4860799999999
 21
23.324
 31
0.0
  0
LINE
  5
1EC
330
1E
100
AcDbEntity
  8
0
100
AcDbLine
 10
237.4860799999999
 20
23.0
 30
0.0
 11
247.48608
 21
23.0
 31
0.0
  0
LINE
  5
1ED
330
1E
100
AcDbEntity
  8
0
100
AcDbLine
 10
237.4860799999999
 20
23.324
 30
0.0
 11
237.4860799999999
 21
24.188
 31
0.0
  0
LINE
  5
1EE
330
1E
100
AcDbEntity
  8
0
100
AcDbLine
 10
237.4860799999999
 20
23.324
 30
0.0
 11
237.4860799999999
 21
23.0
 31
0.0
  0
LINE
  5
1EF
330
1E
100
AcDbEntity
  8
0
100
AcDbLine
 10
237.4860799999999
 20
24.188
 30
0.0
 11
237.4860799999999
 21
25.0
 31
0.0
  0
LINE
  5
1F0
330
1E
100
AcDbEntity
  8
0
100
AcDbLine
 10
237.4860799999999
 20
24.188
 30
0.0
 11
237.4860799999999
 21
23.324
 31
0.0
  0
LINE
  5
1F1
330
1E
100
AcDbEntity
  8
0
100
AcDbLine
 10
237.4860799999999
 20
24.188
 30
0.0
 11
237.4860799999999
 21
25.628
 31
0.0
  0
LINE
  5
1F2
330
1E
100
AcDbEntity
  8
0
100
AcDbLine
 10
237.4860799999999
 20
25.0
 30
0.0
 11
237.4860799999999
 21
25.25199999999999
 31
0.0
  0
LINE
  5
1F3
330
1E
100
AcDbEntity
  8
0
100
AcDbLine
 10
237.4860799999999
 20
25.0
 30
0.0
 11
237.4860799999999
 21
24.188
 31
0.0
  0
LINE
  5
1F4
330
1E
100
AcDbEntity
  8
0
100
AcDbLine
 10
237.4860799999999
 20
25.628
 30
0.0
 11
237.4860799999999
 21
24.188
 31
0.0
  0
LINE
  5
1F5
330
1E
100
AcDbEntity
  8
0
100
AcDbLine
 10
237.4860799999999
 20
25.628
 30
0.0
 11
237.4860799999999
 21
27.536
 31
0.0
  0
LINE
  5
1F6
330
1E
100
AcDbEntity
  8
0
100
AcDbLine
 10
237.4860799999999
 20
25.25199999999999
 30
0.0
 11
237.4860799999999
 21
25.0
 31
0.0
  0
LINE
  5
1F7
330
1E
100
AcDbEntity
  8
0
100
AcDbLine
 10
237.4860799999999
 20
25.25199999999999
 30
0.0
 11
237.4860799999999
 21
25.924
 31
0.0
  0
LINE
  5
1F8
330
1E
100
AcDbEntity
  8
0
100
AcDbLine
 10
237.4860799999999
 20
25.924
 30
0.0
 11
237.4860799999999
 21
25.25199999999999
 31
0.0
  0
LINE
  5
1F9
330
1E
100
AcDbEntity
  8
0
100
AcDbLine
 10
237.4860799999999
 20
25.924
 30
0.0
 11
237.4860799999999
 21
27.044
 31
0.0
  0
LINE
  5
1FA
330
1E
100
AcDbEntity
  8
0
100
AcDbLine
 10
237.4860799999999
 20
27.536
 30
0.0
 11
237.4860799999999
 21
25.628
 31
0.0
  0
LINE
  5
1FB
330
1E
100
AcDbEntity
  8
0
100
AcDbLine
 10
237.4860799999999
 20
27.536
 30
0.0
 11
237.4860799999999
 21
29.69599999999999
 31
0.0
  0
LINE
  5
1FC
330
1E
100
AcDbEntity
  8
0
100
AcDbLine
 10
237.4860799999999
 20
29.69599999999999
 30
0.0
 11
237.4860799999999
 21
27.536
 31
0.0
  0
LINE
  5
1FD
330
1E
100
AcDbEntity
  8
0
100
AcDbLine
 10
237.4860799999999
 20
29.69599999999999
 30
0.0
 11
237.4860799999999
 21
32.0
 31
0.0
  0
LINE
  5
1FE
330
1E
100
AcDbEntity
  8
0
100
AcDbLine
 10
237.4860799999999
 20
27.044
 30
0.0
 11
237.4860799999999
 21
25.924
 31
0.0
  0
LINE
  5
1FF
330
1E
100
AcDbEntity
  8
0
100
AcDbLine
 10
237.4860799999999
 20
27.044
 30
0.0
 11
237.4860799999999
 21
28.528
 31
0.0
  0
LINE
  5
200
330
1E
100
AcDbEntity
  8
0
100
AcDbLine
 10
237.4860799999999
 20
28.528
 30
0.0
 11
237.4860799999999
 21
27.044
 31
0.0
  0
LINE
  5
201
330
1E
100
AcDbEntity
  8
0
100
AcDbLine
 10
237.4860799999999
 20
28.528
 30
0.0
 11
237.4860799999999
 21
30.208
 31
0.0
  0
LINE
  5
202
330
1E
100
AcDbEntity
  8
0
100
AcDbLine
 10
237.4860799999999
 20
34.304
 30
0.0
 11
237.4860799999999
 21
32.0
 31
0.0
  0
LINE
  5
203
330
1E
100
AcDbEntity
  8
0
100
AcDbLine
 10
237.4860799999999
 20
34.304
 30
0.0
 11
237.4860799999999
 21
36.46399999999999
 31
0.0
  0
LINE
  5
204
330
1E
100
AcDbEntity
  8
0
100
AcDbLine
 10
237.4860799999999
 20
30.208
 30
0.0
 11
237.4860799999999
 21
28.528
 31
0.0
  0
LINE
  5
205
330
1E
100
AcDbEntity
  8
0
100
AcDbLine
 10
237.4860799999999
 20
30.208
 30
0.0
 11
237.4860799999999
 21
32.0
 31
0.0
  0
LINE
  5
206
330
1E
100
AcDbEntity
  8
0
100
AcDbLine
 10
237.4860799999999
 20
32.0
 30
0.0
 11
237.4860799999999
 21
33.792
 31
0.0
  0
LINE
  5
207
330
1E
100
AcDbEntity
  8
0
100
AcDbLine
 10
237.4860799999999
 20
32.0
 30
0.0
 11
237.4860799999999
 21
30.208
 31
0.0
  0
LINE
  5
208
330
1E
100
AcDbEntity
  8
0
100
AcDbLine
 10
237.4860799999999
 20
32.0
 30
0.0
 11
237.4860799999999
 21
34.304
 31
0.0
  0
LINE
  5
209
330
1E
100
AcDbEntity
  8
0
100
AcDbLine
 10
237.4860799999999
 20
32.0
 30
0.0
 11
237.4860799999999
 21
29.69599999999999
 31
0.0
  0
LINE
  5
20A
330
1E
100
AcDbEntity
  8
0
100
AcDbLine
 10
237.4860799999999
 20
36.46399999999999
 30
0.0
 11
237.4860799999999
 21
34.304
 31
0.0
  0
LINE
  5
20B
330
1E
100
AcDbEntity
  8
0
100
AcDbLine
 10
237.4860799999999
 20
36.46399999999999
 30
0.0
 11
237.4860799999999
 21
38.372
 31
0.0
  0
LINE
  5
20C
330
1E
100
AcDbEntity
  8
0
100
AcDbLine
 10
237.4860799999999
 20
36.95599999999999
 30
0.0
 11
237.4860799999999
 21
35.472
 31
0.0
  0
LINE
  5
20D
330
1E
100
AcDbEntity
  8
0
100
AcDbLine
 10
237.4860799999999
 20
36.95599999999999
 30
0.0
 11
237.4860799999999
 21
38.076
 31
0.0
  0
LINE
  5
20E
330
1E
100
AcDbEntity
  8
0
100
AcDbLine
 10
237.4860799999999
 20
35.472
 30
0.0
 11
237.4860799999999
 21
33.792
 31
0.0
  0
LINE
  5
20F
330
1E
100
AcDbEntity
  8
0
100
AcDbLine
 10
237.4860799999999
 20
35.472
 30
0.0
 11
237.4860799999999
 21
36.95599999999999
 31
0.0
  0
LINE
  5
210
330
1E
100
AcDbEntity
  8
0
100
AcDbLine
 10
237.4860799999999
 20
33.792
 30
0.0
 11
237.4860799999999
 21
32.0
 31
0.0
  0
LINE
  5
211
330
1E
100
AcDbEntity
  8
0
100
AcDbLine
 10
237.4860799999999
 20
33.792
 30
0.0
 11
237.4860799999999
 21
35.472
 31
0.0
  0
LINE
  5
212
330
1E
100
AcDbEntity
  8
0
100
AcDbLine
 10
237.4860799999999
 20
41.0
 30
0.0
 11
247.48608
 21
41.0
 31
0.0
  0
LINE
  5
213
330
1E
100
AcDbEntity
  8
0
100
AcDbLine
 10
237.4860799999999
 20
39.81199999999999
 30
0.0
 11
237.4860799999999
 21
38.372
 31
0.0
  0
LINE
  5
214
330
1E
100
AcDbEntity
  8
0
100
AcDbLine
 10
237.4860799999999
 20
38.372
 30
0.0
 11
237.4860799999999
 21
36.46399999999999
 31
0.0
  0
LINE
  5
215
330
1E
100
AcDbEntity
  8
0
100
AcDbLine
 10
237.4860799999999
 20
38.372
 30
0.0
 11
237.4860799999999
 21
39.81199999999999
 31
0.0
  0
LINE
  5
216
330
1E
100
AcDbEntity
  8
0
100
AcDbLine
 10
237.4860799999999
 20
53.34399999999999
 30
0.0
 11
237.4860799999999
 21
60.0
 31
0.0
  0
LINE
  5
217
330
1E
100
AcDbEntity
  8
0
100
AcDbLine
 10
237.4860799999999
 20
53.34399999999999
 30
0.0
 11
237.4860799999999
 21
47.10399999999999
 31
0.0
  0
LINE
  5
218
330
1E
100
AcDbEntity
  8
0
100
AcDbLine
 10
237.4860799999999
 20
47.10399999999999
 30
0.0
 11
237.4860799999999
 21
53.34399999999999
 31
0.0
  0
LINE
  5
219
330
1E
100
AcDbEntity
  8
0
100
AcDbLine
 10
237.4860799999999
 20
47.10399999999999
 30
0.0
 11
237.4860799999999
 21
41.592
 31
0.0
  0
LINE
  5
21A
330
1E
100
AcDbEntity
  8
0
100
AcDbLine
 10
237.4860799999999
 20
41.592
 30
0.0
 11
237.4860799999999
 21
47.10399999999999
 31
0.0
  0
LINE
  5
21B
330
1E
100
AcDbEntity
  8
0
100
AcDbLine
 10
237.4860799999999
 20
41.592
 30
0.0
 11
237.4860799999999
 21
38.076
 31
0.0
  0
LINE
  5
21C
330
1E
100
AcDbEntity
  8
0
100
AcDbLine
 10
237.4860799999999
 20
38.076
 30
0.0
 11
237.4860799999999
 21
41.592
 31
0.0
  0
LINE
  5
21D
330
1E
100
AcDbEntity
  8
0
100
AcDbLine
 10
237.4860799999999
 20
38.076
 30
0.0
 11
237.4860799999999
 21
36.95599999999999
 31
0.0
  0
LINE
  5
21E
330
1E
100
AcDbEntity
  8
0
100
AcDbLine
 10
237.4860799999999
 20
60.0
 30
0.0
 11
237.4860799999999
 21
66.65600000000001
 31
0.0
  0
LINE
  5
21F
330
1E
100
AcDbEntity
  8
0
100
AcDbLine
 10
237.4860799999999
 20
60.0
 30
0.0
 11
237.4860799999999
 21
53.34399999999999
 31
0.0
  0
LINE
  5
220
330
1E
100
AcDbEntity
  8
0
100
AcDbLine
 10
237.4860799999999
 20
66.65600000000001
 30
0.0
 11
237.4860799999999
 21
72.896
 31
0.0
  0
LINE
  5
221
330
1E
100
AcDbEntity
  8
0
100
AcDbLine
 10
237.4860799999999
 20
66.65600000000001
 30
0.0
 11
237.4860799999999
 21
60.0
 31
0.0
  0
LINE
  5
222
330
1E
100
AcDbEntity
  8
0
100
AcDbLine
 10
237.4860799999999
 20
72.896
 30
0.0
 11
237.4860799999999
 21
78.408
 31
0.0
  0
LINE
  5
223
330
1E
100
AcDbEntity
  8
0
100
AcDbLine
 10
237.4860799999999
 20
72.896
 30
0.0
 11
237.4860799999999
 21
66.65600000000001
 31
0.0
  0
LINE
  5
224
330
1E
100
AcDbEntity
  8
0
100
AcDbLine
 10
237.4860799999999
 20
80.0
 30
0.0
 11
274.371513962264
 21
80.0
 31
0.0
  0
LINE
  5
225
330
1E
100
AcDbEntity
  8
0
100
AcDbLine
 10
237.4860799999999
 20
80.0
 30
0.0
 11
274.371513962264
 21
80.0
 31
0.0
  0
LINE
  5
226
330
1E
100
AcDbEntity
  8
0
100
AcDbLine
 10
237.4860799999999
 20
78.408
 30
0.0
 11
237.4860799999999
 21
82.568
 31
0.0
  0
LINE
  5
227
330
1E
100
AcDbEntity
  8
0
100
AcDbLine
 10
237.4860799999999
 20
78.408
 30
0.0
 11
237.4860799999999
 21
72.896
 31
0.0
  0
LINE
  5
228
330
1E
100
AcDbEntity
  8
0
100
AcDbLine
 10
247.48608
 20
23.0
 30
0.0
 11
247.48608
 21
23.324
 31
0.0
  0
LINE
  5
229
330
1E
100
AcDbEntity
  8
0
100
AcDbLine
 10
247.48608
 20
23.324
 30
0.0
 11
247.48608
 21
23.0
 31
0.0
  0
LINE
  5
22A
330
1E
100
AcDbEntity
  8
0
100
AcDbLine
 10
247.48608
 20
23.324
 30
0.0
 11
247.48608
 21
24.188
 31
0.0
  0
LINE
  5
22B
330
1E
100
AcDbEntity
  8
0
100
AcDbLine
 10
247.48608
 20
24.188
 30
0.0
 11
247.48608
 21
23.324
 31
0.0
  0
LINE
  5
22C
330
1E
100
AcDbEntity
  8
0
100
AcDbLine
 10
247.48608
 20
24.188
 30
0.0
 11
247.48608
 21
25.628
 31
0.0
  0
LINE
  5
22D
330
1E
100
AcDbEntity
  8
0
100
AcDbLine
 10
247.48608
 20
25.628
 30
0.0
 11
247.48608
 21
24.188
 31
0.0
  0
LINE
  5
22E
330
1E
100
AcDbEntity
  8
0
100
AcDbLine
 10
247.48608
 20
25.628
 30
0.0
 11
247.48608
 21
27.536
 31
0.0
  0
LINE
  5
22F
330
1E
100
AcDbEntity
  8
0
100
AcDbLine
 10
247.48608
 20
27.536
 30
0.0
 11
247.48608
 21
25.628
 31
0.0
  0
LINE
  5
230
330
1E
100
AcDbEntity
  8
0
100
AcDbLine
 10
247.48608
 20
27.536
 30
0.0
 11
247.48608
 21
29.69599999999999
 31
0.0
  0
LINE
  5
231
330
1E
100
AcDbEntity
  8
0
100
AcDbLine
 10
247.48608
 20
29.69599999999999
 30
0.0
 11
247.48608
 21
27.536
 31
0.0
  0
LINE
  5
232
330
1E
100
AcDbEntity
  8
0
100
AcDbLine
 10
247.48608
 20
29.69599999999999
 30
0.0
 11
247.48608
 21
32.0
 31
0.0
  0
LINE
  5
233
330
1E
100
AcDbEntity
  8
0
100
AcDbLine
 10
247.48608
 20
32.0
 30
0.0
 11
247.48608
 21
34.304
 31
0.0
  0
LINE
  5
234
330
1E
100
AcDbEntity
  8
0
100
AcDbLine
 10
247.48608
 20
32.0
 30
0.0
 11
247.48608
 21
29.69599999999999
 31
0.0
  0
LINE
  5
235
330
1E
100
AcDbEntity
  8
0
100
AcDbLine
 10
247.48608
 20
39.81199999999999
 30
0.0
 11
247.48608
 21
38.372
 31
0.0
  0
LINE
  5
236
330
1E
100
AcDbEntity
  8
0
100
AcDbLine
 10
247.48608
 20
39.81199999999999
 30
0.0
 11
247.48608
 21
40.676
 31
0.0
  0
LINE
  5
237
330
1E
100
AcDbEntity
  8
0
100
AcDbLine
 10
247.48608
 20
38.372
 30
0.0
 11
247.48608
 21
36.46399999999999
 31
0.0
  0
LINE
  5
238
330
1E
100
AcDbEntity
  8
0
100
AcDbLine
 10
247.48608
 20
38.372
 30
0.0
 11
247.48608
 21
39.81199999999999
 31
0.0
  0
LINE
  5
239
330
1E
100
AcDbEntity
  8
0
100
AcDbLine
 10
247.48608
 20
36.46399999999999
 30
0.0
 11
247.48608
 21
34.304
 31
0.0
  0
LINE
  5
23A
330
1E
100
AcDbEntity
  8
0
100
AcDbLine
 10
247.48608
 20
36.46399999999999
 30
0.0
 11
247.48608
 21
38.372
 31
0.0
  0
LINE
  5
23B
330
1E
100
AcDbEntity
  8
0
100
AcDbLine
 10
247.48608
 20
34.304
 30
0.0
 11
247.48608
 21
32.0
 31
0.0
  0
LINE
  5
23C
330
1E
100
AcDbEntity
  8
0
100
AcDbLine
 10
247.48608
 20
34.304
 30
0.0
 11
247.48608
 21
36.46399999999999
 31
0.0
  0
LINE
  5
23D
330
1E
100
AcDbEntity
  8
0
100
AcDbLine
 10
247.48608
 20
25.0
 30
0.0
 11
257.4860799999999
 21
25.0
 31
0.0
  0
LINE
  5
23E
330
1E
100
AcDbEntity
  8
0
100
AcDbLine
 10
257.4860799999999
 20
23.0
 30
0.0
 11
257.4860799999999
 21
60.0
 31
0.0
  0
LINE
  5
23F
330
1E
100
AcDbEntity
  8
0
100
AcDbLine
 10
257.4860799999999
 20
23.0
 30
0.0
 11
287.4860799999999
 21
23.0
 31
0.0
  0
LINE
  5
240
330
1E
100
AcDbEntity
  8
0
100
AcDbLine
 10
257.4860799999999
 20
25.0
 30
0.0
 11
257.4860799999999
 21
23.0
 31
0.0
  0
LINE
  5
241
330
1E
100
AcDbEntity
  8
0
100
AcDbLine
 10
257.4860799999999
 20
40.0
 30
0.0
 11
257.4860799999999
 21
39.0
 31
0.0
  0
LINE
  5
242
330
1E
100
AcDbEntity
  8
0
100
AcDbLine
 10
257.4860799999999
 20
39.0
 30
0.0
 11
257.4860799999999
 21
40.0
 31
0.0
  0
LINE
  5
243
330
1E
100
AcDbEntity
  8
0
100
AcDbLine
 10
257.4860799999999
 20
23.0
 30
0.0
 11
257.4860799999999
 21
25.0
 31
0.0
  0
LINE
  5
244
330
1E
100
AcDbEntity
  8
0
100
AcDbLine
 10
257.4860799999999
 20
23.0
 30
0.0
 11
287.4860799999999
 21
23.0
 31
0.0
  0
LINE
  5
245
330
1E
100
AcDbEntity
  8
0
100
AcDbLine
 10
247.48608
 20
39.0
 30
0.0
 11
257.4860799999999
 21
39.0
 31
0.0
  0
LINE
  5
246
330
1E
100
AcDbEntity
  8
0
100
AcDbLine
 10
247.48608
 20
41.0
 30
0.0
 11
247.48608
 21
40.676
 31
0.0
  0
LINE
  5
247
330
1E
100
AcDbEntity
  8
0
100
AcDbLine
 10
268.4860799999999
 20
60.0
 30
0.0
 11
269.8540799999999
 21
50.272
 31
0.0
  0
LINE
  5
248
330
1E
100
AcDbEntity
  8
0
100
AcDbLine
 10
268.4860799999999
 20
60.0
 30
0.0
 11
269.8540799999999
 21
69.72800000000001
 31
0.0
  0
LINE
  5
249
330
1E
100
AcDbEntity
  8
0
100
AcDbLine
 10
269.8540799999999
 20
50.272
 30
0.0
 11
273.50208
 21
41.152
 31
0.0
  0
LINE
  5
24A
330
1E
100
AcDbEntity
  8
0
100
AcDbLine
 10
269.8540799999999
 20
69.72800000000001
 30
0.0
 11
273.50208
 21
78.848
 31
0.0
  0
LINE
  5
24B
330
1E
100
AcDbEntity
  8
0
100
AcDbLine
 10
257.4860799999999
 20
60.0
 30
0.0
 11
257.4860799999999
 21
23.0
 31
0.0
  0
LINE
  5
24C
330
1E
100
AcDbEntity
  8
0
100
AcDbLine
 10
257.4860799999999
 20
60.0
 30
0.0
 11
268.4860799999999
 21
60.0
 31
0.0
  0
LINE
  5
24D
330
1E
100
AcDbEntity
  8
0
100
AcDbLine
 10
247.48608
 20
40.676
 30
0.0
 11
247.48608
 21
39.81199999999999
 31
0.0
  0
LINE
  5
24E
330
1E
100
AcDbEntity
  8
0
100
AcDbLine
 10
247.48608
 20
40.676
 30
0.0
 11
247.48608
 21
41.0
 31
0.0
  0
LINE
  5
24F
330
1E
100
AcDbEntity
  8
0
100
AcDbLine
 10
247.48608
 20
40.0
 30
0.0
 11
257.4860799999999
 21
40.0
 31
0.0
  0
LINE
  5
250
330
1E
100
AcDbEntity
  8
0
100
AcDbLine
 10
237.4860799999999
 20
82.568
 30
0.0
 11
237.4860799999999
 21
85.06399999999999
 31
0.0
  0
LINE
  5
251
330
1E
100
AcDbEntity
  8
0
100
AcDbLine
 10
237.4860799999999
 20
82.568
 30
0.0
 11
237.4860799999999
 21
78.408
 31
0.0
  0
LINE
  5
252
330
1E
100
AcDbEntity
  8
0
100
AcDbLine
 10
237.4860799999999
 20
86.0
 30
0.0
 11
237.4860799999999
 21
85.06399999999999
 31
0.0
  0
LINE
  5
253
330
1E
100
AcDbEntity
  8
0
100
AcDbLine
 10
237.4860799999999
 20
85.06399999999999
 30
0.0
 11
237.4860799999999
 21
86.0
 31
0.0
  0
LINE
  5
254
330
1E
100
AcDbEntity
  8
0
100
AcDbLine
 10
237.4860799999999
 20
85.06399999999999
 30
0.0
 11
237.4860799999999
 21
82.568
 31
0.0
  0
LINE
  5
255
330
1E
100
AcDbEntity
  8
0
100
AcDbLine
 10
235.4860799999999
 20
85.5
 30
0.0
 11
235.4860799999999
 21
86.0
 31
0.0
  0
LINE
  5
256
330
1E
100
AcDbEntity
  8
0
100
AcDbLine
 10
235.4860799999999
 20
85.5
 30
0.0
 11
235.4860799999999
 21
83.0
 31
0.0
  0
LINE
  5
257
330
1E
100
AcDbEntity
  8
0
100
AcDbLine
 10
16.01957999999999
 20
88.1
 30
0.0
 11
17.37397999999999
 21
91.3
 31
0.0
  0
LINE
  5
258
330
1E
100
AcDbEntity
  8
0
100
AcDbLine
 10
17.37397999999999
 20
91.3
 30
0.0
 11
18.09687999999999
 21
92.3
 31
0.0
  0
LINE
  5
259
330
1E
100
AcDbEntity
  8
0
100
AcDbLine
 10
16.69027999999999
 20
89.0
 30
0.0
 11
18.09687999999999
 21
92.3
 31
0.0
  0
LINE
  5
25A
330
1E
100
AcDbEntity
  8
0
100
AcDbLine
 10
19.59018
 20
93.49999999999999
 30
0.0
 11
21.10527999999999
 21
94.0
 31
0.0
  0
LINE
  5
25B
330
1E
100
AcDbEntity
  8
0
100
AcDbLine
 10
18.09687999999999
 20
92.3
 30
0.0
 11
19.59018
 21
93.49999999999999
 31
0.0
  0
LINE
  5
25C
330
1E
100
AcDbEntity
  8
0
100
AcDbLine
 10
53.30728
 20
88.31999999999998
 30
0.0
 11
54.77978
 21
94.71999999999999
 31
0.0
  0
LINE
  5
25D
330
1E
100
AcDbEntity
  8
0
100
AcDbLine
 10
58.22498
 20
100.0
 30
0.0
 11
64.13378
 21
100.0
 31
0.0
  0
LINE
  5
25E
330
1E
100
AcDbEntity
  8
0
100
AcDbLine
 10
56.44678
 20
98.56000000000001
 30
0.0
 11
58.22498
 21
100.0
 31
0.0
  0
LINE
  5
25F
330
1E
100
AcDbEntity
  8
0
100
AcDbLine
 10
54.77978
 20
94.71999999999999
 30
0.0
 11
56.44678
 21
98.56000000000001
 31
0.0
  0
LINE
  5
26B
330
1E
100
AcDbEntity
  8
0
100
AcDbLine
 10
62.35568
 20
98.56000000000001
 30
0.0
 11
64.13378
 21
100.0
 31
0.0
  0
LINE
  5
26C
330
1E
100
AcDbEntity
  8
0
100
AcDbLine
 10
60.68868000000001
 20
94.71999999999999
 30
0.0
 11
62.35568
 21
98.56000000000001
 31
0.0
  0
LINE
  5
26D
330
1E
100
AcDbEntity
  8
0
100
AcDbLine
 10
59.21608
 20
88.31999999999998
 30
0.0
 11
60.68868000000001
 21
94.71999999999999
 31
0.0
  0
LINE
  5
26E
330
1E
100
AcDbEntity
  8
0
100
AcDbLine
 10
21.10527999999999
 20
94.0
 30
0.0
 11
54.61412375
 21
94.0
 31
0.0
  0
LINE
  5
26F
330
1E
100
AcDbEntity
  8
0
100
AcDbLine
 10
235.4860799999999
 20
86.0
 30
0.0
 11
235.4860799999999
 21
85.5
 31
0.0
  0
LINE
  5
270
330
1E
100
AcDbEntity
  8
0
100
AcDbLine
 10
235.4860799999999
 20
86.0
 30
0.0
 11
237.4860799999999
 21
86.0
 31
0.0
  0
LINE
  5
271
330
1E
100
AcDbEntity
  8
0
100
AcDbLine
 10
235.4860799999999
 20
86.0
 30
0.0
 11
235.4860799999999
 21
85.06399999999999
 31
0.0
  0
LINE
  5
272
330
1E
100
AcDbEntity
  8
0
100
AcDbLine
 10
273.50208
 20
41.152
 30
0.0
 11
279.5820799999999
 21
33.09599999999999
 31
0.0
  0
LINE
  5
273
330
1E
100
AcDbEntity
  8
0
100
AcDbLine
 10
279.5820799999999
 20
33.09599999999999
 30
0.0
 11
287.63808
 21
27.016
 31
0.0
  0
LINE
  5
274
330
1E
100
AcDbEntity
  8
0
100
AcDbLine
 10
287.63808
 20
27.016
 30
0.0
 11
296.7580799999999
 21
23.368
 31
0.0
  0
LINE
  5
275
330
1E
100
AcDbEntity
  8
0
100
AcDbLine
 10
287.4860799999999
 20
27.1307169811321
 30
0.0
 11
287.4860799999999
 21
23.0
 31
0.0
  0
LINE
  5
276
330
1E
100
AcDbEntity
  8
0
100
AcDbLine
 10
287.4860799999999
 20
23.0
 30
0.0
 11
289.4860799999999
 21
23.0
 31
0.0
  0
LINE
  5
277
330
1E
100
AcDbEntity
  8
0
100
AcDbLine
 10
287.4860799999999
 20
23.0
 30
0.0
 11
287.4860799999999
 21
27.1307169811321
 31
0.0
  0
LINE
  5
278
330
1E
100
AcDbEntity
  8
0
100
AcDbLine
 10
289.4860799999999
 20
23.0
 30
0.0
 11
289.4860799999999
 21
23.324
 31
0.0
  0
LINE
  5
279
330
1E
100
AcDbEntity
  8
0
100
AcDbLine
 10
289.4860799999999
 20
23.324
 30
0.0
 11
289.4860799999999
 21
23.0
 31
0.0
  0
LINE
  5
27A
330
1E
100
AcDbEntity
  8
0
100
AcDbLine
 10
289.4860799999999
 20
23.324
 30
0.0
 11
289.4860799999999
 21
24.188
 31
0.0
  0
LINE
  5
27B
330
1E
100
AcDbEntity
  8
0
100
AcDbLine
 10
306.4860799999999
 20
22.0
 30
0.0
 11
316.2140799999999
 21
23.368
 31
0.0
  0
LINE
  5
27C
330
1E
100
AcDbEntity
  8
0
100
AcDbLine
 10
296.7580799999999
 20
23.368
 30
0.0
 11
306.4860799999999
 21
22.0
 31
0.0
  0
LINE
  5
27D
330
1E
100
AcDbEntity
  8
0
100
AcDbLine
 10
296.7580799999999
 20
23.368
 30
0.0
 11
306.4860799999999
 21
22.0
 31
0.0
  0
LINE
  5
27E
330
1E
100
AcDbEntity
  8
0
100
AcDbLine
 10
289.4860799999999
 20
24.188
 30
0.0
 11
289.4860799999999
 21
23.324
 31
0.0
  0
LINE
  5
27F
330
1E
100
AcDbEntity
  8
0
100
AcDbLine
 10
289.4860799999999
 20
24.188
 30
0.0
 11
289.4860799999999
 21
25.628
 31
0.0
  0
LINE
  5
280
330
1E
100
AcDbEntity
  8
0
100
AcDbLine
 10
289.4860799999999
 20
25.628
 30
0.0
 11
289.4860799999999
 21
24.188
 31
0.0
  0
LINE
  5
281
330
1E
100
AcDbEntity
  8
0
100
AcDbLine
 10
289.4860799999999
 20
25.628
 30
0.0
 11
289.4860799999999
 21
26.2768
 31
0.0
  0
LINE
  5
282
330
1E
100
AcDbEntity
  8
0
100
AcDbLine
 10
316.2140799999999
 20
23.368
 30
0.0
 11
325.3340799999999
 21
27.016
 31
0.0
  0
LINE
  5
283
330
1E
100
AcDbEntity
  8
0
100
AcDbLine
 10
315.4460799999999
 20
26.26
 30
0.0
 11
323.8460799999999
 21
29.62
 31
0.0
  0
LINE
  5
284
330
1E
100
AcDbEntity
  8
0
100
AcDbLine
 10
306.4860799999999
 20
25.0
 30
0.0
 11
315.4460799999999
 21
26.26
 31
0.0
  0
LINE
  5
285
330
1E
100
AcDbEntity
  8
0
100
AcDbLine
 10
289.4860799999999
 20
26.2768
 30
0.0
 11
289.4860799999999
 21
25.628
 31
0.0
  0
LINE
  5
286
330
1E
100
AcDbEntity
  8
0
100
AcDbLine
 10
325.3340799999999
 20
27.016
 30
0.0
 11
333.3900799999999
 21
33.09599999999999
 31
0.0
  0
LINE
  5
287
330
1E
100
AcDbEntity
  8
0
100
AcDbLine
 10
323.8460799999999
 20
29.62
 30
0.0
 11
331.2660799999999
 21
35.22
 31
0.0
  0
LINE
  5
288
330
1E
100
AcDbEntity
  8
0
100
AcDbLine
 10
306.4860799999999
 20
35.0
 30
0.0
 11
312.8860799999999
 21
35.89999999999999
 31
0.0
  0
LINE
  5
289
330
1E
100
AcDbEntity
  8
0
100
AcDbLine
 10
333.26288
 20
33.0
 30
0.0
 11
379.4860799999999
 21
33.0
 31
0.0
  0
LINE
  5
28A
330
1E
100
AcDbEntity
  8
0
100
AcDbLine
 10
333.3900799999999
 20
33.09599999999999
 30
0.0
 11
339.4700799999999
 21
41.152
 31
0.0
  0
LINE
  5
28B
330
1E
100
AcDbEntity
  8
0
100
AcDbLine
 10
333.806683773585
 20
33.648
 30
0.0
 11
379.4860799999999
 21
33.648
 31
0.0
  0
LINE
  5
28C
330
1E
100
AcDbEntity
  8
0
100
AcDbLine
 10
379.4860799999999
 20
33.648
 30
0.0
 11
384.200221732283
 21
34.3214488188976
 31
0.0
  0
LINE
  5
28D
330
1E
100
AcDbEntity
  8
0
100
AcDbLine
 10
379.4860799999999
 20
33.0
 30
0.0
 11
386.39808
 21
33.972
 31
0.0
  0
LINE
  5
28E
330
1E
100
AcDbEntity
  8
0
100
AcDbLine
 10
386.39808
 20
33.972
 30
0.0
 11
386.4727620809249
 21
34.0018728323699
 31
0.0
  0
LINE
  5
28F
330
1E
100
AcDbEntity
  8
0
100
AcDbLine
 10
379.83008
 20
34.936
 30
0.0
 11
386.4860799999999
 21
34.0
 31
0.0
  0
LINE
  5
290
330
1E
100
AcDbEntity
  8
0
100
AcDbLine
 10
393.1420799999999
 20
34.936
 30
0.0
 11
399.3820799999999
 21
37.43199999999999
 31
0.0
  0
LINE
  5
291
330
1E
100
AcDbEntity
  8
0
100
AcDbLine
 10
386.4860799999999
 20
34.0
 30
0.0
 11
393.1420799999999
 21
34.936
 31
0.0
  0
LINE
  5
292
330
1E
100
AcDbEntity
  8
0
100
AcDbLine
 10
433.4860799999999
 20
34.5
 30
0.0
 11
447.48608
 21
34.5
 31
0.0
  0
LINE
  5
293
330
1E
100
AcDbEntity
  8
0
100
AcDbLine
 10
447.48608
 20
34.5
 30
0.0
 11
447.48608
 21
37.0
 31
0.0
  0
LINE
  5
294
330
1E
100
AcDbEntity
  8
0
100
AcDbLine
 10
433.4860799999999
 20
34.936
 30
0.0
 11
433.4860799999999
 21
37.43199999999999
 31
0.0
  0
LINE
  5
295
330
1E
100
AcDbEntity
  8
0
100
AcDbLine
 10
433.4860799999999
 20
34.936
 30
0.0
 11
433.4860799999999
 21
34.0
 31
0.0
  0
LINE
  5
296
330
1E
100
AcDbEntity
  8
0
100
AcDbLine
 10
433.4860799999999
 20
34.0
 30
0.0
 11
433.4860799999999
 21
34.936
 31
0.0
  0
LINE
  5
297
330
1E
100
AcDbEntity
  8
0
100
AcDbLine
 10
431.4860799999999
 20
34.0
 30
0.0
 11
431.4860799999999
 21
34.936
 31
0.0
  0
LINE
  5
298
330
1E
100
AcDbEntity
  8
0
100
AcDbLine
 10
431.4860799999999
 20
34.0
 30
0.0
 11
433.4860799999999
 21
34.0
 31
0.0
  0
LINE
  5
299
330
1E
100
AcDbEntity
  8
0
100
AcDbLine
 10
431.4860799999999
 20
34.936
 30
0.0
 11
431.4860799999999
 21
34.0
 31
0.0
  0
LINE
  5
29A
330
1E
100
AcDbEntity
  8
0
100
AcDbLine
 10
431.4860799999999
 20
34.936
 30
0.0
 11
431.4860799999999
 21
37.43199999999999
 31
0.0
  0
LINE
  5
29B
330
1E
100
AcDbEntity
  8
0
100
AcDbLine
 10
545.8370799999999
 20
34.936
 30
0.0
 11
550.2490799999999
 21
37.43199999999999
 31
0.0
  0
LINE
  5
29C
330
1E
100
AcDbEntity
  8
0
100
AcDbLine
 10
541.83808
 20
34.0
 30
0.0
 11
546.54408
 21
34.936
 31
0.0
  0
LINE
  5
29D
330
1E
100
AcDbEntity
  8
0
100
AcDbLine
 10
546.54408
 20
34.936
 30
0.0
 11
550.95708
 21
37.43199999999999
 31
0.0
  0
LINE
  5
29E
330
1E
100
AcDbEntity
  8
0
100
AcDbLine
 10
541.1310799999999
 20
34.0
 30
0.0
 11
541.83808
 21
34.0
 31
0.0
  0
LINE
  5
29F
330
1E
100
AcDbEntity
  8
0
100
AcDbLine
 10
541.1310799999999
 20
34.0
 30
0.0
 11
545.8370799999999
 21
34.936
 31
0.0
  0
LINE
  5
2A0
330
1E
100
AcDbEntity
  8
0
100
AcDbLine
 10
576.48608
 20
35.0
 30
0.0
 11
581.0120799999999
 21
35.89999999999999
 31
0.0
  0
LINE
  5
2A1
330
1E
100
AcDbEntity
  8
0
100
AcDbLine
 10
546.6572338461539
 20
35.0
 30
0.0
 11
576.48608
 21
35.0
 31
0.0
  0
LINE
  5
2A2
330
1E
100
AcDbEntity
  8
0
100
AcDbLine
 10
536.42408
 20
34.936
 30
0.0
 11
541.1310799999999
 21
34.0
 31
0.0
  0
LINE
  5
2A3
330
1E
100
AcDbEntity
  8
0
100
AcDbLine
 10
331.2660799999999
 20
35.22
 30
0.0
 11
336.8660799999999
 21
42.64
 31
0.0
  0
LINE
  5
2A4
330
1E
100
AcDbEntity
  8
0
100
AcDbLine
 10
297.52608
 20
26.26
 30
0.0
 11
306.4860799999999
 21
25.0
 31
0.0
  0
LINE
  5
2A5
330
1E
100
AcDbEntity
  8
0
100
AcDbLine
 10
289.1260799999999
 20
29.62
 30
0.0
 11
297.52608
 21
26.26
 31
0.0
  0
LINE
  5
2A6
330
1E
100
AcDbEntity
  8
0
100
AcDbLine
 10
581.0120799999999
 20
35.89999999999999
 30
0.0
 11
585.2540799999998
 21
38.3
 31
0.0
  0
LINE
  5
2A7
330
1E
100
AcDbEntity
  8
0
100
AcDbLine
 10
312.8860799999999
 20
35.89999999999999
 30
0.0
 11
318.88608
 21
38.3
 31
0.0
  0
LINE
  5
2A8
330
1E
100
AcDbEntity
  8
0
100
AcDbLine
 10
318.88608
 20
38.3
 30
0.0
 11
324.1860799999999
 21
42.29999999999999
 31
0.0
  0
LINE
  5
2A9
330
1E
100
AcDbEntity
  8
0
100
AcDbLine
 10
373.59008
 20
37.43199999999999
 30
0.0
 11
379.83008
 21
34.936
 31
0.0
  0
LINE
  5
2AA
330
1E
100
AcDbEntity
  8
0
100
AcDbLine
 10
399.3820799999999
 20
37.43199999999999
 30
0.0
 11
402.7846799999999
 21
40.0
 31
0.0
  0
LINE
  5
2AB
330
1E
100
AcDbEntity
  8
0
100
AcDbLine
 10
447.48608
 20
37.0
 30
0.0
 11
447.48608
 21
37.828
 31
0.0
  0
LINE
  5
2AC
330
1E
100
AcDbEntity
  8
0
100
AcDbLine
 10
447.48608
 20
37.0
 30
0.0
 11
447.48608
 21
34.5
 31
0.0
  0
LINE
  5
2AD
330
1E
100
AcDbEntity
  8
0
100
AcDbLine
 10
433.4860799999999
 20
37.43199999999999
 30
0.0
 11
433.4860799999999
 21
41.592
 31
0.0
  0
LINE
  5
2AE
330
1E
100
AcDbEntity
  8
0
100
AcDbLine
 10
433.4860799999999
 20
37.43199999999999
 30
0.0
 11
433.4860799999999
 21
34.936
 31
0.0
  0
LINE
  5
2AF
330
1E
100
AcDbEntity
  8
0
100
AcDbLine
 10
390.63908
 20
40.0
 30
0.0
 11
395.56608
 21
40.0
 31
0.0
  0
LINE
  5
2B0
330
1E
100
AcDbEntity
  8
0
100
AcDbLine
 10
387.54208
 20
40.0
 30
0.0
 11
390.63908
 21
40.0
 31
0.0
  0
LINE
  5
2B1
330
1E
100
AcDbEntity
  8
0
100
AcDbLine
 10
395.56608
 20
40.0
 30
0.0
 11
401.98608
 21
40.0
 31
0.0
  0
LINE
  5
2B2
330
1E
100
AcDbEntity
  8
0
100
AcDbLine
 10
409.46308
 20
40.0
 30
0.0
 11
417.4860799999999
 21
40.0
 31
0.0
  0
LINE
  5
2B3
330
1E
100
AcDbEntity
  8
0
100
AcDbLine
 10
401.98608
 20
40.0
 30
0.0
 11
409.46308
 21
40.0
 31
0.0
  0
LINE
  5
2B4
330
1E
100
AcDbEntity
  8
0
100
AcDbLine
 10
417.4860799999999
 20
40.0
 30
0.0
 11
431.4860799999999
 21
40.0
 31
0.0
  0
LINE
  5
2B5
330
1E
100
AcDbEntity
  8
0
100
AcDbLine
 10
447.48608
 20
40.0
 30
0.0
 11
469.4860799999999
 21
40.0
 31
0.0
  0
LINE
  5
2B6
330
1E
100
AcDbEntity
  8
0
100
AcDbLine
 10
469.4860799999999
 20
40.0
 30
0.0
 11
477.50908
 21
40.0
 31
0.0
  0
LINE
  5
2B7
330
1E
100
AcDbEntity
  8
0
100
AcDbLine
 10
491.4060799999999
 20
40.0
 30
0.0
 11
537.5660799999999
 21
40.0
 31
0.0
  0
LINE
  5
2B8
330
1E
100
AcDbEntity
  8
0
100
AcDbLine
 10
484.98608
 20
40.0
 30
0.0
 11
491.4060799999999
 21
40.0
 31
0.0
  0
LINE
  5
2B9
330
1E
100
AcDbEntity
  8
0
100
AcDbLine
 10
477.50908
 20
40.0
 30
0.0
 11
484.98608
 21
40.0
 31
0.0
  0
LINE
  5
2BA
330
1E
100
AcDbEntity
  8
0
100
AcDbLine
 10
447.48608
 20
37.828
 30
0.0
 11
447.48608
 21
40.036
 31
0.0
  0
LINE
  5
2BB
330
1E
100
AcDbEntity
  8
0
100
AcDbLine
 10
447.48608
 20
37.828
 30
0.0
 11
447.48608
 21
37.0
 31
0.0
  0
LINE
  5
2BC
330
1E
100
AcDbEntity
  8
0
100
AcDbLine
 10
431.4860799999999
 20
40.0
 30
0.0
 11
431.4860799999999
 21
37.43199999999999
 31
0.0
  0
LINE
  5
2BD
330
1E
100
AcDbEntity
  8
0
100
AcDbLine
 10
431.4860799999999
 20
37.43199999999999
 30
0.0
 11
431.4860799999999
 21
34.936
 31
0.0
  0
LINE
  5
2BE
330
1E
100
AcDbEntity
  8
0
100
AcDbLine
 10
431.4860799999999
 20
37.43199999999999
 30
0.0
 11
431.4860799999999
 21
40.0
 31
0.0
  0
LINE
  5
2BF
330
1E
100
AcDbEntity
  8
0
100
AcDbLine
 10
431.4860799999999
 20
37.43199999999999
 30
0.0
 11
431.4860799999999
 21
41.592
 31
0.0
  0
LINE
  5
2C0
330
1E
100
AcDbEntity
  8
0
100
AcDbLine
 10
550.2490799999999
 20
37.43199999999999
 30
0.0
 11
554.1470799999999
 21
41.592
 31
0.0
  0
LINE
  5
2C1
330
1E
100
AcDbEntity
  8
0
100
AcDbLine
 10
537.5660799999999
 20
40.0
 30
0.0
 11
541.10108
 21
40.0
 31
0.0
  0
LINE
  5
2C2
330
1E
100
AcDbEntity
  8
0
100
AcDbLine
 10
585.2540799999998
 20
38.3
 30
0.0
 11
589.00208
 21
42.29999999999999
 31
0.0
  0
LINE
  5
2C3
330
1E
100
AcDbEntity
  8
0
100
AcDbLine
 10
550.95708
 20
37.43199999999999
 30
0.0
 11
554.8540799999999
 21
41.592
 31
0.0
  0
LINE
  5
2C4
330
1E
100
AcDbEntity
  8
0
100
AcDbLine
 10
532.0120799999999
 20
37.43199999999999
 30
0.0
 11
536.42408
 21
34.936
 31
0.0
  0
LINE
  5
2C5
330
1E
100
AcDbEntity
  8
0
100
AcDbLine
 10
339.4700799999999
 20
41.152
 30
0.0
 11
343.1180799999999
 21
50.272
 31
0.0
  0
LINE
  5
2C6
330
1E
100
AcDbEntity
  8
0
100
AcDbLine
 10
368.0780799999999
 20
41.592
 30
0.0
 11
373.59008
 21
37.43199999999999
 31
0.0
  0
LINE
  5
2C7
330
1E
100
AcDbEntity
  8
0
100
AcDbLine
 10
447.48608
 20
40.036
 30
0.0
 11
447.48608
 21
43.71599999999999
 31
0.0
  0
LINE
  5
2C8
330
1E
100
AcDbEntity
  8
0
100
AcDbLine
 10
447.48608
 20
40.036
 30
0.0
 11
447.48608
 21
37.828
 31
0.0
  0
LINE
  5
2C9
330
1E
100
AcDbEntity
  8
0
100
AcDbLine
 10
433.4860799999999
 20
41.592
 30
0.0
 11
433.4860799999999
 21
47.10399999999999
 31
0.0
  0
LINE
  5
2CA
330
1E
100
AcDbEntity
  8
0
100
AcDbLine
 10
433.4860799999999
 20
41.592
 30
0.0
 11
433.4860799999999
 21
37.43199999999999
 31
0.0
  0
LINE
  5
2CB
330
1E
100
AcDbEntity
  8
0
100
AcDbLine
 10
431.4860799999999
 20
41.592
 30
0.0
 11
431.4860799999999
 21
47.10399999999999
 31
0.0
  0
LINE
  5
2CC
330
1E
100
AcDbEntity
  8
0
100
AcDbLine
 10
431.4860799999999
 20
41.592
 30
0.0
 11
431.4860799999999
 21
37.43199999999999
 31
0.0
  0
LINE
  5
2CD
330
1E
100
AcDbEntity
  8
0
100
AcDbLine
 10
554.1470799999999
 20
41.592
 30
0.0
 11
557.0890799999999
 21
47.10399999999999
 31
0.0
  0
LINE
  5
2CE
330
1E
100
AcDbEntity
  8
0
100
AcDbLine
 10
589.00208
 20
42.29999999999999
 30
0.0
 11
591.8300799999999
 21
47.6
 31
0.0
  0
LINE
  5
2CF
330
1E
100
AcDbEntity
  8
0
100
AcDbLine
 10
554.8540799999999
 20
41.592
 30
0.0
 11
557.7960799999999
 21
47.10399999999999
 31
0.0
  0
LINE
  5
2D0
330
1E
100
AcDbEntity
  8
0
100
AcDbLine
 10
529.6058146153849
 20
40.0
 30
0.0
 11
532.0120799999999
 21
37.43199999999999
 31
0.0
  0
LINE
  5
2D1
330
1E
100
AcDbEntity
  8
0
100
AcDbLine
 10
324.1860799999999
 20
42.29999999999999
 30
0.0
 11
328.18608
 21
47.6
 31
0.0
  0
LINE
  5
2D2
330
1E
100
AcDbEntity
  8
0
100
AcDbLine
 10
300.0860799999999
 20
35.89999999999999
 30
0.0
 11
306.4860799999999
 21
35.0
 31
0.0
  0
LINE
  5
2D3
330
1E
100
AcDbEntity
  8
0
100
AcDbLine
 10
294.0860799999999
 20
38.3
 30
0.0
 11
300.0860799999999
 21
35.89999999999999
 31
0.0
  0
LINE
  5
2D4
330
1E
100
AcDbEntity
  8
0
100
AcDbLine
 10
363.9180799999999
 20
47.10399999999999
 30
0.0
 11
368.0780799999999
 21
41.592
 31
0.0
  0
LINE
  5
2D5
330
1E
100
AcDbEntity
  8
0
100
AcDbLine
 10
433.4860799999999
 20
46.38399999999999
 30
0.0
 11
447.48608
 21
46.38399999999999
 31
0.0
  0
LINE
  5
2D6
330
1E
100
AcDbEntity
  8
0
100
AcDbLine
 10
447.48608
 20
46.38399999999999
 30
0.0
 11
447.48608
 21
43.71599999999999
 31
0.0
  0
LINE
  5
2D7
330
1E
100
AcDbEntity
  8
0
100
AcDbLine
 10
447.48608
 20
46.38399999999999
 30
0.0
 11
447.48608
 21
48.11600000000001
 31
0.0
  0
LINE
  5
2D8
330
1E
100
AcDbEntity
  8
0
100
AcDbLine
 10
447.48608
 20
43.71599999999999
 30
0.0
 11
447.48608
 21
46.38399999999999
 31
0.0
  0
LINE
  5
2D9
330
1E
100
AcDbEntity
  8
0
100
AcDbLine
 10
447.48608
 20
43.71599999999999
 30
0.0
 11
447.48608
 21
40.036
 31
0.0
  0
LINE
  5
2DA
330
1E
100
AcDbEntity
  8
0
100
AcDbLine
 10
433.4860799999999
 20
47.10399999999999
 30
0.0
 11
433.4860799999999
 21
53.34399999999999
 31
0.0
  0
LINE
  5
2DB
330
1E
100
AcDbEntity
  8
0
100
AcDbLine
 10
433.4860799999999
 20
47.10399999999999
 30
0.0
 11
433.4860799999999
 21
41.592
 31
0.0
  0
LINE
  5
2DC
330
1E
100
AcDbEntity
  8
0
100
AcDbLine
 10
431.4860799999999
 20
47.10399999999999
 30
0.0
 11
431.4860799999999
 21
53.34399999999999
 31
0.0
  0
LINE
  5
2DD
330
1E
100
AcDbEntity
  8
0
100
AcDbLine
 10
431.4860799999999
 20
47.10399999999999
 30
0.0
 11
431.4860799999999
 21
41.592
 31
0.0
  0
LINE
  5
2DE
330
1E
100
AcDbEntity
  8
0
100
AcDbLine
 10
557.0890799999999
 20
47.10399999999999
 30
0.0
 11
558.8540799999999
 21
53.34399999999999
 31
0.0
  0
LINE
  5
2DF
330
1E
100
AcDbEntity
  8
0
100
AcDbLine
 10
447.48608
 20
48.11600000000001
 30
0.0
 11
447.48608
 21
46.38399999999999
 31
0.0
  0
LINE
  5
2E0
330
1E
100
AcDbEntity
  8
0
100
AcDbLine
 10
447.48608
 20
48.11600000000001
 30
0.0
 11
447.48608
 21
49.616
 31
0.0
  0
LINE
  5
2E1
330
1E
100
AcDbEntity
  8
0
100
AcDbLine
 10
433.4860799999999
 20
48.11600000000001
 30
0.0
 11
447.48608
 21
48.11600000000001
 31
0.0
  0
LINE
  5
2E2
330
1E
100
AcDbEntity
  8
0
100
AcDbLine
 10
343.1180799999999
 20
50.272
 30
0.0
 11
344.4860799999999
 21
60.0
 31
0.0
  0
LINE
  5
2E3
330
1E
100
AcDbEntity
  8
0
100
AcDbLine
 10
447.48608
 20
49.616
 30
0.0
 11
447.48608
 21
54.112
 31
0.0
  0
LINE
  5
2E4
330
1E
100
AcDbEntity
  8
0
100
AcDbLine
 10
447.48608
 20
49.616
 30
0.0
 11
447.48608
 21
48.11600000000001
 31
0.0
  0
LINE
  5
2E5
330
1E
100
AcDbEntity
  8
0
100
AcDbLine
 10
591.8300799999999
 20
47.6
 30
0.0
 11
593.5270799999999
 21
53.6
 31
0.0
  0
LINE
  5
2E6
330
1E
100
AcDbEntity
  8
0
100
AcDbLine
 10
557.7960799999999
 20
47.10399999999999
 30
0.0
 11
559.5610799999999
 21
53.34399999999999
 31
0.0
  0
LINE
  5
2E7
330
1E
100
AcDbEntity
  8
0
100
AcDbLine
 10
340.2260799999999
 20
51.04
 30
0.0
 11
341.4860799999999
 21
60.0
 31
0.0
  0
LINE
  5
2E8
330
1E
100
AcDbEntity
  8
0
100
AcDbLine
 10
336.8660799999999
 20
42.64
 30
0.0
 11
340.2260799999999
 21
51.04
 31
0.0
  0
LINE
  5
2E9
330
1E
100
AcDbEntity
  8
0
100
AcDbLine
 10
328.18608
 20
47.6
 30
0.0
 11
330.58608
 21
53.6
 31
0.0
  0
LINE
  5
2EA
330
1E
100
AcDbEntity
  8
0
100
AcDbLine
 10
288.7860799999999
 20
42.29999999999999
 30
0.0
 11
294.0860799999999
 21
38.3
 31
0.0
  0
LINE
  5
2EB
330
1E
100
AcDbEntity
  8
0
100
AcDbLine
 10
284.7860799999999
 20
47.6
 30
0.0
 11
288.7860799999999
 21
42.29999999999999
 31
0.0
  0
LINE
  5
2EC
330
1E
100
AcDbEntity
  8
0
100
AcDbLine
 10
281.7060799999999
 20
35.22
 30
0.0
 11
289.1260799999999
 21
29.62
 31
0.0
  0
LINE
  5
2ED
330
1E
100
AcDbEntity
  8
0
100
AcDbLine
 10
276.1060799999999
 20
42.64
 30
0.0
 11
281.7060799999999
 21
35.22
 31
0.0
  0
LINE
  5
2EE
330
1E
100
AcDbEntity
  8
0
100
AcDbLine
 10
273.50208
 20
78.848
 30
0.0
 11
279.5820799999999
 21
86.904
 31
0.0
  0
LINE
  5
2EF
330
1E
100
AcDbEntity
  8
0
100
AcDbLine
 10
279.5820799999999
 20
86.904
 30
0.0
 11
287.63808
 21
92.98399999999999
 31
0.0
  0
LINE
  5
2F0
330
1E
100
AcDbEntity
  8
0
100
AcDbLine
 10
276.1060799999999
 20
77.36
 30
0.0
 11
281.7060799999999
 21
84.77999999999999
 31
0.0
  0
LINE
  5
2F1
330
1E
100
AcDbEntity
  8
0
100
AcDbLine
 10
272.74608
 20
68.95999999999999
 30
0.0
 11
276.1060799999999
 21
77.36
 31
0.0
  0
LINE
  5
2F2
330
1E
100
AcDbEntity
  8
0
100
AcDbLine
 10
361.42208
 20
53.34399999999999
 30
0.0
 11
363.9180799999999
 21
47.10399999999999
 31
0.0
  0
LINE
  5
2F3
330
1E
100
AcDbEntity
  8
0
100
AcDbLine
 10
558.8540799999999
 20
53.34399999999999
 30
0.0
 11
559.5150799999999
 21
60.0
 31
0.0
  0
LINE
  5
2F4
330
1E
100
AcDbEntity
  8
0
100
AcDbLine
 10
433.4860799999999
 20
53.34399999999999
 30
0.0
 11
433.4860799999999
 21
60.0
 31
0.0
  0
LINE
  5
2F5
330
1E
100
AcDbEntity
  8
0
100
AcDbLine
 10
433.4860799999999
 20
53.34399999999999
 30
0.0
 11
433.4860799999999
 21
47.10399999999999
 31
0.0
  0
LINE
  5
2F6
330
1E
100
AcDbEntity
  8
0
100
AcDbLine
 10
431.4860799999999
 20
53.34399999999999
 30
0.0
 11
431.4860799999999
 21
60.0
 31
0.0
  0
LINE
  5
2F7
330
1E
100
AcDbEntity
  8
0
100
AcDbLine
 10
431.4860799999999
 20
53.34399999999999
 30
0.0
 11
431.4860799999999
 21
47.10399999999999
 31
0.0
  0
LINE
  5
2F8
330
1E
100
AcDbEntity
  8
0
100
AcDbLine
 10
593.5270799999999
 20
53.6
 30
0.0
 11
594.16408
 21
60.0
 31
0.0
  0
LINE
  5
2F9
330
1E
100
AcDbEntity
  8
0
100
AcDbLine
 10
559.5610799999999
 20
53.34399999999999
 30
0.0
 11
560.22308
 21
60.0
 31
0.0
  0
LINE
  5
2FA
330
1E
100
AcDbEntity
  8
0
100
AcDbLine
 10
330.58608
 20
53.6
 30
0.0
 11
331.4860799999999
 21
60.0
 31
0.0
  0
LINE
  5
2FB
330
1E
100
AcDbEntity
  8
0
100
AcDbLine
 10
288.7860799999999
 20
77.7
 30
0.0
 11
294.0860799999999
 21
81.69999999999999
 31
0.0
  0
LINE
  5
2FC
330
1E
100
AcDbEntity
  8
0
100
AcDbLine
 10
284.7860799999999
 20
72.40000000000001
 30
0.0
 11
288.7860799999999
 21
77.7
 31
0.0
  0
LINE
  5
2FD
330
1E
100
AcDbEntity
  8
0
100
AcDbLine
 10
282.3860799999999
 20
66.4
 30
0.0
 11
284.7860799999999
 21
72.40000000000001
 31
0.0
  0
LINE
  5
2FE
330
1E
100
AcDbEntity
  8
0
100
AcDbLine
 10
300.0860799999999
 20
84.1
 30
0.0
 11
306.4860799999999
 21
85.0
 31
0.0
  0
LINE
  5
2FF
330
1E
100
AcDbEntity
  8
0
100
AcDbLine
 10
281.7060799999999
 20
84.77999999999999
 30
0.0
 11
289.1260799999999
 21
90.38
 31
0.0
  0
LINE
  5
300
330
1E
100
AcDbEntity
  8
0
100
AcDbLine
 10
294.0860799999999
 20
81.69999999999999
 30
0.0
 11
300.0860799999999
 21
84.1
 31
0.0
  0
LINE
  5
301
330
1E
100
AcDbEntity
  8
0
100
AcDbLine
 10
330.58608
 20
66.4
 30
0.0
 11
331.4860799999999
 21
60.0
 31
0.0
  0
LINE
  5
302
330
1E
100
AcDbEntity
  8
0
100
AcDbLine
 10
328.18608
 20
72.40000000000001
 30
0.0
 11
330.58608
 21
66.4
 31
0.0
  0
LINE
  5
303
330
1E
100
AcDbEntity
  8
0
100
AcDbLine
 10
324.1860799999999
 20
77.7
 30
0.0
 11
328.18608
 21
72.40000000000001
 31
0.0
  0
LINE
  5
304
330
1E
100
AcDbEntity
  8
0
100
AcDbLine
 10
331.2660799999999
 20
84.77999999999999
 30
0.0
 11
336.8660799999999
 21
77.36
 31
0.0
  0
LINE
  5
305
330
1E
100
AcDbEntity
  8
0
100
AcDbLine
 10
318.88608
 20
81.69999999999999
 30
0.0
 11
324.1860799999999
 21
77.7
 31
0.0
  0
LINE
  5
306
330
1E
100
AcDbEntity
  8
0
100
AcDbLine
 10
312.8860799999999
 20
84.1
 30
0.0
 11
318.88608
 21
81.69999999999999
 31
0.0
  0
LINE
  5
307
330
1E
100
AcDbEntity
  8
0
100
AcDbLine
 10
287.63808
 20
92.98399999999999
 30
0.0
 11
296.7580799999999
 21
96.63200000000001
 31
0.0
  0
LINE
  5
308
330
1E
100
AcDbEntity
  8
0
100
AcDbLine
 10
297.52608
 20
93.74
 30
0.0
 11
306.4860799999999
 21
95.0
 31
0.0
  0
LINE
  5
309
330
1E
100
AcDbEntity
  8
0
100
AcDbLine
 10
289.1260799999999
 20
90.38
 30
0.0
 11
297.52608
 21
93.74
 31
0.0
  0
LINE
  5
30A
330
1E
100
AcDbEntity
  8
0
100
AcDbLine
 10
296.7580799999999
 20
96.63200000000001
 30
0.0
 11
306.4860799999999
 21
98.0
 31
0.0
  0
LINE
  5
30B
330
1E
100
AcDbEntity
  8
0
100
AcDbLine
 10
306.4860799999999
 20
98.0
 30
0.0
 11
316.2140799999999
 21
96.63200000000001
 31
0.0
  0
LINE
  5
30C
330
1E
100
AcDbEntity
  8
0
100
AcDbLine
 10
316.2140799999999
 20
96.63200000000001
 30
0.0
 11
325.3340799999999
 21
92.98399999999999
 31
0.0
  0
LINE
  5
30D
330
1E
100
AcDbEntity
  8
0
100
AcDbLine
 10
306.4860799999999
 20
95.0
 30
0.0
 11
315.4460799999999
 21
93.74
 31
0.0
  0
LINE
  5
30E
330
1E
100
AcDbEntity
  8
0
100
AcDbLine
 10
315.4460799999999
 20
93.74
 30
0.0
 11
323.8460799999999
 21
90.38
 31
0.0
  0
LINE
  5
30F
330
1E
100
AcDbEntity
  8
0
100
AcDbLine
 10
325.3340799999999
 20
92.98399999999999
 30
0.0
 11
333.3900799999999
 21
86.904
 31
0.0
  0
LINE
  5
310
330
1E
100
AcDbEntity
  8
0
100
AcDbLine
 10
323.8460799999999
 20
90.38
 30
0.0
 11
331.2660799999999
 21
84.77999999999999
 31
0.0
  0
LINE
  5
311
330
1E
100
AcDbEntity
  8
0
100
AcDbLine
 10
306.4860799999999
 20
85.0
 30
0.0
 11
312.8860799999999
 21
84.1
 31
0.0
  0
LINE
  5
312
330
1E
100
AcDbEntity
  8
0
100
AcDbLine
 10
360.4860799999999
 20
60.0
 30
0.0
 11
361.42208
 21
66.65600000000001
 31
0.0
  0
LINE
  5
313
330
1E
100
AcDbEntity
  8
0
100
AcDbLine
 10
360.4860799999999
 20
60.0
 30
0.0
 11
361.42208
 21
53.34399999999999
 31
0.0
  0
LINE
  5
314
330
1E
100
AcDbEntity
  8
0
100
AcDbLine
 10
361.42208
 20
66.65600000000001
 30
0.0
 11
363.9180799999999
 21
72.896
 31
0.0
  0
LINE
  5
315
330
1E
100
AcDbEntity
  8
0
100
AcDbLine
 10
431.4860799999999
 20
60.0
 30
0.0
 11
431.4860799999999
 21
66.65600000000001
 31
0.0
  0
LINE
  5
316
330
1E
100
AcDbEntity
  8
0
100
AcDbLine
 10
431.4860799999999
 20
60.0
 30
0.0
 11
431.4860799999999
 21
53.34399999999999
 31
0.0
  0
LINE
  5
317
330
1E
100
AcDbEntity
  8
0
100
AcDbLine
 10
447.48608
 20
54.112
 30
0.0
 11
447.48608
 21
60.0
 31
0.0
  0
LINE
  5
318
330
1E
100
AcDbEntity
  8
0
100
AcDbLine
 10
447.48608
 20
54.112
 30
0.0
 11
447.48608
 21
49.616
 31
0.0
  0
LINE
  5
319
330
1E
100
AcDbEntity
  8
0
100
AcDbLine
 10
447.48608
 20
60.0
 30
0.0
 11
447.48608
 21
65.888
 31
0.0
  0
LINE
  5
31A
330
1E
100
AcDbEntity
  8
0
100
AcDbLine
 10
447.48608
 20
60.0
 30
0.0
 11
447.48608
 21
54.112
 31
0.0
  0
LINE
  5
31B
330
1E
100
AcDbEntity
  8
0
100
AcDbLine
 10
447.48608
 20
65.888
 30
0.0
 11
447.48608
 21
70.384
 31
0.0
  0
LINE
  5
31C
330
1E
100
AcDbEntity
  8
0
100
AcDbLine
 10
447.48608
 20
65.888
 30
0.0
 11
447.48608
 21
60.0
 31
0.0
  0
LINE
  5
31D
330
1E
100
AcDbEntity
  8
0
100
AcDbLine
 10
433.4860799999999
 20
60.0
 30
0.0
 11
433.4860799999999
 21
66.65600000000001
 31
0.0
  0
LINE
  5
31E
330
1E
100
AcDbEntity
  8
0
100
AcDbLine
 10
433.4860799999999
 20
60.0
 30
0.0
 11
433.4860799999999
 21
53.34399999999999
 31
0.0
  0
LINE
  5
31F
330
1E
100
AcDbEntity
  8
0
100
AcDbLine
 10
433.4860799999999
 20
66.65600000000001
 30
0.0
 11
433.4860799999999
 21
72.896
 31
0.0
  0
LINE
  5
320
330
1E
100
AcDbEntity
  8
0
100
AcDbLine
 10
433.4860799999999
 20
66.65600000000001
 30
0.0
 11
433.4860799999999
 21
60.0
 31
0.0
  0
LINE
  5
321
330
1E
100
AcDbEntity
  8
0
100
AcDbLine
 10
431.4860799999999
 20
66.65600000000001
 30
0.0
 11
431.4860799999999
 21
72.896
 31
0.0
  0
LINE
  5
322
330
1E
100
AcDbEntity
  8
0
100
AcDbLine
 10
431.4860799999999
 20
66.65600000000001
 30
0.0
 11
431.4860799999999
 21
60.0
 31
0.0
  0
LINE
  5
323
330
1E
100
AcDbEntity
  8
0
100
AcDbLine
 10
558.8540799999999
 20
66.65600000000001
 30
0.0
 11
559.5150799999999
 21
60.0
 31
0.0
  0
LINE
  5
324
330
1E
100
AcDbEntity
  8
0
100
AcDbLine
 10
593.5270799999999
 20
66.4
 30
0.0
 11
594.16408
 21
60.0
 31
0.0
  0
LINE
  5
325
330
1E
100
AcDbEntity
  8
0
100
AcDbLine
 10
559.5610799999999
 20
66.65600000000001
 30
0.0
 11
560.22308
 21
60.0
 31
0.0
  0
LINE
  5
326
330
1E
100
AcDbEntity
  8
0
100
AcDbLine
 10
333.3900799999999
 20
86.904
 30
0.0
 11
339.4700799999999
 21
78.848
 31
0.0
  0
LINE
  5
327
330
1E
100
AcDbEntity
  8
0
100
AcDbLine
 10
333.806683773585
 20
86.35200000000001
 30
0.0
 11
379.4860799999999
 21
86.35200000000001
 31
0.0
  0
LINE
  5
328
330
1E
100
AcDbEntity
  8
0
100
AcDbLine
 10
333.26288
 20
87.0
 30
0.0
 11
379.4860799999999
 21
87.0
 31
0.0
  0
LINE
  5
329
330
1E
100
AcDbEntity
  8
0
100
AcDbLine
 10
343.1180799999999
 20
69.72800000000001
 30
0.0
 11
344.4860799999999
 21
60.0
 31
0.0
  0
LINE
  5
32A
330
1E
100
AcDbEntity
  8
0
100
AcDbLine
 10
363.9180799999999
 20
72.896
 30
0.0
 11
368.0780799999999
 21
78.408
 31
0.0
  0
LINE
  5
32B
330
1E
100
AcDbEntity
  8
0
100
AcDbLine
 10
433.4860799999999
 20
71.884
 30
0.0
 11
447.48608
 21
71.884
 31
0.0
  0
LINE
  5
32C
330
1E
100
AcDbEntity
  8
0
100
AcDbLine
 10
447.48608
 20
71.884
 30
0.0
 11
447.48608
 21
70.384
 31
0.0
  0
LINE
  5
32D
330
1E
100
AcDbEntity
  8
0
100
AcDbLine
 10
447.48608
 20
71.884
 30
0.0
 11
447.48608
 21
73.616
 31
0.0
  0
LINE
  5
32E
330
1E
100
AcDbEntity
  8
0
100
AcDbLine
 10
447.48608
 20
70.384
 30
0.0
 11
447.48608
 21
65.888
 31
0.0
  0
LINE
  5
32F
330
1E
100
AcDbEntity
  8
0
100
AcDbLine
 10
447.48608
 20
70.384
 30
0.0
 11
447.48608
 21
71.884
 31
0.0
  0
LINE
  5
330
330
1E
100
AcDbEntity
  8
0
100
AcDbLine
 10
433.4860799999999
 20
72.896
 30
0.0
 11
433.4860799999999
 21
78.408
 31
0.0
  0
LINE
  5
331
330
1E
100
AcDbEntity
  8
0
100
AcDbLine
 10
433.4860799999999
 20
72.896
 30
0.0
 11
433.4860799999999
 21
66.65600000000001
 31
0.0
  0
LINE
  5
332
330
1E
100
AcDbEntity
  8
0
100
AcDbLine
 10
431.4860799999999
 20
72.896
 30
0.0
 11
431.4860799999999
 21
78.408
 31
0.0
  0
LINE
  5
333
330
1E
100
AcDbEntity
  8
0
100
AcDbLine
 10
431.4860799999999
 20
72.896
 30
0.0
 11
431.4860799999999
 21
66.65600000000001
 31
0.0
  0
LINE
  5
334
330
1E
100
AcDbEntity
  8
0
100
AcDbLine
 10
591.8300799999999
 20
72.40000000000001
 30
0.0
 11
593.5270799999999
 21
66.4
 31
0.0
  0
LINE
  5
335
330
1E
100
AcDbEntity
  8
0
100
AcDbLine
 10
557.0890799999999
 20
72.896
 30
0.0
 11
558.8540799999999
 21
66.65600000000001
 31
0.0
  0
LINE
  5
336
330
1E
100
AcDbEntity
  8
0
100
AcDbLine
 10
368.0780799999999
 20
78.408
 30
0.0
 11
373.59008
 21
82.568
 31
0.0
  0
LINE
  5
337
330
1E
100
AcDbEntity
  8
0
100
AcDbLine
 10
339.4700799999999
 20
78.848
 30
0.0
 11
343.1180799999999
 21
69.72800000000001
 31
0.0
  0
LINE
  5
338
330
1E
100
AcDbEntity
  8
0
100
AcDbLine
 10
395.56608
 20
80.0
 30
0.0
 11
401.98608
 21
80.0
 31
0.0
  0
LINE
  5
339
330
1E
100
AcDbEntity
  8
0
100
AcDbLine
 10
390.63908
 20
80.0
 30
0.0
 11
395.56608
 21
80.0
 31
0.0
  0
LINE
  5
33A
330
1E
100
AcDbEntity
  8
0
100
AcDbLine
 10
387.54208
 20
80.0
 30
0.0
 11
390.63908
 21
80.0
 31
0.0
  0
LINE
  5
33B
330
1E
100
AcDbEntity
  8
0
100
AcDbLine
 10
373.59008
 20
82.568
 30
0.0
 11
379.83008
 21
85.06399999999999
 31
0.0
  0
LINE
  5
33C
330
1E
100
AcDbEntity
  8
0
100
AcDbLine
 10
417.4860799999999
 20
80.0
 30
0.0
 11
431.4860799999999
 21
80.0
 31
0.0
  0
LINE
  5
33D
330
1E
100
AcDbEntity
  8
0
100
AcDbLine
 10
409.46308
 20
80.0
 30
0.0
 11
417.4860799999999
 21
80.0
 31
0.0
  0
LINE
  5
33E
330
1E
100
AcDbEntity
  8
0
100
AcDbLine
 10
401.98608
 20
80.0
 30
0.0
 11
409.46308
 21
80.0
 31
0.0
  0
LINE
  5
33F
330
1E
100
AcDbEntity
  8
0
100
AcDbLine
 10
399.3820799999999
 20
82.568
 30
0.0
 11
402.7846799999999
 21
80.0
 31
0.0
  0
LINE
  5
340
330
1E
100
AcDbEntity
  8
0
100
AcDbLine
 10
431.4860799999999
 20
78.408
 30
0.0
 11
431.4860799999999
 21
82.568
 31
0.0
  0
LINE
  5
341
330
1E
100
AcDbEntity
  8
0
100
AcDbLine
 10
431.4860799999999
 20
78.408
 30
0.0
 11
431.4860799999999
 21
72.896
 31
0.0
  0
LINE
  5
342
330
1E
100
AcDbEntity
  8
0
100
AcDbLine
 10
433.4860799999999
 20
73.616
 30
0.0
 11
447.48608
 21
73.616
 31
0.0
  0
LINE
  5
343
330
1E
100
AcDbEntity
  8
0
100
AcDbLine
 10
447.48608
 20
73.616
 30
0.0
 11
447.48608
 21
76.28399999999999
 31
0.0
  0
LINE
  5
344
330
1E
100
AcDbEntity
  8
0
100
AcDbLine
 10
447.48608
 20
73.616
 30
0.0
 11
447.48608
 21
71.884
 31
0.0
  0
LINE
  5
345
330
1E
100
AcDbEntity
  8
0
100
AcDbLine
 10
447.48608
 20
80.0
 30
0.0
 11
469.4860799999999
 21
80.0
 31
0.0
  0
LINE
  5
346
330
1E
100
AcDbEntity
  8
0
100
AcDbLine
 10
447.48608
 20
76.28399999999999
 30
0.0
 11
447.48608
 21
79.964
 31
0.0
  0
LINE
  5
347
330
1E
100
AcDbEntity
  8
0
100
AcDbLine
 10
447.48608
 20
76.28399999999999
 30
0.0
 11
447.48608
 21
73.616
 31
0.0
  0
LINE
  5
348
330
1E
100
AcDbEntity
  8
0
100
AcDbLine
 10
469.4860799999999
 20
80.0
 30
0.0
 11
477.50908
 21
80.0
 31
0.0
  0
LINE
  5
349
330
1E
100
AcDbEntity
  8
0
100
AcDbLine
 10
484.98608
 20
80.0
 30
0.0
 11
491.4060799999999
 21
80.0
 31
0.0
  0
LINE
  5
34A
330
1E
100
AcDbEntity
  8
0
100
AcDbLine
 10
477.50908
 20
80.0
 30
0.0
 11
484.98608
 21
80.0
 31
0.0
  0
LINE
  5
34B
330
1E
100
AcDbEntity
  8
0
100
AcDbLine
 10
491.4060799999999
 20
80.0
 30
0.0
 11
537.5660799999999
 21
80.0
 31
0.0
  0
LINE
  5
34C
330
1E
100
AcDbEntity
  8
0
100
AcDbLine
 10
447.48608
 20
79.964
 30
0.0
 11
447.48608
 21
82.17200000000001
 31
0.0
  0
LINE
  5
34D
330
1E
100
AcDbEntity
  8
0
100
AcDbLine
 10
447.48608
 20
79.964
 30
0.0
 11
447.48608
 21
76.28399999999999
 31
0.0
  0
LINE
  5
34E
330
1E
100
AcDbEntity
  8
0
100
AcDbLine
 10
447.48608
 20
82.17200000000001
 30
0.0
 11
447.48608
 21
83.0
 31
0.0
  0
LINE
  5
34F
330
1E
100
AcDbEntity
  8
0
100
AcDbLine
 10
447.48608
 20
82.17200000000001
 30
0.0
 11
447.48608
 21
79.964
 31
0.0
  0
LINE
  5
350
330
1E
100
AcDbEntity
  8
0
100
AcDbLine
 10
433.4860799999999
 20
78.408
 30
0.0
 11
433.4860799999999
 21
82.568
 31
0.0
  0
LINE
  5
351
330
1E
100
AcDbEntity
  8
0
100
AcDbLine
 10
433.4860799999999
 20
78.408
 30
0.0
 11
433.4860799999999
 21
72.896
 31
0.0
  0
LINE
  5
352
330
1E
100
AcDbEntity
  8
0
100
AcDbLine
 10
433.4860799999999
 20
82.568
 30
0.0
 11
433.4860799999999
 21
85.06399999999999
 31
0.0
  0
LINE
  5
353
330
1E
100
AcDbEntity
  8
0
100
AcDbLine
 10
433.4860799999999
 20
82.568
 30
0.0
 11
433.4860799999999
 21
78.408
 31
0.0
  0
LINE
  5
354
330
1E
100
AcDbEntity
  8
0
100
AcDbLine
 10
431.4860799999999
 20
80.0
 30
0.0
 11
431.4860799999999
 21
82.568
 31
0.0
  0
LINE
  5
355
330
1E
100
AcDbEntity
  8
0
100
AcDbLine
 10
431.4860799999999
 20
82.568
 30
0.0
 11
431.4860799999999
 21
80.0
 31
0.0
  0
LINE
  5
356
330
1E
100
AcDbEntity
  8
0
100
AcDbLine
 10
431.4860799999999
 20
82.568
 30
0.0
 11
431.4860799999999
 21
85.06399999999999
 31
0.0
  0
LINE
  5
357
330
1E
100
AcDbEntity
  8
0
100
AcDbLine
 10
431.4860799999999
 20
82.568
 30
0.0
 11
431.4860799999999
 21
78.408
 31
0.0
  0
LINE
  5
358
330
1E
100
AcDbEntity
  8
0
100
AcDbLine
 10
537.5660799999999
 20
80.0
 30
0.0
 11
541.10108
 21
80.0
 31
0.0
  0
LINE
  5
359
330
1E
100
AcDbEntity
  8
0
100
AcDbLine
 10
532.0120799999999
 20
82.568
 30
0.0
 11
536.42408
 21
85.06399999999999
 31
0.0
  0
LINE
  5
35A
330
1E
100
AcDbEntity
  8
0
100
AcDbLine
 10
529.6058146153849
 20
80.0
 30
0.0
 11
532.0120799999999
 21
82.568
 31
0.0
  0
LINE
  5
35B
330
1E
100
AcDbEntity
  8
0
100
AcDbLine
 10
550.2490799999999
 20
82.568
 30
0.0
 11
554.1470799999999
 21
78.408
 31
0.0
  0
LINE
  5
35C
330
1E
100
AcDbEntity
  8
0
100
AcDbLine
 10
554.1470799999999
 20
78.408
 30
0.0
 11
557.0890799999999
 21
72.896
 31
0.0
  0
LINE
  5
35D
330
1E
100
AcDbEntity
  8
0
100
AcDbLine
 10
379.83008
 20
85.06399999999999
 30
0.0
 11
386.4860799999999
 21
86.0
 31
0.0
  0
LINE
  5
35E
330
1E
100
AcDbEntity
  8
0
100
AcDbLine
 10
393.1420799999999
 20
85.06399999999999
 30
0.0
 11
399.3820799999999
 21
82.568
 31
0.0
  0
LINE
  5
35F
330
1E
100
AcDbEntity
  8
0
100
AcDbLine
 10
386.4860799999999
 20
86.0
 30
0.0
 11
393.1420799999999
 21
85.06399999999999
 31
0.0
  0
LINE
  5
360
330
1E
100
AcDbEntity
  8
0
100
AcDbLine
 10
447.48608
 20
83.0
 30
0.0
 11
447.48608
 21
82.17200000000001
 31
0.0
  0
LINE
  5
361
330
1E
100
AcDbEntity
  8
0
100
AcDbLine
 10
447.48608
 20
83.0
 30
0.0
 11
447.48608
 21
85.5
 31
0.0
  0
LINE
  5
362
330
1E
100
AcDbEntity
  8
0
100
AcDbLine
 10
433.4860799999999
 20
85.5
 30
0.0
 11
447.48608
 21
85.5
 31
0.0
  0
LINE
  5
363
330
1E
100
AcDbEntity
  8
0
100
AcDbLine
 10
447.48608
 20
85.5
 30
0.0
 11
447.48608
 21
83.0
 31
0.0
  0
LINE
  5
364
330
1E
100
AcDbEntity
  8
0
100
AcDbLine
 10
433.4860799999999
 20
86.0
 30
0.0
 11
433.4860799999999
 21
85.06399999999999
 31
0.0
  0
LINE
  5
365
330
1E
100
AcDbEntity
  8
0
100
AcDbLine
 10
433.4860799999999
 20
85.06399999999999
 30
0.0
 11
433.4860799999999
 21
86.0
 31
0.0
  0
LINE
  5
366
330
1E
100
AcDbEntity
  8
0
100
AcDbLine
 10
433.4860799999999
 20
85.06399999999999
 30
0.0
 11
433.4860799999999
 21
82.568
 31
0.0
  0
LINE
  5
367
330
1E
100
AcDbEntity
  8
0
100
AcDbLine
 10
431.4860799999999
 20
85.06399999999999
 30
0.0
 11
431.4860799999999
 21
82.568
 31
0.0
  0
LINE
  5
368
330
1E
100
AcDbEntity
  8
0
100
AcDbLine
 10
431.4860799999999
 20
85.06399999999999
 30
0.0
 11
431.4860799999999
 21
86.0
 31
0.0
  0
LINE
  5
369
330
1E
100
AcDbEntity
  8
0
100
AcDbLine
 10
431.4860799999999
 20
86.0
 30
0.0
 11
431.4860799999999
 21
85.06399999999999
 31
0.0
  0
LINE
  5
36A
330
1E
100
AcDbEntity
  8
0
100
AcDbLine
 10
431.4860799999999
 20
86.0
 30
0.0
 11
433.4860799999999
 21
86.0
 31
0.0
  0
LINE
  5
36B
330
1E
100
AcDbEntity
  8
0
100
AcDbLine
 10
536.42408
 20
85.06399999999999
 30
0.0
 11
541.1310799999999
 21
86.0
 31
0.0
  0
LINE
  5
36C
330
1E
100
AcDbEntity
  8
0
100
AcDbLine
 10
541.1310799999999
 20
86.0
 30
0.0
 11
545.8370799999999
 21
85.06399999999999
 31
0.0
  0
LINE
  5
36D
330
1E
100
AcDbEntity
  8
0
100
AcDbLine
 10
541.1310799999999
 20
86.0
 30
0.0
 11
541.83808
 21
86.0
 31
0.0
  0
LINE
  5
36E
330
1E
100
AcDbEntity
  8
0
100
AcDbLine
 10
545.8370799999999
 20
85.06399999999999
 30
0.0
 11
550.2490799999999
 21
82.568
 31
0.0
  0
LINE
  5
36F
330
1E
100
AcDbEntity
  8
0
100
AcDbLine
 10
379.4860799999999
 20
86.35200000000001
 30
0.0
 11
384.200221732283
 21
85.67855118110228
 31
0.0
  0
LINE
  5
370
330
1E
100
AcDbEntity
  8
0
100
AcDbLine
 10
386.39808
 20
86.028
 30
0.0
 11
386.4727620809249
 21
85.99812716763
 31
0.0
  0
LINE
  5
371
330
1E
100
AcDbEntity
  8
0
100
AcDbLine
 10
541.83808
 20
86.0
 30
0.0
 11
546.54408
 21
85.06399999999999
 31
0.0
  0
LINE
  5
372
330
1E
100
AcDbEntity
  8
0
100
AcDbLine
 10
546.6572338461539
 20
85.0
 30
0.0
 11
576.48608
 21
85.0
 31
0.0
  0
LINE
  5
373
330
1E
100
AcDbEntity
  8
0
100
AcDbLine
 10
546.54408
 20
85.06399999999999
 30
0.0
 11
550.95708
 21
82.568
 31
0.0
  0
LINE
  5
374
330
1E
100
AcDbEntity
  8
0
100
AcDbLine
 10
550.95708
 20
82.568
 30
0.0
 11
554.8540799999999
 21
78.408
 31
0.0
  0
LINE
  5
375
330
1E
100
AcDbEntity
  8
0
100
AcDbLine
 10
576.48608
 20
85.0
 30
0.0
 11
581.0120799999999
 21
84.1
 31
0.0
  0
LINE
  5
376
330
1E
100
AcDbEntity
  8
0
100
AcDbLine
 10
581.0120799999999
 20
84.1
 30
0.0
 11
585.2540799999998
 21
81.69999999999999
 31
0.0
  0
LINE
  5
377
330
1E
100
AcDbEntity
  8
0
100
AcDbLine
 10
585.2540799999998
 20
81.69999999999999
 30
0.0
 11
589.00208
 21
77.7
 31
0.0
  0
LINE
  5
378
330
1E
100
AcDbEntity
  8
0
100
AcDbLine
 10
589.00208
 20
77.7
 30
0.0
 11
591.8300799999999
 21
72.40000000000001
 31
0.0
  0
LINE
  5
379
330
1E
100
AcDbEntity
  8
0
100
AcDbLine
 10
554.8540799999999
 20
78.408
 30
0.0
 11
557.7960799999999
 21
72.896
 31
0.0
  0
LINE
  5
37A
330
1E
100
AcDbEntity
  8
0
100
AcDbLine
 10
557.7960799999999
 20
72.896
 30
0.0
 11
559.5610799999999
 21
66.65600000000001
 31
0.0
  0
LINE
  5
37B
330
1E
100
AcDbEntity
  8
0
100
AcDbLine
 10
336.8660799999999
 20
77.36
 30
0.0
 11
340.2260799999999
 21
68.95999999999999
 31
0.0
  0
LINE
  5
37C
330
1E
100
AcDbEntity
  8
0
100
AcDbLine
 10
340.2260799999999
 20
68.95999999999999
 30
0.0
 11
341.4860799999999
 21
60.0
 31
0.0
  0
LINE
  5
37D
330
1E
100
AcDbEntity
  8
0
100
AcDbLine
 10
282.3860799999999
 20
53.6
 30
0.0
 11
284.7860799999999
 21
47.6
 31
0.0
  0
LINE
  5
37E
330
1E
100
AcDbEntity
  8
0
100
AcDbLine
 10
281.4860799999999
 20
60.0
 30
0.0
 11
282.3860799999999
 21
53.6
 31
0.0
  0
LINE
  5
37F
330
1E
100
AcDbEntity
  8
0
100
AcDbLine
 10
281.4860799999999
 20
60.0
 30
0.0
 11
282.3860799999999
 21
66.4
 31
0.0
  0
LINE
  5
380
330
1E
100
AcDbEntity
  8
0
100
AcDbLine
 10
272.74608
 20
51.04
 30
0.0
 11
276.1060799999999
 21
42.64
 31
0.0
  0
LINE
  5
381
330
1E
100
AcDbEntity
  8
0
100
AcDbLine
 10
271.4860799999999
 20
60.0
 30
0.0
 11
272.74608
 21
51.04
 31
0.0
  0
LINE
  5
382
330
1E
100
AcDbEntity
  8
0
100
AcDbLine
 10
271.4860799999999
 20
60.0
 30
0.0
 11
272.74608
 21
68.95999999999999
 31
0.0
  0
LINE
  5
387
330
1E
100
AcDbEntity
  8
0
100
AcDbLine
 10
379.4860799999999
 20
87.0
 30
0.0
 11
386.39808
 21
86.028
 31
0.0
  0
LINE
  5
7A9
330
1E
100
AcDbEntity
  8
0
100
AcDbLine
 10
73.08329314105437
 20
87.02726251996091
 30
0.0
 11
74.43769314105438
 21
93.02726251996091
 31
0.0
  0
LINE
  5
7AA
330
1E
100
AcDbEntity
  8
0
100
AcDbLine
 10
75.61349314105438
 20
91.32726251996091
 30
0.0
 11
77.08949314105438
 21
94.82726251996091
 31
0.0
  0
LINE
  5
7AB
330
1E
100
AcDbEntity
  8
0
100
AcDbLine
 10
74.43769314105438
 20
93.02726251996091
 30
0.0
 11
76.00059314105438
 21
96.72726251996092
 31
0.0
  0
LINE
  5
7AC
330
1E
100
AcDbEntity
  8
0
100
AcDbLine
 10
76.00059314105438
 20
96.72726251996092
 30
0.0
 11
77.68489314105437
 21
98.02726251996091
 31
0.0
  0
LINE
  5
7AD
330
1E
100
AcDbEntity
  8
0
100
AcDbLine
 10
77.68489314105437
 20
98.02726251996091
 30
0.0
 11
80.63939314105438
 21
98.02726251996091
 31
0.0
  0
LINE
  5
7AE
330
1E
100
AcDbEntity
  8
0
100
AcDbLine
 10
109.9749931410543
 20
98.02726251996091
 30
0.0
 11
111.9449931410543
 21
96.02726251996092
 31
0.0
  0
LINE
  5
7AF
330
1E
100
AcDbEntity
  8
0
100
AcDbLine
 10
103.2899931410543
 20
98.02726251996091
 30
0.0
 11
109.9749931410543
 21
98.02726251996091
 31
0.0
  0
LINE
  5
7B0
330
1E
100
AcDbEntity
  8
0
100
AcDbLine
 10
80.63939314105438
 20
98.02726251996091
 30
0.0
 11
103.2899931410543
 21
98.02726251996091
 31
0.0
  0
LINE
  5
7B1
330
1E
100
AcDbEntity
  8
0
100
AcDbLine
 10
111.9449931410543
 20
96.02726251996092
 30
0.0
 11
112.6399931410543
 21
87.02726251996091
 31
0.0
  0
LINE
  5
7B2
330
1E
100
AcDbEntity
  8
0
100
AcDbLine
 10
93.64099314105438
 20
93.02726251996091
 30
0.0
 11
98.25699314105438
 21
96.72726251996092
 31
0.0
  0
LINE
  5
7B3
330
1E
100
AcDbEntity
  8
0
100
AcDbLine
 10
98.25699314105438
 20
96.72726251996092
 30
0.0
 11
103.2899931410543
 21
98.02726251996091
 31
0.0
  0
LINE
  5
7B4
330
1E
100
AcDbEntity
  8
0
100
AcDbLine
 10
78.95499314105437
 20
96.72726251996092
 30
0.0
 11
80.63939314105438
 21
98.02726251996091
 31
0.0
  0
LINE
  5
7B5
330
1E
100
AcDbEntity
  8
0
100
AcDbLine
 10
77.08949314105438
 20
94.82726251996091
 30
0.0
 11
78.95499314105437
 21
96.72726251996092
 31
0.0
  0
LINE
  5
7B6
330
1E
100
AcDbEntity
  8
0
100
AcDbLine
 10
77.39209314105437
 20
93.02726251996091
 30
0.0
 11
78.95499314105437
 21
96.72726251996092
 31
0.0
  0
LINE
  5
7B7
330
1E
100
AcDbEntity
  8
0
100
AcDbLine
 10
112.6399931410543
 20
87.02726251996091
 30
0.0
 11
113.1609931410543
 21
74.22726251996092
 31
0.0
  0
LINE
  5
7B8
330
1E
100
AcDbEntity
  8
0
100
AcDbLine
 10
89.62799314105437
 20
87.02726251996091
 30
0.0
 11
93.64099314105438
 21
93.02726251996091
 31
0.0
  0
LINE
  5
7B9
330
1E
100
AcDbEntity
  8
0
100
AcDbLine
 10
76.03769314105438
 20
87.02726251996091
 30
0.0
 11
77.39209314105437
 21
93.02726251996091
 31
0.0
  0
LINE
  5
7BA
330
1E
100
AcDbEntity
  8
0
100
AcDbLine
 10
61.26559314105438
 20
87.02726251996091
 30
0.0
 11
62.61999314105437
 21
93.02726251996091
 31
0.0
  0
LINE
  5
7BB
330
1E
100
AcDbEntity
  8
0
100
AcDbLine
 10
62.61999314105437
 20
93.02726251996091
 30
0.0
 11
64.18289314105438
 21
96.72726251996092
 31
0.0
  0
LINE
  5
7BC
330
1E
100
AcDbEntity
  8
0
100
AcDbLine
 10
64.18289314105438
 20
96.72726251996092
 30
0.0
 11
65.86719314105437
 21
98.02726251996091
 31
0.0
  0
LINE
  5
7BD
330
1E
100
AcDbEntity
  8
0
100
AcDbLine
 10
65.86719314105437
 20
98.02726251996091
 30
0.0
 11
77.68489314105437
 21
98.02726251996091
 31
0.0
  0
LINE
  5
7BE
330
1E
100
AcDbEntity
  8
0
100
AcDbLine
 10
63.49989314105437
 20
95.2472625199609
 30
0.0
 11
63.52028952377728
 21
95.1586187270596
 31
0.0
  0
LINE
  5
7BF
330
1E
100
AcDbEntity
  8
0
100
AcDbLine
 10
74.32849314105438
 20
85.62726251996091
 30
0.0
 11
75.61349314105438
 21
91.32726251996091
 31
0.0
  0
LINE
  5
7C0
330
1E
100
AcDbEntity
  8
0
100
AcDbLine
 10
72.04139314105437
 20
79.22726251996092
 30
0.0
 11
73.08329314105437
 21
87.02726251996091
 31
0.0
  0
LINE
  5
7C1
330
1E
100
AcDbEntity
  8
0
100
AcDbLine
 10
86.51799314105437
 20
79.22726251996092
 30
0.0
 11
89.62799314105437
 21
87.02726251996091
 31
0.0
  0
LINE
  5
7C2
330
1E
100
AcDbEntity
  8
0
100
AcDbLine
 10
75.02774633389896
 20
79.46647444451071
 30
0.0
 11
76.03769314105438
 21
87.02726251996091
 31
0.0
  0
LINE
  5
7C3
330
1E
100
AcDbEntity
  8
0
100
AcDbLine
 10
75.87759314105437
 20
79.92726251996092
 30
0.0
 11
77.30269314105438
 21
80.1272625199609
 31
0.0
  0
LINE
  5
7C4
330
1E
100
AcDbEntity
  8
0
100
AcDbLine
 10
77.30269314105438
 20
80.1272625199609
 30
0.0
 11
78.83199314105437
 21
79.92726251996092
 31
0.0
  0
LINE
  5
7C5
330
1E
100
AcDbEntity
  8
0
100
AcDbLine
 10
78.83199314105437
 20
79.92726251996092
 30
0.0
 11
80.28589314105428
 21
79.32726251996091
 31
0.0
  0
LINE
  5
7C6
330
1E
100
AcDbEntity
  8
0
100
AcDbLine
 10
80.28589314105428
 20
79.32726251996091
 30
0.0
 11
81.41539314105438
 21
78.52726251996092
 31
0.0
  0
LINE
  5
7C7
330
1E
100
AcDbEntity
  8
0
100
AcDbLine
 10
74.77099314105437
 20
79.32726251996091
 30
0.0
 11
75.87759314105437
 21
79.92726251996092
 31
0.0
  0
LINE
  5
7C8
330
1E
100
AcDbEntity
  8
0
100
AcDbLine
 10
60.22369314105437
 20
79.22726251996092
 30
0.0
 11
61.26559314105438
 21
87.02726251996091
 31
0.0
  0
LINE
  5
7C9
330
1E
100
AcDbEntity
  8
0
100
AcDbLine
 10
73.33869314105438
 20
78.22726251996091
 30
0.0
 11
74.32849314105438
 21
85.62726251996091
 31
0.0
  0
LINE
  5
7CA
330
1E
100
AcDbEntity
  8
0
100
AcDbLine
 10
74.12779314105437
 20
78.52726251996092
 30
0.0
 11
74.77099314105437
 21
79.32726251996091
 31
0.0
  0
LINE
  5
7CB
330
1E
100
AcDbEntity
  8
0
100
AcDbLine
 10
81.41539314105438
 20
78.52726251996092
 30
0.0
 11
81.98859314105439
 21
77.62726251996091
 31
0.0
  0
LINE
  5
7CC
330
1E
100
AcDbEntity
  8
0
100
AcDbLine
 10
113.1609931410543
 20
74.22726251996092
 30
0.0
 11
113.3339931410543
 21
60.52726251996091
 31
0.0
  0
LINE
  5
7CD
330
1E
100
AcDbEntity
  8
0
100
AcDbLine
 10
81.98859314105439
 20
77.62726251996091
 30
0.0
 11
82.56169314105438
 21
75.72726251996091
 31
0.0
  0
LINE
  5
7CE
330
1E
100
AcDbEntity
  8
0
100
AcDbLine
 10
73.64159314105437
 20
73.12726251996091
 30
0.0
 11
74.12779314105437
 21
78.52726251996092
 31
0.0
  0
LINE
  5
7CF
330
1E
100
AcDbEntity
  8
0
100
AcDbLine
 10
72.73099314105436
 20
69.72726251996092
 30
0.0
 11
73.33869314105438
 21
78.22726251996091
 31
0.0
  0
LINE
  5
7D0
330
1E
100
AcDbEntity
  8
0
100
AcDbLine
 10
71.39889314105437
 20
70.22726251996092
 30
0.0
 11
72.04139314105437
 21
79.22726251996092
 31
0.0
  0
LINE
  5
7D1
330
1E
100
AcDbEntity
  8
0
100
AcDbLine
 10
84.69379314105436
 20
70.22726251996092
 30
0.0
 11
86.51799314105437
 21
79.22726251996092
 31
0.0
  0
LINE
  5
7D2
330
1E
100
AcDbEntity
  8
0
100
AcDbLine
 10
82.16229314105438
 20
70.42726251996092
 30
0.0
 11
82.56169314105438
 21
75.72726251996091
 31
0.0
  0
LINE
  5
7D3
330
1E
100
AcDbEntity
  8
0
100
AcDbLine
 10
59.58119314105438
 20
70.22726251996092
 30
0.0
 11
60.22369314105437
 21
79.22726251996092
 31
0.0
  0
LINE
  5
7D4
330
1E
100
AcDbEntity
  8
0
100
AcDbLine
 10
73.34639314105437
 20
66.92726251996091
 30
0.0
 11
73.64159314105437
 21
73.12726251996091
 31
0.0
  0
LINE
  5
7D5
330
1E
100
AcDbEntity
  8
0
100
AcDbLine
 10
83.97559314105437
 20
60.52726251996091
 30
0.0
 11
84.69379314105436
 21
70.22726251996092
 31
0.0
  0
LINE
  5
7D6
330
1E
100
AcDbEntity
  8
0
100
AcDbLine
 10
83.97559314105437
 20
60.52726251996091
 30
0.0
 11
84.69379314105436
 21
50.82726251996091
 31
0.0
  0
LINE
  5
7D7
330
1E
100
AcDbEntity
  8
0
100
AcDbLine
 10
72.50519314105438
 20
60.52726251996091
 30
0.0
 11
72.73099314105436
 21
69.72726251996092
 31
0.0
  0
LINE
  5
7D8
330
1E
100
AcDbEntity
  8
0
100
AcDbLine
 10
72.50519314105438
 20
60.52726251996091
 30
0.0
 11
72.73099314105436
 21
51.32726251996091
 31
0.0
  0
LINE
  5
7D9
330
1E
100
AcDbEntity
  8
0
100
AcDbLine
 10
82.02339314105437
 20
65.42726251996092
 30
0.0
 11
82.16229314105438
 21
70.42726251996092
 31
0.0
  0
LINE
  5
7DA
330
1E
100
AcDbEntity
  8
0
100
AcDbLine
 10
71.17309314105438
 20
60.52726251996091
 30
0.0
 11
71.39889314105437
 21
70.22726251996092
 31
0.0
  0
LINE
  5
7DB
330
1E
100
AcDbEntity
  8
0
100
AcDbLine
 10
71.17309314105438
 20
60.52726251996091
 30
0.0
 11
71.39889314105437
 21
50.82726251996091
 31
0.0
  0
LINE
  5
7DC
330
1E
100
AcDbEntity
  8
0
100
AcDbLine
 10
81.83239314105438
 20
60.52726251996091
 30
0.0
 11
82.02339314105437
 21
65.42726251996092
 31
0.0
  0
LINE
  5
7DD
330
1E
100
AcDbEntity
  8
0
100
AcDbLine
 10
81.83239314105438
 20
60.52726251996091
 30
0.0
 11
82.02339314105437
 21
55.62726251996092
 31
0.0
  0
LINE
  5
7DE
330
1E
100
AcDbEntity
  8
0
100
AcDbLine
 10
73.24219314105437
 20
60.52726251996091
 30
0.0
 11
73.34639314105437
 21
66.92726251996091
 31
0.0
  0
LINE
  5
7DF
330
1E
100
AcDbEntity
  8
0
100
AcDbLine
 10
73.24219314105437
 20
60.52726251996091
 30
0.0
 11
73.34639314105437
 21
54.12726251996091
 31
0.0
  0
LINE
  5
7E0
330
1E
100
AcDbEntity
  8
0
100
AcDbLine
 10
59.35539314105438
 20
60.52726251996091
 30
0.0
 11
59.58119314105438
 21
70.22726251996092
 31
0.0
  0
LINE
  5
7E1
330
1E
100
AcDbEntity
  8
0
100
AcDbLine
 10
59.35539314105438
 20
60.52726251996091
 30
0.0
 11
59.58119314105438
 21
50.82726251996091
 31
0.0
  0
LINE
  5
7E2
330
1E
100
AcDbEntity
  8
0
100
AcDbLine
 10
82.02339314105437
 20
55.62726251996092
 30
0.0
 11
82.16229314105438
 21
50.62726251996092
 31
0.0
  0
LINE
  5
7E3
330
1E
100
AcDbEntity
  8
0
100
AcDbLine
 10
84.69379314105436
 20
50.82726251996091
 30
0.0
 11
86.51799314105437
 21
41.82726251996091
 31
0.0
  0
LINE
  5
7E4
330
1E
100
AcDbEntity
  8
0
100
AcDbLine
 10
72.73099314105436
 20
51.32726251996091
 30
0.0
 11
73.33869314105438
 21
42.8272625199609
 31
0.0
  0
LINE
  5
7E5
330
1E
100
AcDbEntity
  8
0
100
AcDbLine
 10
73.34639314105437
 20
54.12726251996091
 30
0.0
 11
73.64159314105437
 21
47.92726251996091
 31
0.0
  0
LINE
  5
7E6
330
1E
100
AcDbEntity
  8
0
100
AcDbLine
 10
71.39889314105437
 20
50.82726251996091
 30
0.0
 11
72.04139314105437
 21
41.82726251996091
 31
0.0
  0
LINE
  5
7E7
330
1E
100
AcDbEntity
  8
0
100
AcDbLine
 10
82.16229314105438
 20
50.62726251996092
 30
0.0
 11
82.56169314105438
 21
45.3272625199609
 31
0.0
  0
LINE
  5
7E8
330
1E
100
AcDbEntity
  8
0
100
AcDbLine
 10
59.58119314105438
 20
50.82726251996091
 30
0.0
 11
60.22369314105437
 21
41.82726251996091
 31
0.0
  0
LINE
  5
7E9
330
1E
100
AcDbEntity
  8
0
100
AcDbLine
 10
73.64159314105437
 20
47.92726251996091
 30
0.0
 11
74.12779314105437
 21
42.52726251996091
 31
0.0
  0
LINE
  5
7EA
330
1E
100
AcDbEntity
  8
0
100
AcDbLine
 10
113.1609931410543
 20
46.82726251996091
 30
0.0
 11
113.3339931410543
 21
60.52726251996091
 31
0.0
  0
LINE
  5
7EB
330
1E
100
AcDbEntity
  8
0
100
AcDbLine
 10
86.51799314105437
 20
41.82726251996091
 30
0.0
 11
89.62799314105437
 21
34.02726251996091
 31
0.0
  0
LINE
  5
7EC
330
1E
100
AcDbEntity
  8
0
100
AcDbLine
 10
75.02774633389896
 20
41.58805059541111
 30
0.0
 11
76.03769314105438
 21
34.02726251996091
 31
0.0
  0
LINE
  5
7ED
330
1E
100
AcDbEntity
  8
0
100
AcDbLine
 10
73.33869314105438
 20
42.8272625199609
 30
0.0
 11
74.32849314105438
 21
35.42726251996091
 31
0.0
  0
LINE
  5
7EE
330
1E
100
AcDbEntity
  8
0
100
AcDbLine
 10
80.28589314105428
 20
41.72726251996091
 30
0.0
 11
81.41539314105438
 21
42.52726251996091
 31
0.0
  0
LINE
  5
7EF
330
1E
100
AcDbEntity
  8
0
100
AcDbLine
 10
81.41539314105438
 20
42.52726251996091
 30
0.0
 11
81.98859314105439
 21
43.42726251996091
 31
0.0
  0
LINE
  5
7F0
330
1E
100
AcDbEntity
  8
0
100
AcDbLine
 10
81.98859314105439
 20
43.42726251996091
 30
0.0
 11
82.56169314105438
 21
45.3272625199609
 31
0.0
  0
LINE
  5
7F1
330
1E
100
AcDbEntity
  8
0
100
AcDbLine
 10
74.12779314105437
 20
42.52726251996091
 30
0.0
 11
74.77099314105437
 21
41.72726251996091
 31
0.0
  0
LINE
  5
7F2
330
1E
100
AcDbEntity
  8
0
100
AcDbLine
 10
74.77099314105437
 20
41.72726251996091
 30
0.0
 11
75.87759314105437
 21
41.12726251996091
 31
0.0
  0
LINE
  5
7F3
330
1E
100
AcDbEntity
  8
0
100
AcDbLine
 10
72.04139314105437
 20
41.82726251996091
 30
0.0
 11
73.08329314105437
 21
34.02726251996091
 31
0.0
  0
LINE
  5
7F4
330
1E
100
AcDbEntity
  8
0
100
AcDbLine
 10
60.22369314105437
 20
41.82726251996091
 30
0.0
 11
61.26559314105438
 21
34.02726251996091
 31
0.0
  0
LINE
  5
7F5
330
1E
100
AcDbEntity
  8
0
100
AcDbLine
 10
77.30269314105438
 20
40.92726251996091
 30
0.0
 11
78.83199314105437
 21
41.12726251996091
 31
0.0
  0
LINE
  5
7F6
330
1E
100
AcDbEntity
  8
0
100
AcDbLine
 10
78.83199314105437
 20
41.12726251996091
 30
0.0
 11
80.28589314105428
 21
41.72726251996091
 31
0.0
  0
LINE
  5
7F7
330
1E
100
AcDbEntity
  8
0
100
AcDbLine
 10
75.87759314105437
 20
41.12726251996091
 30
0.0
 11
77.30269314105438
 21
40.92726251996091
 31
0.0
  0
LINE
  5
7F8
330
1E
100
AcDbEntity
  8
0
100
AcDbLine
 10
74.32849314105438
 20
35.42726251996091
 30
0.0
 11
75.61349314105438
 21
29.72726251996091
 31
0.0
  0
LINE
  5
7F9
330
1E
100
AcDbEntity
  8
0
100
AcDbLine
 10
112.6399931410543
 20
34.02726251996091
 30
0.0
 11
113.1609931410543
 21
46.82726251996091
 31
0.0
  0
LINE
  5
7FA
330
1E
100
AcDbEntity
  8
0
100
AcDbLine
 10
89.62799314105437
 20
34.02726251996091
 30
0.0
 11
93.64099314105438
 21
28.02726251996091
 31
0.0
  0
LINE
  5
7FB
330
1E
100
AcDbEntity
  8
0
100
AcDbLine
 10
76.03769314105438
 20
34.02726251996091
 30
0.0
 11
77.39209314105437
 21
28.02726251996091
 31
0.0
  0
LINE
  5
7FC
330
1E
100
AcDbEntity
  8
0
100
AcDbLine
 10
73.08329314105437
 20
34.02726251996091
 30
0.0
 11
74.43769314105438
 21
28.02726251996091
 31
0.0
  0
LINE
  5
7FD
330
1E
100
AcDbEntity
  8
0
100
AcDbLine
 10
61.26559314105438
 20
34.02726251996091
 30
0.0
 11
62.61999314105437
 21
28.02726251996091
 31
0.0
  0
LINE
  5
7FE
330
1E
100
AcDbEntity
  8
0
100
AcDbLine
 10
111.9449931410543
 20
25.02726251996091
 30
0.0
 11
112.6399931410543
 21
34.02726251996091
 31
0.0
  0
LINE
  5
7FF
330
1E
100
AcDbEntity
  8
0
100
AcDbLine
 10
109.9749931410543
 20
23.02726251996091
 30
0.0
 11
111.9449931410543
 21
25.02726251996091
 31
0.0
  0
LINE
  5
800
330
1E
100
AcDbEntity
  8
0
100
AcDbLine
 10
103.2899931410543
 20
23.02726251996091
 30
0.0
 11
109.9749931410543
 21
23.02726251996091
 31
0.0
  0
LINE
  5
801
330
1E
100
AcDbEntity
  8
0
100
AcDbLine
 10
93.64099314105438
 20
28.02726251996091
 30
0.0
 11
98.25699314105438
 21
24.32726251996091
 31
0.0
  0
LINE
  5
802
330
1E
100
AcDbEntity
  8
0
100
AcDbLine
 10
75.61349314105438
 20
29.72726251996091
 30
0.0
 11
77.08949314105438
 21
26.22726251996091
 31
0.0
  0
LINE
  5
803
330
1E
100
AcDbEntity
  8
0
100
AcDbLine
 10
98.25699314105438
 20
24.32726251996091
 30
0.0
 11
103.2899931410543
 21
23.02726251996091
 31
0.0
  0
LINE
  5
804
330
1E
100
AcDbEntity
  8
0
100
AcDbLine
 10
77.39209314105437
 20
28.02726251996091
 30
0.0
 11
78.95499314105437
 21
24.32726251996091
 31
0.0
  0
LINE
  5
805
330
1E
100
AcDbEntity
  8
0
100
AcDbLine
 10
78.95499314105437
 20
24.32726251996091
 30
0.0
 11
80.63939314105438
 21
23.02726251996091
 31
0.0
  0
LINE
  5
806
330
1E
100
AcDbEntity
  8
0
100
AcDbLine
 10
87.32479314105438
 20
23.02726251996091
 30
0.0
 11
109.9749931410543
 21
23.02726251996091
 31
0.0
  0
LINE
  5
807
330
1E
100
AcDbEntity
  8
0
100
AcDbLine
 10
80.63939314105438
 20
23.02726251996091
 30
0.0
 11
87.32479314105438
 21
23.02726251996091
 31
0.0
  0
LINE
  5
808
330
1E
100
AcDbEntity
  8
0
100
AcDbLine
 10
80.43119314105437
 20
23.02726251996091
 30
0.0
 11
84.37039314105438
 21
23.02726251996091
 31
0.0
  0
LINE
  5
809
330
1E
100
AcDbEntity
  8
0
100
AcDbLine
 10
77.08949314105438
 20
26.22726251996091
 30
0.0
 11
78.95499314105437
 21
24.32726251996091
 31
0.0
  0
LINE
  5
80A
330
1E
100
AcDbEntity
  8
0
100
AcDbLine
 10
74.43769314105438
 20
28.02726251996091
 30
0.0
 11
76.00059314105438
 21
24.32726251996091
 31
0.0
  0
LINE
  5
80B
330
1E
100
AcDbEntity
  8
0
100
AcDbLine
 10
62.61999314105437
 20
28.02726251996091
 30
0.0
 11
64.18289314105438
 21
24.32726251996091
 31
0.0
  0
LINE
  5
80C
330
1E
100
AcDbEntity
  8
0
100
AcDbLine
 10
76.00059314105438
 20
24.32726251996091
 30
0.0
 11
77.68489314105437
 21
23.02726251996091
 31
0.0
  0
LINE
  5
80D
330
1E
100
AcDbEntity
  8
0
100
AcDbLine
 10
64.18289314105438
 20
24.32726251996091
 30
0.0
 11
65.86719314105437
 21
23.02726251996091
 31
0.0
  0
LINE
  5
80E
330
1E
100
AcDbEntity
  8
0
100
AcDbLine
 10
63.49989314105437
 20
25.80726251996091
 30
0.0
 11
63.52028952377728
 21
25.89590631286212
 31
0.0
  0
LINE
  5
80F
330
1E
100
AcDbEntity
  8
0
100
AcDbLine
 10
65.86719314105437
 20
23.02726251996091
 30
0.0
 11
80.43119314105437
 21
23.02726251996091
 31
0.0
  0
LINE
  5
810
330
1E
100
AcDbEntity
  8
0
100
AcDbLine
 10
64.13378
 20
100.0
 30
0.0
 11
65.86719314105437
 21
98.02726251996091
 31
0.0
  0
ENDSEC
  0
SECTION
  2
OBJECTS
  0
DICTIONARY
  5
C
330
0
100
AcDbDictionary
281
     1
  3
ACAD_GROUP
350
D
  3
ACAD_LAYOUT
350
19
  3
ACAD_MLINESTYLE
350
16
  3
ACAD_PLOTSETTINGS
350
18
  3
ACAD_PLOTSTYLENAME
350
E
  3
AcDbVariableDictionary
350
389
  0
DICTIONARY
  5
D
102
{ACAD_REACTORS
330
C
102
}
330
C
100
AcDbDictionary
281
     1
  0
DICTIONARY
  5
19
102
{ACAD_REACTORS
330
C
102
}
330
C
100
AcDbDictionary
281
     1
  3
Layout1
350
1D
  3
Model
350
21
  0
DICTIONARY
  5
16
102
{ACAD_REACTORS
330
C
102
}
330
C
100
AcDbDictionary
281
     1
  3
Standard
350
17
  0
DICTIONARY
  5
18
102
{ACAD_REACTORS
330
C
102
}
330
C
100
AcDbDictionary
281
     1
  0
ACDBDICTIONARYWDFLT
  5
E
102
{ACAD_REACTORS
330
C
102
}
330
C
100
AcDbDictionary
281
     1
  3
Normal
350
F
100
AcDbDictionaryWithDefault
340
F
  0
DICTIONARY
  5
389
102
{ACAD_REACTORS
330
C
102
}
330
C
100
AcDbDictionary
281
     1
  3
DIMASSOC
350
38A
  0
LAYOUT
  5
1D
102
{ACAD_REACTORS
330
19
102
}
330
19
100
AcDbPlotSettings
  1

  2
hp deskjet 980c series
  4

  6

 40
0.0
 41
0.0
 42
0.0
 43
0.0
 44
0.0
 45
0.0
 46
0.0
 47
0.0
 48
0.0
 49
0.0
140
0.0
141
0.0
142
1.0
143
1.0
 70
   688
 72
     0
 73
     0
 74
     5
  7

 75
    16
147
1.0
148
0.0
149
0.0
100
AcDbLayout
  1
Layout1
 70
     1
 71
     1
 10
0.0
 20
0.0
 11
12.0
 21
9.0
 12
0.0
 22
0.0
 32
0.0
 14
1.000000000000000E+20
 24
1.000000000000000E+20
 34
1.000000000000000E+20
 15
-1.000000000000000E+20
 25
-1.000000000000000E+20
 35
-1.000000000000000E+20
146
0.0
 13
0.0
 23
0.0
 33
0.0
 16
1.0
 26
0.0
 36
0.0
 17
0.0
 27
1.0
 37
0.0
 76
     0
330
1A
  0
LAYOUT
  5
21
102
{ACAD_REACTORS
330
19
102
}
330
19
100
AcDbPlotSettings
  1

  2
hp deskjet 980c series
  4

  6

 40
0.0
 41
0.0
 42
0.0
 43
0.0
 44
0.0
 45
0.0
 46
0.0
 47
0.0
 48
0.0
 49
0.0
140
0.0
141
0.0
142
1.0
143
1.0
 70
  1712
 72
     0
 73
     0
 74
     0
  7

 75
     0
147
1.0
148
0.0
149
0.0
100
AcDbLayout
  1
Model
 70
     1
 71
     0
 10
0.0
 20
0.0
 11
12.0
 21
9.0
 12
0.0
 22
0.0
 32
0.0
 14
0.0
 24
0.0
 34
0.0
 15
0.0
 25
0.0
 35
0.0
146
0.0
 13
0.0
 23
0.0
 33
0.0
 16
1.0
 26
0.0
 36
0.0
 17
0.0
 27
1.0
 37
0.0
 76
     0
330
1E
  0
MLINESTYLE
  5
17
102
{ACAD_REACTORS
330
16
102
}
330
16
100
AcDbMlineStyle
  2
STANDARD
 70
     0
  3

 62
   256
 51
90.0
 52
90.0
 71
     2
 49
0.5
 62
   256
  6
BYLAYER
 49
-0.5
 62
   256
  6
BYLAYER
  0
ACDBPLACEHOLDER
  5
F
102
{ACAD_REACTORS
330
E
102
}
330
E
  0
DICTIONARYVAR
  5
38A
102
{ACAD_REACTORS
330
389
102
}
330
389
100
DictionaryVariables
280
     0
  1
1
  0
ENDSEC
  0
EOF
