  0
SECTION
  2
HEADER
  9
$ACADVER
  1
AC1015
  9
$ACADMAINTVER
 70
    13
  9
$DWGCODEPAGE
  3
ANSI_1252
  9
$INSBASE
 10
0.0
 20
0.0
 30
0.0
  9
$EXTMIN
 10
0.0
 20
0.0
 30
0.0
  9
$EXTMAX
 10
340.0
 20
165.0
 30
0.0
  9
$LIMMIN
 10
0.0
 20
0.0
  9
$LIMMAX
 10
12.0
 20
9.0
  9
$ORTHOMODE
 70
     0
  9
$REGENMODE
 70
     1
  9
$FILLMODE
 70
     1
  9
$QTEXTMODE
 70
     0
  9
$MIRRTEXT
 70
     1
  9
$LTSCALE
 40
1.0
  9
$ATTMODE
 70
     1
  9
$TEXTSIZE
 40
0.2
  9
$TRACEWID
 40
0.05
  9
$TEXTSTYLE
  7
Standard
  9
$CLAYER
  8
0
  9
$CELTYPE
  6
Continuous
  9
$CECOLOR
 62
   256
  9
$CELTSCALE
 40
1.0
  9
$DISPSILH
 70
     0
  9
$DIMSCALE
 40
1.0
  9
$DIMASZ
 40
0.18
  9
$DIMEXO
 40
0.0625
  9
$DIMDLI
 40
0.38
  9
$DIMRND
 40
0.0
  9
$DIMDLE
 40
0.0
  9
$DIMEXE
 40
0.18
  9
$DIMTP
 40
0.0
  9
$DIMTM
 40
0.0
  9
$DIMTXT
 40
0.18
  9
$DIMCEN
 40
0.09
  9
$DIMTSZ
 40
0.0
  9
$DIMTOL
 70
     0
  9
$DIMLIM
 70
     0
  9
$DIMTIH
 70
     1
  9
$DIMTOH
 70
     1
  9
$DIMSE1
 70
     0
  9
$DIMSE2
 70
     0
  9
$DIMTAD
 70
     0
  9
$DIMZIN
 70
     0
  9
$DIMBLK
  1

  9
$DIMASO
 70
     1
  9
$DIMSHO
 70
     1
  9
$DIMPOST
  1

  9
$DIMAPOST
  1

  9
$DIMALT
 70
     0
  9
$DIMALTD
 70
     2
  9
$DIMALTF
 40
25.4
  9
$DIMLFAC
 40
1.0
  9
$DIMTOFL
 70
     0
  9
$DIMTVP
 40
0.0
  9
$DIMTIX
 70
     0
  9
$DIMSOXD
 70
     0
  9
$DIMSAH
 70
     0
  9
$DIMBLK1
  1

  9
$DIMBLK2
  1

  9
$DIMSTYLE
  2
Standard
  9
$DIMCLRD
 70
     0
  9
$DIMCLRE
 70
     0
  9
$DIMCLRT
 70
     0
  9
$DIMTFAC
 40
1.0
  9
$DIMGAP
 40
0.09
  9
$DIMJUST
 70
     0
  9
$DIMSD1
 70
     0
  9
$DIMSD2
 70
     0
  9
$DIMTOLJ
 70
     1
  9
$DIMTZIN
 70
     0
  9
$DIMALTZ
 70
     0
  9
$DIMALTTZ
 70
     0
  9
$DIMUPT
 70
     0
  9
$DIMDEC
 70
     4
  9
$DIMTDEC
 70
     4
  9
$DIMALTU
 70
     2
  9
$DIMALTTD
 70
     2
  9
$DIMTXSTY
  7
Standard
  9
$DIMAUNIT
 70
     0
  9
$DIMADEC
 70
     0
  9
$DIMALTRND
 40
0.0
  9
$DIMAZIN
 70
     0
  9
$DIMDSEP
 70
    46
  9
$DIMATFIT
 70
     3
  9
$DIMFRAC
 70
     0
  9
$DIMLDRBLK
  1

  9
$DIMLUNIT
 70
     2
  9
$DIMLWD
 70
    -2
  9
$DIMLWE
 70
    -2
  9
$DIMTMOVE
 70
     0
  9
$LUNITS
 70
     2
  9
$LUPREC
 70
     4
  9
$SKETCHINC
 40
0.1
  9
$FILLETRAD
 40
0.0
  9
$AUNITS
 70
     0
  9
$AUPREC
 70
     0
  9
$MENU
  1
.
  9
$ELEVATION
 40
0.0
  9
$PELEVATION
 40
0.0
  9
$THICKNESS
 40
0.0
  9
$LIMCHECK
 70
     0
  9
$CHAMFERA
 40
0.0
  9
$CHAMFERB
 40
0.0
  9
$CHAMFERC
 40
0.0
  9
$CHAMFERD
 40
0.0
  9
$SKPOLY
 70
     0
  9
$TDCREATE
 40
2454779.880659896
  9
$TDUCREATE
 40
2454779.838993228
  9
$TDUPDATE
 40
2454779.884204456
  9
$TDUUPDATE
 40
2454779.842537789
  9
$TDINDWG
 40
0.0035445602
  9
$TDUSRTIMER
 40
0.0035445602
  9
$USRTIMER
 70
     1
  9
$ANGBASE
 50
0.0
  9
$ANGDIR
 70
     0
  9
$PDMODE
 70
     0
  9
$PDSIZE
 40
0.0
  9
$PLINEWID
 40
0.0
  9
$SPLFRAME
 70
     0
  9
$SPLINETYPE
 70
     6
  9
$SPLINESEGS
 70
     8
  9
$HANDSEED
  5
585
  9
$SURFTAB1
 70
     6
  9
$SURFTAB2
 70
     6
  9
$SURFTYPE
 70
     6
  9
$SURFU
 70
     6
  9
$SURFV
 70
     6
  9
$UCSBASE
  2

  9
$UCSNAME
  2

  9
$UCSORG
 10
0.0
 20
0.0
 30
0.0
  9
$UCSXDIR
 10
1.0
 20
0.0
 30
0.0
  9
$UCSYDIR
 10
0.0
 20
1.0
 30
0.0
  9
$UCSORTHOREF
  2

  9
$UCSORTHOVIEW
 70
     1
  9
$UCSORGTOP
 10
0.0
 20
0.0
 30
0.0
  9
$UCSORGBOTTOM
 10
0.0
 20
0.0
 30
0.0
  9
$UCSORGLEFT
 10
0.0
 20
0.0
 30
0.0
  9
$UCSORGRIGHT
 10
0.0
 20
0.0
 30
0.0
  9
$UCSORGFRONT
 10
0.0
 20
0.0
 30
0.0
  9
$UCSORGBACK
 10
0.0
 20
0.0
 30
0.0
  9
$PUCSBASE
  2

  9
$PUCSNAME
  2

  9
$PUCSORG
 10
0.0
 20
0.0
 30
0.0
  9
$PUCSXDIR
 10
1.0
 20
0.0
 30
0.0
  9
$PUCSYDIR
 10
0.0
 20
1.0
 30
0.0
  9
$PUCSORTHOREF
  2

  9
$PUCSORTHOVIEW
 70
     0
  9
$PUCSORGTOP
 10
0.0
 20
0.0
 30
0.0
  9
$PUCSORGBOTTOM
 10
0.0
 20
0.0
 30
0.0
  9
$PUCSORGLEFT
 10
0.0
 20
0.0
 30
0.0
  9
$PUCSORGRIGHT
 10
0.0
 20
0.0
 30
0.0
  9
$PUCSORGFRONT
 10
0.0
 20
0.0
 30
0.0
  9
$PUCSORGBACK
 10
0.0
 20
0.0
 30
0.0
  9
$USERI1
 70
     0
  9
$USERI2
 70
     0
  9
$USERI3
 70
     0
  9
$USERI4
 70
     0
  9
$USERI5
 70
     0
  9
$USERR1
 40
0.0
  9
$USERR2
 40
0.0
  9
$USERR3
 40
0.0
  9
$USERR4
 40
0.0
  9
$USERR5
 40
0.0
  9
$WORLDVIEW
 70
     1
  9
$SHADEDGE
 70
     3
  9
$SHADEDIF
 70
    70
  9
$TILEMODE
 70
     1
  9
$MAXACTVP
 70
    64
  9
$PINSBASE
 10
0.0
 20
0.0
 30
0.0
  9
$PLIMCHECK
 70
     0
  9
$PEXTMIN
 10
1.000000000000000E+20
 20
1.000000000000000E+20
 30
1.000000000000000E+20
  9
$PEXTMAX
 10
-1.000000000000000E+20
 20
-1.000000000000000E+20
 30
-1.000000000000000E+20
  9
$PLIMMIN
 10
0.0
 20
0.0
  9
$PLIMMAX
 10
12.0
 20
9.0
  9
$UNITMODE
 70
     0
  9
$VISRETAIN
 70
     1
  9
$PLINEGEN
 70
     0
  9
$PSLTSCALE
 70
     1
  9
$TREEDEPTH
 70
  3020
  9
$CMLSTYLE
  2
Standard
  9
$CMLJUST
 70
     0
  9
$CMLSCALE
 40
1.0
  9
$PROXYGRAPHICS
 70
     1
  9
$MEASUREMENT
 70
     0
  9
$CELWEIGHT
370
    -1
  9
$ENDCAPS
280
     0
  9
$JOINSTYLE
280
     0
  9
$LWDISPLAY
290
     0
  9
$INSUNITS
 70
     0
  9
$HYPERLINKBASE
  1

  9
$STYLESHEET
  1

  9
$XEDIT
290
     1
  9
$CEPSNTYPE
380
     0
  9
$PSTYLEMODE
290
     1
  9
$FINGERPRINTGUID
  2
{D201BFE3-B1DA-4B79-8892-64AD49CC0A22}
  9
$VERSIONGUID
  2
{8B4EE1BE-EC7C-4988-B5ED-6E1733435215}
  9
$EXTNAMES
290
     1
  9
$PSVPSCALE
 40
0.0
  9
$OLESTARTUP
290
     0
  0
ENDSEC
  0
SECTION
  2
CLASSES
  0
CLASS
  1
ACDBDICTIONARYWDFLT
  2
AcDbDictionaryWithDefault
  3
AutoCAD 2000
 90
        0
280
     0
281
     0
  0
CLASS
  1
ACDBPLACEHOLDER
  2
AcDbPlaceHolder
  3
AutoCAD 2000
 90
        0
280
     0
281
     0
  0
CLASS
  1
LAYOUT
  2
AcDbLayout
  3
AutoCAD 2000
 90
        0
280
     0
281
     0
  0
CLASS
  1
DICTIONARYVAR
  2
AcDbDictionaryVar
  3
AutoCAD 2000
 90
        0
280
     0
281
     0
  0
ENDSEC
  0
SECTION
  2
TABLES
  0
TABLE
  2
VPORT
  5
8
330
0
100
AcDbSymbolTable
 70
     2
  0
VPORT
  5
584
330
8
100
AcDbSymbolTableRecord
100
AcDbViewportTableRecord
  2
*Active
 70
     0
 10
0.0
 20
0.0
 11
1.0
 21
1.0
 12
170.0
 22
82.5
 13
0.0
 23
0.0
 14
1.0
 24
1.0
 15
0.0
 25
0.0
 16
0.0
 26
0.0
 36
1.0
 17
0.0
 27
0.0
 37
0.0
 40
166.2659846547314
 41
2.078104993597951
 42
50.0
 43
0.0
 44
0.0
 50
0.0
 51
0.0
 71
     0
 72
   100
 73
     1
 74
     3
 75
     0
 76
     0
 77
     0
 78
     0
281
     0
 65
     1
110
0.0
120
0.0
130
0.0
111
1.0
121
0.0
131
0.0
112
0.0
122
1.0
132
0.0
 79
     1
146
0.0
  0
ENDTAB
  0
TABLE
  2
LTYPE
  5
5
330
0
100
AcDbSymbolTable
 70
     1
  0
LTYPE
  5
13
330
5
100
AcDbSymbolTableRecord
100
AcDbLinetypeTableRecord
  2
ByBlock
 70
     0
  3

 72
    65
 73
     0
 40
0.0
  0
LTYPE
  5
14
330
5
100
AcDbSymbolTableRecord
100
AcDbLinetypeTableRecord
  2
ByLayer
 70
     0
  3

 72
    65
 73
     0
 40
0.0
  0
LTYPE
  5
15
330
5
100
AcDbSymbolTableRecord
100
AcDbLinetypeTableRecord
  2
Continuous
 70
     0
  3
Solid line
 72
    65
 73
     0
 40
0.0
  0
ENDTAB
  0
TABLE
  2
LAYER
  5
2
330
0
100
AcDbSymbolTable
 70
     1
  0
LAYER
  5
10
330
2
100
AcDbSymbolTableRecord
100
AcDbLayerTableRecord
  2
0
 70
     0
 62
     7
  6
Continuous
370
    -3
390
F
  0
ENDTAB
  0
TABLE
  2
STYLE
  5
3
330
0
100
AcDbSymbolTable
 70
     1
  0
STYLE
  5
11
330
3
100
AcDbSymbolTableRecord
100
AcDbTextStyleTableRecord
  2
Standard
 70
     0
 40
0.0
 41
1.0
 50
0.0
 71
     0
 42
0.2
  3
txt
  4

  0
ENDTAB
  0
TABLE
  2
VIEW
  5
6
330
0
100
AcDbSymbolTable
 70
     0
  0
ENDTAB
  0
TABLE
  2
UCS
  5
7
330
0
100
AcDbSymbolTable
 70
     0
  0
ENDTAB
  0
TABLE
  2
APPID
  5
9
330
0
100
AcDbSymbolTable
 70
     1
  0
APPID
  5
12
330
9
100
AcDbSymbolTableRecord
100
AcDbRegAppTableRecord
  2
ACAD
 70
     0
  0
ENDTAB
  0
TABLE
  2
DIMSTYLE
  5
A
330
0
100
AcDbSymbolTable
 70
     1
100
AcDbDimStyleTable
 71
     0
  0
DIMSTYLE
105
3AA
330
A
100
AcDbSymbolTableRecord
100
AcDbDimStyleTableRecord
  2
Standard
 70
     0
340
11
  0
ENDTAB
  0
TABLE
  2
BLOCK_RECORD
  5
1
330
0
100
AcDbSymbolTable
 70
     0
  0
BLOCK_RECORD
  5
1E
330
1
100
AcDbSymbolTableRecord
100
AcDbBlockTableRecord
  2
*Model_Space
340
21
  0
BLOCK_RECORD
  5
1A
330
1
100
AcDbSymbolTableRecord
100
AcDbBlockTableRecord
  2
*Paper_Space
340
1D
  0
ENDTAB
  0
ENDSEC
  0
SECTION
  2
BLOCKS
  0
BLOCK
  5
1F
330
1E
100
AcDbEntity
  8
0
100
AcDbBlockBegin
  2
*Model_Space
 70
     0
 10
0.0
 20
0.0
 30
0.0
  3
*Model_Space
  1

  0
ENDBLK
  5
20
330
1E
100
AcDbEntity
  8
0
100
AcDbBlockEnd
  0
BLOCK
  5
1B
330
1A
100
AcDbEntity
 67
     1
  8
0
100
AcDbBlockBegin
  2
*Paper_Space
 70
     0
 10
0.0
 20
0.0
 30
0.0
  3
*Paper_Space
  1

  0
ENDBLK
  5
1C
330
1A
100
AcDbEntity
 67
     1
  8
0
100
AcDbBlockEnd
  0
ENDSEC
  0
SECTION
  2
ENTITIES
  0
LINE
  5
22
330
1E
100
AcDbEntity
  8
0
100
AcDbLine
 10
0.0
 20
0.0000000000000001
 30
0.0
 11
340.0
 21
0.0000000000000001
 31
0.0
  0
LINE
  5
23
330
1E
100
AcDbEntity
  8
0
100
AcDbLine
 10
0.0000000000000024
 20
0.0000000000000001
 30
0.0
 11
340.0
 21
0.0000000000000001
 31
0.0
  0
LINE
  5
24
330
1E
100
AcDbEntity
  8
0
100
AcDbLine
 10
0.0000000000000024
 20
0.0000000000000001
 30
0.0
 11
0.0000000000000024
 21
2.0
 31
0.0
  0
LINE
  5
25
330
1E
100
AcDbEntity
  8
0
100
AcDbLine
 10
0.0000000000000024
 20
0.0000000000000001
 30
0.0
 11
0.0000000000000024
 21
165.0
 31
0.0
  0
LINE
  5
26
330
1E
100
AcDbEntity
  8
0
100
AcDbLine
 10
0.0
 20
0.0000000000000006
 30
0.0
 11
340.0
 21
0.0000000000000006
 31
0.0
  0
LINE
  5
27
330
1E
100
AcDbEntity
  8
0
100
AcDbLine
 10
0.0
 20
2.0
 30
0.0
 11
340.0
 21
2.0
 31
0.0
  0
LINE
  5
28
330
1E
100
AcDbEntity
  8
0
100
AcDbLine
 10
0.0000000000000024
 20
2.0
 30
0.0
 11
340.0
 21
2.0
 31
0.0
  0
LINE
  5
29
330
1E
100
AcDbEntity
  8
0
100
AcDbLine
 10
0.0000000000000024
 20
2.0
 30
0.0
 11
0.0000000000000024
 21
0.0000000000000006
 31
0.0
  0
LINE
  5
2A
330
1E
100
AcDbEntity
  8
0
100
AcDbLine
 10
0.0000000000000024
 20
2.0
 30
0.0
 11
0.0000000000000024
 21
0.0
 31
0.0
  0
LINE
  5
2B
330
1E
100
AcDbEntity
  8
0
100
AcDbLine
 10
0.0000000000000024
 20
2.0
 30
0.0
 11
0.0000000000000024
 21
163.0
 31
0.0
  0
LINE
  5
2C
330
1E
100
AcDbEntity
  8
0
100
AcDbLine
 10
0.0000000000000024
 20
0.0000000000000006
 30
0.0
 11
0.0000000000000024
 21
2.0
 31
0.0
  0
LINE
  5
2D
330
1E
100
AcDbEntity
  8
0
100
AcDbLine
 10
0.0000000000000024
 20
0.0000000000000006
 30
0.0
 11
340.0
 21
0.0000000000000006
 31
0.0
  0
LINE
  5
2E
330
1E
100
AcDbEntity
  8
0
100
AcDbLine
 10
65.544
 20
9.236
 30
0.0
 11
85.0
 21
6.5
 31
0.0
  0
LINE
  5
42
330
1E
100
AcDbEntity
  8
0
100
AcDbLine
 10
47.30399999999999
 20
16.532
 30
0.0
 11
65.544
 21
9.236
 31
0.0
  0
LINE
  5
43
330
1E
100
AcDbEntity
  8
0
100
AcDbLine
 10
31.19199999999999
 20
28.69199999999999
 30
0.0
 11
47.30399999999999
 21
16.532
 31
0.0
  0
LINE
  5
44
330
1E
100
AcDbEntity
  8
0
100
AcDbLine
 10
31.19199999999999
 20
28.69199999999999
 30
0.0
 11
47.30399999999999
 21
16.532
 31
0.0
  0
LINE
  5
45
330
1E
100
AcDbEntity
  8
0
100
AcDbLine
 10
47.30399999999999
 20
16.532
 30
0.0
 11
65.544
 21
9.236
 31
0.0
  0
LINE
  5
46
330
1E
100
AcDbEntity
  8
0
100
AcDbLine
 10
65.544
 20
9.236
 30
0.0
 11
85.0
 21
6.5
 31
0.0
  0
LINE
  5
5E
330
1E
100
AcDbEntity
  8
0
100
AcDbLine
 10
57.72
 20
34.75999999999999
 30
0.0
 11
70.92
 21
29.48
 31
0.0
  0
LINE
  5
5F
330
1E
100
AcDbEntity
  8
0
100
AcDbLine
 10
19.032
 20
44.80399999999999
 30
0.0
 11
31.19199999999999
 21
28.69199999999999
 31
0.0
  0
LINE
  5
60
330
1E
100
AcDbEntity
  8
0
100
AcDbLine
 10
11.73599999999999
 20
63.044
 30
0.0
 11
19.032
 21
44.80399999999999
 31
0.0
  0
LINE
  5
61
330
1E
100
AcDbEntity
  8
0
100
AcDbLine
 10
31.98
 20
68.42
 30
0.0
 11
37.25999999999999
 21
55.22
 31
0.0
  0
LINE
  5
62
330
1E
100
AcDbEntity
  8
0
100
AcDbLine
 10
37.25999999999999
 20
55.22
 30
0.0
 11
46.06
 21
43.56
 31
0.0
  0
LINE
  5
63
330
1E
100
AcDbEntity
  8
0
100
AcDbLine
 10
46.06
 20
43.56
 30
0.0
 11
57.72
 21
34.75999999999999
 31
0.0
  0
LINE
  5
64
330
1E
100
AcDbEntity
  8
0
100
AcDbLine
 10
46.1559
 20
60.1059
 30
0.0
 11
53.2059
 21
50.706
 31
0.0
  0
LINE
  5
65
330
1E
100
AcDbEntity
  8
0
100
AcDbLine
 10
44.91179999999999
 20
59.4147
 30
0.0
 11
52.23819999999999
 21
49.738
 31
0.0
  0
LINE
  5
66
330
1E
100
AcDbEntity
  8
0
100
AcDbLine
 10
84.99999999999998
 20
11.62
 30
0.0
 11
86.25999999999997
 21
11.80000000000001
 31
0.0
  0
LINE
  5
67
330
1E
100
AcDbEntity
  8
0
100
AcDbLine
 10
84.99999999999998
 20
11.62
 30
0.0
 11
83.73999999999995
 21
11.80000000000001
 31
0.0
  0
LINE
  5
68
330
1E
100
AcDbEntity
  8
0
100
AcDbLine
 10
86.25999999999997
 20
11.80000000000001
 30
0.0
 11
87.41999999999997
 21
12.28000000000001
 31
0.0
  0
LINE
  5
6B
330
1E
100
AcDbEntity
  8
0
100
AcDbLine
 10
89.69999999999997
 20
15.24
 30
0.0
 11
89.87999999999997
 21
16.50000000000003
 31
0.0
  0
LINE
  5
6C
330
1E
100
AcDbEntity
  8
0
100
AcDbLine
 10
87.41999999999997
 20
12.28000000000001
 30
0.0
 11
88.43999999999997
 21
13.06
 31
0.0
  0
LINE
  5
6D
330
1E
100
AcDbEntity
  8
0
100
AcDbLine
 10
88.43999999999997
 20
13.06
 30
0.0
 11
89.21999999999997
 21
14.08000000000001
 31
0.0
  0
LINE
  5
6E
330
1E
100
AcDbEntity
  8
0
100
AcDbLine
 10
89.21999999999997
 20
14.08000000000001
 30
0.0
 11
89.69999999999997
 21
15.24
 31
0.0
  0
LINE
  5
73
330
1E
100
AcDbEntity
  8
0
100
AcDbLine
 10
89.21999999999997
 20
18.92000000000001
 30
0.0
 11
88.43999999999997
 21
19.94000000000001
 31
0.0
  0
LINE
  5
74
330
1E
100
AcDbEntity
  8
0
100
AcDbLine
 10
89.69999999999998
 20
17.76000000000002
 30
0.0
 11
89.21999999999997
 21
18.92000000000001
 31
0.0
  0
LINE
  5
75
330
1E
100
AcDbEntity
  8
0
100
AcDbLine
 10
89.87999999999997
 20
16.50000000000003
 30
0.0
 11
89.69999999999998
 21
17.76000000000002
 31
0.0
  0
LINE
  5
76
330
1E
100
AcDbEntity
  8
0
100
AcDbLine
 10
86.25999999999997
 20
21.20000000000001
 30
0.0
 11
84.99999999999998
 21
21.38000000000001
 31
0.0
  0
LINE
  5
77
330
1E
100
AcDbEntity
  8
0
100
AcDbLine
 10
87.41999999999999
 20
20.72000000000001
 30
0.0
 11
86.25999999999997
 21
21.20000000000001
 31
0.0
  0
LINE
  5
78
330
1E
100
AcDbEntity
  8
0
100
AcDbLine
 10
88.43999999999997
 20
19.94000000000001
 30
0.0
 11
87.41999999999999
 21
20.72000000000001
 31
0.0
  0
LINE
  5
7A
330
1E
100
AcDbEntity
  8
0
100
AcDbLine
 10
9.0
 20
82.5
 30
0.0
 11
11.73599999999999
 21
101.956
 31
0.0
  0
LINE
  5
7B
330
1E
100
AcDbEntity
  8
0
100
AcDbLine
 10
9.0
 20
82.5
 30
0.0
 11
11.73599999999999
 21
63.044
 31
0.0
  0
LINE
  5
7C
330
1E
100
AcDbEntity
  8
0
100
AcDbLine
 10
30.0
 20
82.5
 30
0.0
 11
31.98
 21
68.42
 31
0.0
  0
LINE
  5
7D
330
1E
100
AcDbEntity
  8
0
100
AcDbLine
 10
30.0
 20
82.5
 30
0.0
 11
31.98
 21
96.58000000000001
 31
0.0
  0
LINE
  5
7E
330
1E
100
AcDbEntity
  8
0
100
AcDbLine
 10
83.73999999999995
 20
11.80000000000001
 30
0.0
 11
82.57999999999997
 21
12.28000000000001
 31
0.0
  0
LINE
  5
80
330
1E
100
AcDbEntity
  8
0
100
AcDbLine
 10
82.57999999999997
 20
12.28000000000001
 30
0.0
 11
81.55999999999997
 21
13.06
 31
0.0
  0
LINE
  5
81
330
1E
100
AcDbEntity
  8
0
100
AcDbLine
 10
81.55999999999997
 20
13.06
 30
0.0
 11
80.77999999999997
 21
14.08000000000001
 31
0.0
  0
LINE
  5
84
330
1E
100
AcDbEntity
  8
0
100
AcDbLine
 10
80.77999999999997
 20
14.08000000000001
 30
0.0
 11
80.29999999999995
 21
15.24
 31
0.0
  0
LINE
  5
85
330
1E
100
AcDbEntity
  8
0
100
AcDbLine
 10
80.29999999999995
 20
15.24
 30
0.0
 11
80.11999999999998
 21
16.50000000000001
 31
0.0
  0
LINE
  5
88
330
1E
100
AcDbEntity
  8
0
100
AcDbLine
 10
80.11999999999998
 20
16.50000000000001
 30
0.0
 11
80.29999999999997
 21
17.76000000000002
 31
0.0
  0
LINE
  5
89
330
1E
100
AcDbEntity
  8
0
100
AcDbLine
 10
81.55999999999997
 20
19.94000000000001
 30
0.0
 11
82.57999999999997
 21
20.72000000000001
 31
0.0
  0
LINE
  5
8A
330
1E
100
AcDbEntity
  8
0
100
AcDbLine
 10
80.77999999999997
 20
18.92000000000001
 30
0.0
 11
81.55999999999997
 21
19.94000000000001
 31
0.0
  0
LINE
  5
8B
330
1E
100
AcDbEntity
  8
0
100
AcDbLine
 10
80.29999999999997
 20
17.76000000000002
 30
0.0
 11
80.77999999999997
 21
18.92000000000001
 31
0.0
  0
LINE
  5
8C
330
1E
100
AcDbEntity
  8
0
100
AcDbLine
 10
83.73999999999997
 20
21.2
 30
0.0
 11
84.99999999999998
 21
21.38000000000001
 31
0.0
  0
LINE
  5
8D
330
1E
100
AcDbEntity
  8
0
100
AcDbLine
 10
82.57999999999997
 20
20.72000000000001
 30
0.0
 11
83.73999999999997
 21
21.2
 31
0.0
  0
LINE
  5
93
330
1E
100
AcDbEntity
  8
0
100
AcDbLine
 10
0.0
 20
165.0
 30
0.0
 11
340.0
 21
165.0
 31
0.0
  0
LINE
  5
94
330
1E
100
AcDbEntity
  8
0
100
AcDbLine
 10
0.0
 20
163.0
 30
0.0
 11
340.0
 21
163.0
 31
0.0
  0
LINE
  5
95
330
1E
100
AcDbEntity
  8
0
100
AcDbLine
 10
0.0000000000000024
 20
163.0
 30
0.0
 11
0.0000000000000024
 21
165.0
 31
0.0
  0
LINE
  5
96
330
1E
100
AcDbEntity
  8
0
100
AcDbLine
 10
0.0000000000000024
 20
163.0
 30
0.0
 11
340.0
 21
163.0
 31
0.0
  0
LINE
  5
97
330
1E
100
AcDbEntity
  8
0
100
AcDbLine
 10
0.0000000000000024
 20
165.0
 30
0.0
 11
0.0000000000000024
 21
0.0
 31
0.0
  0
LINE
  5
98
330
1E
100
AcDbEntity
  8
0
100
AcDbLine
 10
0.0000000000000024
 20
165.0
 30
0.0
 11
0.0000000000000024
 21
163.0
 31
0.0
  0
LINE
  5
99
330
1E
100
AcDbEntity
  8
0
100
AcDbLine
 10
0.0000000000000024
 20
165.0
 30
0.0
 11
340.0
 21
165.0
 31
0.0
  0
LINE
  5
B1
330
1E
100
AcDbEntity
  8
0
100
AcDbLine
 10
19.032
 20
120.1959999999999
 30
0.0
 11
31.19199999999999
 21
136.3079999999999
 31
0.0
  0
LINE
  5
B2
330
1E
100
AcDbEntity
  8
0
100
AcDbLine
 10
31.19199999999999
 20
136.3079999999999
 30
0.0
 11
47.30399999999999
 21
148.4679999999999
 31
0.0
  0
LINE
  5
B3
330
1E
100
AcDbEntity
  8
0
100
AcDbLine
 10
11.73599999999999
 20
101.956
 30
0.0
 11
19.032
 21
120.1959999999999
 31
0.0
  0
LINE
  5
B4
330
1E
100
AcDbEntity
  8
0
100
AcDbLine
 10
37.25999999999999
 20
109.78
 30
0.0
 11
46.06
 21
121.4399999999999
 31
0.0
  0
LINE
  5
BF
330
1E
100
AcDbEntity
  8
0
100
AcDbLine
 10
46.1559
 20
104.8939999999999
 30
0.0
 11
53.2059
 21
114.294
 31
0.0
  0
LINE
  5
C0
330
1E
100
AcDbEntity
  8
0
100
AcDbLine
 10
41.73239999999999
 20
94.11179999999999
 30
0.0
 11
46.1559
 21
104.8939999999999
 31
0.0
  0
LINE
  5
C1
330
1E
100
AcDbEntity
  8
0
100
AcDbLine
 10
44.91179999999999
 20
105.5849999999999
 30
0.0
 11
52.23819999999999
 21
115.2619999999999
 31
0.0
  0
LINE
  5
C2
330
1E
100
AcDbEntity
  8
0
100
AcDbLine
 10
40.35
 20
94.38819999999999
 30
0.0
 11
44.91179999999999
 21
105.5849999999999
 31
0.0
  0
LINE
  5
CE
330
1E
100
AcDbEntity
  8
0
100
AcDbLine
 10
47.30399999999999
 20
148.4679999999999
 30
0.0
 11
65.544
 21
155.764
 31
0.0
  0
LINE
  5
CF
330
1E
100
AcDbEntity
  8
0
100
AcDbLine
 10
46.06
 20
121.4399999999999
 30
0.0
 11
57.72
 21
130.24
 31
0.0
  0
LINE
  5
D1
330
1E
100
AcDbEntity
  8
0
100
AcDbLine
 10
52.23819999999999
 20
115.2619999999999
 30
0.0
 11
61.9147
 21
122.5879999999999
 31
0.0
  0
LINE
  5
D2
330
1E
100
AcDbEntity
  8
0
100
AcDbLine
 10
41.73239999999999
 20
70.8882
 30
0.0
 11
46.1559
 21
60.1059
 31
0.0
  0
LINE
  5
D3
330
1E
100
AcDbEntity
  8
0
100
AcDbLine
 10
40.0735
 20
82.5
 30
0.0
 11
41.73239999999999
 21
70.8882
 31
0.0
  0
LINE
  5
D4
330
1E
100
AcDbEntity
  8
0
100
AcDbLine
 10
40.0735
 20
82.5
 30
0.0
 11
41.73239999999999
 21
94.11179999999999
 31
0.0
  0
LINE
  5
D5
330
1E
100
AcDbEntity
  8
0
100
AcDbLine
 10
40.35
 20
70.6118
 30
0.0
 11
44.91179999999999
 21
59.4147
 31
0.0
  0
LINE
  5
D6
330
1E
100
AcDbEntity
  8
0
100
AcDbLine
 10
38.6912
 20
82.5
 30
0.0
 11
40.35
 21
70.6118
 31
0.0
  0
LINE
  5
D7
330
1E
100
AcDbEntity
  8
0
100
AcDbLine
 10
38.6912
 20
82.5
 30
0.0
 11
40.35
 21
94.38819999999999
 31
0.0
  0
LINE
  5
D9
330
1E
100
AcDbEntity
  8
0
100
AcDbLine
 10
53.2059
 20
114.294
 30
0.0
 11
62.6059
 21
121.344
 31
0.0
  0
LINE
  5
DA
330
1E
100
AcDbEntity
  8
0
100
AcDbLine
 10
62.6059
 20
121.344
 30
0.0
 11
73.3882
 21
125.7679999999999
 31
0.0
  0
LINE
  5
DB
330
1E
100
AcDbEntity
  8
0
100
AcDbLine
 10
61.9147
 20
122.5879999999999
 30
0.0
 11
73.1118
 21
127.15
 31
0.0
  0
LINE
  5
DC
330
1E
100
AcDbEntity
  8
0
100
AcDbLine
 10
65.544
 20
155.764
 30
0.0
 11
85.0
 21
158.4999999999999
 31
0.0
  0
LINE
  5
DD
330
1E
100
AcDbEntity
  8
0
100
AcDbLine
 10
57.72
 20
130.24
 30
0.0
 11
70.92
 21
135.52
 31
0.0
  0
LINE
  5
DE
330
1E
100
AcDbEntity
  8
0
100
AcDbLine
 10
70.92
 20
135.52
 30
0.0
 11
85.0
 21
137.5
 31
0.0
  0
LINE
  5
E0
330
1E
100
AcDbEntity
  8
0
100
AcDbLine
 10
53.2059
 20
50.706
 30
0.0
 11
62.6059
 21
43.656
 31
0.0
  0
LINE
  5
E1
330
1E
100
AcDbEntity
  8
0
100
AcDbLine
 10
62.6059
 20
43.656
 30
0.0
 11
73.3882
 21
39.23199999999999
 31
0.0
  0
LINE
  5
E2
330
1E
100
AcDbEntity
  8
0
100
AcDbLine
 10
52.23819999999999
 20
49.738
 30
0.0
 11
61.9147
 21
42.412
 31
0.0
  0
LINE
  5
E3
330
1E
100
AcDbEntity
  8
0
100
AcDbLine
 10
61.9147
 20
42.412
 30
0.0
 11
73.1118
 21
37.85
 31
0.0
  0
LINE
  5
FA
330
1E
100
AcDbEntity
  8
0
100
AcDbLine
 10
85.0
 20
6.5
 30
0.0
 11
104.456
 21
9.236
 31
0.0
  0
LINE
  5
FB
330
1E
100
AcDbEntity
  8
0
100
AcDbLine
 10
85.0
 20
6.5
 30
0.0
 11
104.456
 21
9.236
 31
0.0
  0
LINE
  5
10E
330
1E
100
AcDbEntity
  8
0
100
AcDbLine
 10
122.696
 20
16.532
 30
0.0
 11
138.8079999999999
 21
28.69199999999999
 31
0.0
  0
LINE
  5
10F
330
1E
100
AcDbEntity
  8
0
100
AcDbLine
 10
104.456
 20
9.236
 30
0.0
 11
122.696
 21
16.532
 31
0.0
  0
LINE
  5
114
330
1E
100
AcDbEntity
  8
0
100
AcDbLine
 10
138.8079999999999
 20
28.69199999999999
 30
0.0
 11
150.9679999999999
 21
44.80399999999999
 31
0.0
  0
LINE
  5
115
330
1E
100
AcDbEntity
  8
0
100
AcDbLine
 10
122.696
 20
16.532
 30
0.0
 11
138.8079999999999
 21
28.69199999999999
 31
0.0
  0
LINE
  5
116
330
1E
100
AcDbEntity
  8
0
100
AcDbLine
 10
104.456
 20
9.236
 30
0.0
 11
122.696
 21
16.532
 31
0.0
  0
LINE
  5
132
330
1E
100
AcDbEntity
  8
0
100
AcDbLine
 10
340.0
 20
0.0000000000000006
 30
0.0
 11
340.0
 21
2.0
 31
0.0
  0
LINE
  5
133
330
1E
100
AcDbEntity
  8
0
100
AcDbLine
 10
340.0
 20
2.0
 30
0.0
 11
340.0
 21
0.0000000000000006
 31
0.0
  0
LINE
  5
18A
330
1E
100
AcDbEntity
  8
0
100
AcDbLine
 10
99.08000000000001
 20
29.48
 30
0.0
 11
112.28
 21
34.75999999999999
 31
0.0
  0
LINE
  5
18C
330
1E
100
AcDbEntity
  8
0
100
AcDbLine
 10
73.1118
 20
127.15
 30
0.0
 11
85.0
 21
128.8089999999999
 31
0.0
  0
LINE
  5
18D
330
1E
100
AcDbEntity
  8
0
100
AcDbLine
 10
85.0
 20
37.574
 30
0.0
 11
96.61180000000001
 21
39.23199999999999
 31
0.0
  0
LINE
  5
1B5
330
1E
100
AcDbEntity
  8
0
100
AcDbLine
 10
96.61180000000001
 20
39.23199999999999
 30
0.0
 11
107.3939999999999
 21
43.656
 31
0.0
  0
LINE
  5
1B6
330
1E
100
AcDbEntity
  8
0
100
AcDbLine
 10
96.88819999999999
 20
37.85
 30
0.0
 11
108.0849999999999
 21
42.412
 31
0.0
  0
LINE
  5
1B7
330
1E
100
AcDbEntity
  8
0
100
AcDbLine
 10
85.0
 20
36.191
 30
0.0
 11
96.88819999999999
 21
37.85
 31
0.0
  0
LINE
  5
1B8
330
1E
100
AcDbEntity
  8
0
100
AcDbLine
 10
85.0
 20
127.4259999999999
 30
0.0
 11
96.61180000000001
 21
125.7679999999999
 31
0.0
  0
LINE
  5
1B9
330
1E
100
AcDbEntity
  8
0
100
AcDbLine
 10
96.61180000000001
 20
125.7679999999999
 30
0.0
 11
107.3939999999999
 21
121.344
 31
0.0
  0
LINE
  5
1BA
330
1E
100
AcDbEntity
  8
0
100
AcDbLine
 10
96.88819999999999
 20
127.15
 30
0.0
 11
108.0849999999999
 21
122.5879999999999
 31
0.0
  0
LINE
  5
1BB
330
1E
100
AcDbEntity
  8
0
100
AcDbLine
 10
85.0
 20
128.8089999999999
 30
0.0
 11
96.88819999999999
 21
127.15
 31
0.0
  0
LINE
  5
1BD
330
1E
100
AcDbEntity
  8
0
100
AcDbLine
 10
107.3939999999999
 20
43.656
 30
0.0
 11
116.7939999999999
 21
50.706
 31
0.0
  0
LINE
  5
1BE
330
1E
100
AcDbEntity
  8
0
100
AcDbLine
 10
116.7939999999999
 20
50.706
 30
0.0
 11
123.8439999999999
 21
60.1059
 31
0.0
  0
LINE
  5
1BF
330
1E
100
AcDbEntity
  8
0
100
AcDbLine
 10
123.8439999999999
 20
60.1059
 30
0.0
 11
128.268
 21
70.8882
 31
0.0
  0
LINE
  5
1C0
330
1E
100
AcDbEntity
  8
0
100
AcDbLine
 10
117.762
 20
49.738
 30
0.0
 11
125.0879999999999
 21
59.4147
 31
0.0
  0
LINE
  5
1C1
330
1E
100
AcDbEntity
  8
0
100
AcDbLine
 10
108.0849999999999
 20
42.412
 30
0.0
 11
117.762
 21
49.738
 31
0.0
  0
LINE
  5
1C2
330
1E
100
AcDbEntity
  8
0
100
AcDbLine
 10
116.7939999999999
 20
114.294
 30
0.0
 11
123.8439999999999
 21
104.8939999999999
 31
0.0
  0
LINE
  5
1C3
330
1E
100
AcDbEntity
  8
0
100
AcDbLine
 10
123.94
 20
43.56
 30
0.0
 11
132.74
 21
55.22
 31
0.0
  0
LINE
  5
1C4
330
1E
100
AcDbEntity
  8
0
100
AcDbLine
 10
123.8439999999999
 20
104.8939999999999
 30
0.0
 11
128.268
 21
94.11179999999999
 31
0.0
  0
LINE
  5
1C5
330
1E
100
AcDbEntity
  8
0
100
AcDbLine
 10
117.762
 20
115.2619999999999
 30
0.0
 11
125.0879999999999
 21
105.5849999999999
 31
0.0
  0
LINE
  5
1C6
330
1E
100
AcDbEntity
  8
0
100
AcDbLine
 10
107.3939999999999
 20
121.344
 30
0.0
 11
116.7939999999999
 21
114.294
 31
0.0
  0
LINE
  5
1C7
330
1E
100
AcDbEntity
  8
0
100
AcDbLine
 10
108.0849999999999
 20
122.5879999999999
 30
0.0
 11
117.762
 21
115.2619999999999
 31
0.0
  0
LINE
  5
1CB
330
1E
100
AcDbEntity
  8
0
100
AcDbLine
 10
128.268
 20
70.8882
 30
0.0
 11
129.926
 21
82.5
 31
0.0
  0
LINE
  5
1D0
330
1E
100
AcDbEntity
  8
0
100
AcDbLine
 10
129.6499999999999
 20
70.6118
 30
0.0
 11
131.309
 21
82.5
 31
0.0
  0
LINE
  5
1D1
330
1E
100
AcDbEntity
  8
0
100
AcDbLine
 10
128.268
 20
94.11179999999999
 30
0.0
 11
129.926
 21
82.5
 31
0.0
  0
LINE
  5
1D2
330
1E
100
AcDbEntity
  8
0
100
AcDbLine
 10
125.0879999999999
 20
105.5849999999999
 30
0.0
 11
129.6499999999999
 21
94.38819999999999
 31
0.0
  0
LINE
  5
1D3
330
1E
100
AcDbEntity
  8
0
100
AcDbLine
 10
129.6499999999999
 20
94.38819999999999
 30
0.0
 11
131.309
 21
82.5
 31
0.0
  0
LINE
  5
1DC
330
1E
100
AcDbEntity
  8
0
100
AcDbLine
 10
138.02
 20
68.42
 30
0.0
 11
140.0
 21
82.5
 31
0.0
  0
LINE
  5
20F
330
1E
100
AcDbEntity
  8
0
100
AcDbLine
 10
158.264
 20
63.044
 30
0.0
 11
161.0
 21
82.5
 31
0.0
  0
LINE
  5
210
330
1E
100
AcDbEntity
  8
0
100
AcDbLine
 10
150.9679999999999
 20
44.80399999999999
 30
0.0
 11
158.264
 21
63.044
 31
0.0
  0
LINE
  5
28B
330
1E
100
AcDbEntity
  8
0
100
AcDbLine
 10
158.264
 20
101.956
 30
0.0
 11
161.0
 21
82.5
 31
0.0
  0
LINE
  5
2A9
330
1E
100
AcDbEntity
  8
0
100
AcDbLine
 10
138.02
 20
96.58000000000001
 30
0.0
 11
140.0
 21
82.5
 31
0.0
  0
LINE
  5
2AB
330
1E
100
AcDbEntity
  8
0
100
AcDbLine
 10
150.9679999999999
 20
120.1959999999999
 30
0.0
 11
158.264
 21
101.956
 31
0.0
  0
LINE
  5
304
330
1E
100
AcDbEntity
  8
0
100
AcDbLine
 10
132.74
 20
109.78
 30
0.0
 11
138.02
 21
96.58000000000001
 31
0.0
  0
LINE
  5
305
330
1E
100
AcDbEntity
  8
0
100
AcDbLine
 10
123.94
 20
121.4399999999999
 30
0.0
 11
132.74
 21
109.78
 31
0.0
  0
LINE
  5
32F
330
1E
100
AcDbEntity
  8
0
100
AcDbLine
 10
138.8079999999999
 20
136.3079999999999
 30
0.0
 11
150.9679999999999
 21
120.1959999999999
 31
0.0
  0
LINE
  5
347
330
1E
100
AcDbEntity
  8
0
100
AcDbLine
 10
112.28
 20
130.24
 30
0.0
 11
123.94
 21
121.4399999999999
 31
0.0
  0
LINE
  5
348
330
1E
100
AcDbEntity
  8
0
100
AcDbLine
 10
99.08000000000001
 20
135.52
 30
0.0
 11
112.28
 21
130.24
 31
0.0
  0
LINE
  5
372
330
1E
100
AcDbEntity
  8
0
100
AcDbLine
 10
85.0
 20
158.4999999999999
 30
0.0
 11
104.456
 21
155.764
 31
0.0
  0
LINE
  5
39F
330
1E
100
AcDbEntity
  8
0
100
AcDbLine
 10
340.0
 20
163.0
 30
0.0
 11
340.0
 21
1.999999999999989
 31
0.0
  0
LINE
  5
3A0
330
1E
100
AcDbEntity
  8
0
100
AcDbLine
 10
340.0
 20
163.0
 30
0.0
 11
340.0
 21
165.0
 31
0.0
  0
LINE
  5
3A3
330
1E
100
AcDbEntity
  8
0
100
AcDbLine
 10
122.696
 20
148.4679999999999
 30
0.0
 11
138.8079999999999
 21
136.3079999999999
 31
0.0
  0
LINE
  5
3A4
330
1E
100
AcDbEntity
  8
0
100
AcDbLine
 10
104.456
 20
155.764
 30
0.0
 11
122.696
 21
148.4679999999999
 31
0.0
  0
LINE
  5
3A5
330
1E
100
AcDbEntity
  8
0
100
AcDbLine
 10
85.0
 20
137.5
 30
0.0
 11
99.08000000000001
 21
135.52
 31
0.0
  0
LINE
  5
3A6
330
1E
100
AcDbEntity
  8
0
100
AcDbLine
 10
73.3882
 20
125.7679999999999
 30
0.0
 11
85.0
 21
127.4259999999999
 31
0.0
  0
LINE
  5
3A7
330
1E
100
AcDbEntity
  8
0
100
AcDbLine
 10
73.3882
 20
39.23199999999999
 30
0.0
 11
85.0
 21
37.574
 31
0.0
  0
LINE
  5
3A8
330
1E
100
AcDbEntity
  8
0
100
AcDbLine
 10
73.1118
 20
37.85
 30
0.0
 11
85.0
 21
36.191
 31
0.0
  0
LINE
  5
3AE
330
1E
100
AcDbEntity
  8
0
100
AcDbLine
 10
31.98
 20
96.58000000000001
 30
0.0
 11
37.25999999999999
 21
109.78
 31
0.0
  0
LINE
  5
3AF
330
1E
100
AcDbEntity
  8
0
100
AcDbLine
 10
70.92
 20
29.48
 30
0.0
 11
84.5753811701984
 21
28.10416241709651
 31
0.0
  0
LINE
  5
3B0
330
1E
100
AcDbEntity
  8
0
100
AcDbLine
 10
84.5753811701984
 20
28.10416241709651
 30
0.0
 11
99.08000000000001
 21
29.48
 31
0.0
  0
LINE
  5
3B1
330
1E
100
AcDbEntity
  8
0
100
AcDbLine
 10
132.74
 20
55.22
 30
0.0
 11
138.02
 21
68.42
 31
0.0
  0
LINE
  5
3B2
330
1E
100
AcDbEntity
  8
0
100
AcDbLine
 10
112.28
 20
34.75999999999999
 30
0.0
 11
123.94
 21
43.56
 31
0.0
  0
LINE
  5
3B3
330
1E
100
AcDbEntity
  8
0
100
AcDbLine
 10
125.0879999999999
 20
59.4147
 30
0.0
 11
129.6499999999999
 21
70.6118
 31
0.0
  0
LINE
  5
3B4
330
1E
100
AcDbEntity
  8
0
100
AcDbLine
 10
83.73999999999998
 20
143.8
 30
0.0
 11
85.0
 21
143.62
 31
0.0
  0
LINE
  5
3B5
330
1E
100
AcDbEntity
  8
0
100
AcDbLine
 10
85.0
 20
153.38
 30
0.0
 11
83.73999999999997
 21
153.2
 31
0.0
  0
LINE
  5
3B6
330
1E
100
AcDbEntity
  8
0
100
AcDbLine
 10
89.22
 20
150.92
 30
0.0
 11
89.69999999999997
 21
149.76
 31
0.0
  0
LINE
  5
3B7
330
1E
100
AcDbEntity
  8
0
100
AcDbLine
 10
87.42
 20
152.72
 30
0.0
 11
88.43999999999999
 21
151.94
 31
0.0
  0
LINE
  5
3B8
330
1E
100
AcDbEntity
  8
0
100
AcDbLine
 10
88.43999999999999
 20
151.94
 30
0.0
 11
89.22
 21
150.92
 31
0.0
  0
LINE
  5
3B9
330
1E
100
AcDbEntity
  8
0
100
AcDbLine
 10
86.25999999999997
 20
153.2
 30
0.0
 11
87.42
 21
152.72
 31
0.0
  0
LINE
  5
3BA
330
1E
100
AcDbEntity
  8
0
100
AcDbLine
 10
85.0
 20
153.38
 30
0.0
 11
86.25999999999997
 21
153.2
 31
0.0
  0
LINE
  5
3BB
330
1E
100
AcDbEntity
  8
0
100
AcDbLine
 10
88.43999999999999
 20
145.06
 30
0.0
 11
87.41999999999999
 21
144.28
 31
0.0
  0
LINE
  5
3BC
330
1E
100
AcDbEntity
  8
0
100
AcDbLine
 10
89.69999999999998
 20
147.24
 30
0.0
 11
89.22
 21
146.0799999999999
 31
0.0
  0
LINE
  5
3BD
330
1E
100
AcDbEntity
  8
0
100
AcDbLine
 10
89.87999999999997
 20
148.5
 30
0.0
 11
89.69999999999998
 21
147.24
 31
0.0
  0
LINE
  5
3BE
330
1E
100
AcDbEntity
  8
0
100
AcDbLine
 10
89.69999999999997
 20
149.76
 30
0.0
 11
89.87999999999997
 21
148.5
 31
0.0
  0
LINE
  5
3BF
330
1E
100
AcDbEntity
  8
0
100
AcDbLine
 10
89.22
 20
146.0799999999999
 30
0.0
 11
88.43999999999999
 21
145.06
 31
0.0
  0
LINE
  5
3C0
330
1E
100
AcDbEntity
  8
0
100
AcDbLine
 10
87.41999999999999
 20
144.28
 30
0.0
 11
86.25999999999999
 21
143.8
 31
0.0
  0
LINE
  5
3C1
330
1E
100
AcDbEntity
  8
0
100
AcDbLine
 10
86.25999999999999
 20
143.8
 30
0.0
 11
85.0
 21
143.62
 31
0.0
  0
LINE
  5
3C2
330
1E
100
AcDbEntity
  8
0
100
AcDbLine
 10
80.78000000000001
 20
150.92
 30
0.0
 11
80.29999999999997
 21
149.76
 31
0.0
  0
LINE
  5
3C3
330
1E
100
AcDbEntity
  8
0
100
AcDbLine
 10
82.58
 20
152.72
 30
0.0
 11
81.56
 21
151.94
 31
0.0
  0
LINE
  5
3C4
330
1E
100
AcDbEntity
  8
0
100
AcDbLine
 10
83.73999999999997
 20
153.2
 30
0.0
 11
82.58
 21
152.72
 31
0.0
  0
LINE
  5
3C5
330
1E
100
AcDbEntity
  8
0
100
AcDbLine
 10
81.56
 20
151.94
 30
0.0
 11
80.78000000000001
 21
150.92
 31
0.0
  0
LINE
  5
3C6
330
1E
100
AcDbEntity
  8
0
100
AcDbLine
 10
81.56
 20
145.06
 30
0.0
 11
82.58
 21
144.28
 31
0.0
  0
LINE
  5
3C7
330
1E
100
AcDbEntity
  8
0
100
AcDbLine
 10
82.58
 20
144.28
 30
0.0
 11
83.73999999999998
 21
143.8
 31
0.0
  0
LINE
  5
3C8
330
1E
100
AcDbEntity
  8
0
100
AcDbLine
 10
80.29999999999999
 20
147.24
 30
0.0
 11
80.78000000000001
 21
146.0799999999999
 31
0.0
  0
LINE
  5
3C9
330
1E
100
AcDbEntity
  8
0
100
AcDbLine
 10
80.11999999999998
 20
148.5
 30
0.0
 11
80.29999999999999
 21
147.24
 31
0.0
  0
LINE
  5
3CA
330
1E
100
AcDbEntity
  8
0
100
AcDbLine
 10
80.29999999999997
 20
149.76
 30
0.0
 11
80.11999999999998
 21
148.5
 31
0.0
  0
LINE
  5
3CB
330
1E
100
AcDbEntity
  8
0
100
AcDbLine
 10
80.78000000000001
 20
146.0799999999999
 30
0.0
 11
81.56
 21
145.06
 31
0.0
  0
LINE
  5
3CC
330
1E
100
AcDbEntity
  8
0
100
AcDbLine
 10
23.69999999999998
 20
83.76000000000001
 30
0.0
 11
23.87999999999999
 21
82.5
 31
0.0
  0
LINE
  5
3CD
330
1E
100
AcDbEntity
  8
0
100
AcDbLine
 10
14.12
 20
82.5
 30
0.0
 11
14.30000000000001
 21
83.76000000000001
 31
0.0
  0
LINE
  5
3CE
330
1E
100
AcDbEntity
  8
0
100
AcDbLine
 10
16.57999999999998
 20
78.28
 30
0.0
 11
17.74
 21
77.8
 31
0.0
  0
LINE
  5
3CF
330
1E
100
AcDbEntity
  8
0
100
AcDbLine
 10
14.78
 20
80.08
 30
0.0
 11
15.56
 21
79.06
 31
0.0
  0
LINE
  5
3D0
330
1E
100
AcDbEntity
  8
0
100
AcDbLine
 10
15.56
 20
79.06
 30
0.0
 11
16.57999999999998
 21
78.28
 31
0.0
  0
LINE
  5
3D1
330
1E
100
AcDbEntity
  8
0
100
AcDbLine
 10
14.30000000000001
 20
81.24
 30
0.0
 11
14.78
 21
80.08
 31
0.0
  0
LINE
  5
3D2
330
1E
100
AcDbEntity
  8
0
100
AcDbLine
 10
14.12
 20
82.5
 30
0.0
 11
14.30000000000001
 21
81.24
 31
0.0
  0
LINE
  5
3D3
330
1E
100
AcDbEntity
  8
0
100
AcDbLine
 10
22.43999999999999
 20
79.06
 30
0.0
 11
23.22
 21
80.08
 31
0.0
  0
LINE
  5
3D4
330
1E
100
AcDbEntity
  8
0
100
AcDbLine
 10
20.25999999999999
 20
77.8
 30
0.0
 11
21.42000000000001
 21
78.28
 31
0.0
  0
LINE
  5
3D5
330
1E
100
AcDbEntity
  8
0
100
AcDbLine
 10
19.0
 20
77.62
 30
0.0
 11
20.25999999999999
 21
77.8
 31
0.0
  0
LINE
  5
3D6
330
1E
100
AcDbEntity
  8
0
100
AcDbLine
 10
17.74
 20
77.8
 30
0.0
 11
19.0
 21
77.62
 31
0.0
  0
LINE
  5
3D7
330
1E
100
AcDbEntity
  8
0
100
AcDbLine
 10
21.42000000000001
 20
78.28
 30
0.0
 11
22.43999999999999
 21
79.06
 31
0.0
  0
LINE
  5
3D8
330
1E
100
AcDbEntity
  8
0
100
AcDbLine
 10
23.22
 20
80.08
 30
0.0
 11
23.69999999999998
 21
81.24
 31
0.0
  0
LINE
  5
3D9
330
1E
100
AcDbEntity
  8
0
100
AcDbLine
 10
23.69999999999998
 20
81.24
 30
0.0
 11
23.87999999999999
 21
82.5
 31
0.0
  0
LINE
  5
3DA
330
1E
100
AcDbEntity
  8
0
100
AcDbLine
 10
16.57999999999998
 20
86.72
 30
0.0
 11
17.74
 21
87.2
 31
0.0
  0
LINE
  5
3DB
330
1E
100
AcDbEntity
  8
0
100
AcDbLine
 10
14.78
 20
84.92
 30
0.0
 11
15.56
 21
85.93999999999999
 31
0.0
  0
LINE
  5
3DC
330
1E
100
AcDbEntity
  8
0
100
AcDbLine
 10
14.30000000000001
 20
83.76000000000001
 30
0.0
 11
14.78
 21
84.92
 31
0.0
  0
LINE
  5
3DD
330
1E
100
AcDbEntity
  8
0
100
AcDbLine
 10
15.56
 20
85.93999999999999
 30
0.0
 11
16.57999999999998
 21
86.72
 31
0.0
  0
LINE
  5
3DE
330
1E
100
AcDbEntity
  8
0
100
AcDbLine
 10
22.43999999999999
 20
85.93999999999999
 30
0.0
 11
23.22
 21
84.92
 31
0.0
  0
LINE
  5
3DF
330
1E
100
AcDbEntity
  8
0
100
AcDbLine
 10
23.22
 20
84.92
 30
0.0
 11
23.69999999999998
 21
83.76000000000001
 31
0.0
  0
LINE
  5
3E0
330
1E
100
AcDbEntity
  8
0
100
AcDbLine
 10
20.25999999999999
 20
87.2
 30
0.0
 11
21.42000000000001
 21
86.72
 31
0.0
  0
LINE
  5
3E1
330
1E
100
AcDbEntity
  8
0
100
AcDbLine
 10
19.0
 20
87.37999999999999
 30
0.0
 11
20.25999999999999
 21
87.2
 31
0.0
  0
LINE
  5
3E2
330
1E
100
AcDbEntity
  8
0
100
AcDbLine
 10
17.74
 20
87.2
 30
0.0
 11
19.0
 21
87.37999999999999
 31
0.0
  0
LINE
  5
3E3
330
1E
100
AcDbEntity
  8
0
100
AcDbLine
 10
21.42000000000001
 20
86.72
 30
0.0
 11
22.43999999999999
 21
85.93999999999999
 31
0.0
  0
LINE
  5
3E4
330
1E
100
AcDbEntity
  8
0
100
AcDbLine
 10
155.8799999999999
 20
82.5
 30
0.0
 11
155.6999999999999
 21
83.76000000000001
 31
0.0
  0
LINE
  5
3E5
330
1E
100
AcDbEntity
  8
0
100
AcDbLine
 10
146.3
 20
83.76000000000001
 30
0.0
 11
146.12
 21
82.5
 31
0.0
  0
LINE
  5
3E6
330
1E
100
AcDbEntity
  8
0
100
AcDbLine
 10
151.0
 20
77.62
 30
0.0
 11
149.74
 21
77.8
 31
0.0
  0
LINE
  5
3E7
330
1E
100
AcDbEntity
  8
0
100
AcDbLine
 10
147.56
 20
79.06
 30
0.0
 11
146.7799999999999
 21
80.08
 31
0.0
  0
LINE
  5
3E8
330
1E
100
AcDbEntity
  8
0
100
AcDbLine
 10
148.5799999999999
 20
78.28
 30
0.0
 11
147.56
 21
79.06
 31
0.0
  0
LINE
  5
3E9
330
1E
100
AcDbEntity
  8
0
100
AcDbLine
 10
149.74
 20
77.8
 30
0.0
 11
148.5799999999999
 21
78.28
 31
0.0
  0
LINE
  5
3EA
330
1E
100
AcDbEntity
  8
0
100
AcDbLine
 10
146.7799999999999
 20
80.08
 30
0.0
 11
146.3
 21
81.24
 31
0.0
  0
LINE
  5
3EB
330
1E
100
AcDbEntity
  8
0
100
AcDbLine
 10
146.3
 20
81.24
 30
0.0
 11
146.12
 21
82.5
 31
0.0
  0
LINE
  5
3EC
330
1E
100
AcDbEntity
  8
0
100
AcDbLine
 10
155.22
 20
80.08
 30
0.0
 11
154.4399999999999
 21
79.06
 31
0.0
  0
LINE
  5
3ED
330
1E
100
AcDbEntity
  8
0
100
AcDbLine
 10
153.42
 20
78.28
 30
0.0
 11
152.2599999999999
 21
77.8
 31
0.0
  0
LINE
  5
3EE
330
1E
100
AcDbEntity
  8
0
100
AcDbLine
 10
152.2599999999999
 20
77.8
 30
0.0
 11
151.0
 21
77.62
 31
0.0
  0
LINE
  5
3EF
330
1E
100
AcDbEntity
  8
0
100
AcDbLine
 10
154.4399999999999
 20
79.06
 30
0.0
 11
153.42
 21
78.28
 31
0.0
  0
LINE
  5
3F0
330
1E
100
AcDbEntity
  8
0
100
AcDbLine
 10
155.8799999999999
 20
82.5
 30
0.0
 11
155.6999999999999
 21
81.24
 31
0.0
  0
LINE
  5
3F1
330
1E
100
AcDbEntity
  8
0
100
AcDbLine
 10
155.6999999999999
 20
81.24
 30
0.0
 11
155.22
 21
80.08
 31
0.0
  0
LINE
  5
3F2
330
1E
100
AcDbEntity
  8
0
100
AcDbLine
 10
151.0
 20
87.37999999999999
 30
0.0
 11
149.74
 21
87.2
 31
0.0
  0
LINE
  5
3F3
330
1E
100
AcDbEntity
  8
0
100
AcDbLine
 10
147.56
 20
85.93999999999999
 30
0.0
 11
146.7799999999999
 21
84.92
 31
0.0
  0
LINE
  5
3F4
330
1E
100
AcDbEntity
  8
0
100
AcDbLine
 10
146.7799999999999
 20
84.92
 30
0.0
 11
146.3
 21
83.76000000000001
 31
0.0
  0
LINE
  5
3F5
330
1E
100
AcDbEntity
  8
0
100
AcDbLine
 10
148.5799999999999
 20
86.72
 30
0.0
 11
147.56
 21
85.93999999999999
 31
0.0
  0
LINE
  5
3F6
330
1E
100
AcDbEntity
  8
0
100
AcDbLine
 10
149.74
 20
87.2
 30
0.0
 11
148.5799999999999
 21
86.72
 31
0.0
  0
LINE
  5
3F7
330
1E
100
AcDbEntity
  8
0
100
AcDbLine
 10
155.22
 20
84.92
 30
0.0
 11
154.4399999999999
 21
85.93999999999999
 31
0.0
  0
LINE
  5
3F8
330
1E
100
AcDbEntity
  8
0
100
AcDbLine
 10
155.6999999999999
 20
83.76000000000001
 30
0.0
 11
155.22
 21
84.92
 31
0.0
  0
LINE
  5
3F9
330
1E
100
AcDbEntity
  8
0
100
AcDbLine
 10
153.42
 20
86.72
 30
0.0
 11
152.2599999999999
 21
87.2
 31
0.0
  0
LINE
  5
3FA
330
1E
100
AcDbEntity
  8
0
100
AcDbLine
 10
152.2599999999999
 20
87.2
 30
0.0
 11
151.0
 21
87.37999999999999
 31
0.0
  0
LINE
  5
3FB
330
1E
100
AcDbEntity
  8
0
100
AcDbLine
 10
154.4399999999999
 20
85.93999999999999
 30
0.0
 11
153.42
 21
86.72
 31
0.0
  0
LINE
  5
3FC
330
1E
100
AcDbEntity
  8
0
100
AcDbLine
 10
127.4546911424403
 20
126.7366002310304
 30
0.0
 11
128.2183664661217
 21
125.7183664661217
 31
0.0
  0
LINE
  5
3FD
330
1E
100
AcDbEntity
  8
0
100
AcDbLine
 10
135.1197286505024
 20
132.6197286505024
 30
0.0
 11
134.1014948855938
 21
133.3834039741839
 31
0.0
  0
LINE
  5
3FE
330
1E
100
AcDbEntity
  8
0
100
AcDbLine
 10
134.1014948855938
 20
124.9546911424403
 30
0.0
 11
132.9418397644479
 21
124.4738585312334
 31
0.0
  0
LINE
  5
3FF
330
1E
100
AcDbEntity
  8
0
100
AcDbLine
 10
131.6690475583121
 20
124.3041529037486
 30
0.0
 11
130.3962553521763
 21
124.4738585312334
 31
0.0
  0
LINE
  5
400
330
1E
100
AcDbEntity
  8
0
100
AcDbLine
 10
132.9418397644479
 20
124.4738585312334
 30
0.0
 11
131.6690475583121
 21
124.3041529037486
 31
0.0
  0
LINE
  5
401
330
1E
100
AcDbEntity
  8
0
100
AcDbLine
 10
129.2366002310304
 20
124.9546911424403
 30
0.0
 11
128.2183664661217
 21
125.7183664661217
 31
0.0
  0
LINE
  5
402
330
1E
100
AcDbEntity
  8
0
100
AcDbLine
 10
130.3962553521763
 20
124.4738585312334
 30
0.0
 11
129.2366002310304
 21
124.9546911424403
 31
0.0
  0
LINE
  5
403
330
1E
100
AcDbEntity
  8
0
100
AcDbLine
 10
136.3642365853908
 20
130.4418397644479
 30
0.0
 11
136.5339422128755
 21
129.1690475583121
 31
0.0
  0
LINE
  5
404
330
1E
100
AcDbEntity
  8
0
100
AcDbLine
 10
136.3642365853908
 20
127.8962553521763
 30
0.0
 11
135.8834039741839
 21
126.7366002310304
 31
0.0
  0
LINE
  5
405
330
1E
100
AcDbEntity
  8
0
100
AcDbLine
 10
135.8834039741839
 20
126.7366002310304
 30
0.0
 11
135.1197286505024
 21
125.7183664661218
 31
0.0
  0
LINE
  5
406
330
1E
100
AcDbEntity
  8
0
100
AcDbLine
 10
135.1197286505024
 20
125.7183664661218
 30
0.0
 11
134.1014948855938
 21
124.9546911424403
 31
0.0
  0
LINE
  5
407
330
1E
100
AcDbEntity
  8
0
100
AcDbLine
 10
136.5339422128755
 20
129.1690475583121
 30
0.0
 11
136.3642365853908
 21
127.8962553521763
 31
0.0
  0
LINE
  5
408
330
1E
100
AcDbEntity
  8
0
100
AcDbLine
 10
135.8834039741839
 20
131.6014948855938
 30
0.0
 11
136.3642365853908
 21
130.4418397644479
 31
0.0
  0
LINE
  5
409
330
1E
100
AcDbEntity
  8
0
100
AcDbLine
 10
135.1197286505024
 20
132.6197286505024
 30
0.0
 11
135.8834039741839
 21
131.6014948855938
 31
0.0
  0
LINE
  5
40A
330
1E
100
AcDbEntity
  8
0
100
AcDbLine
 10
127.4546911424403
 20
131.6014948855938
 30
0.0
 11
126.9738585312334
 21
130.4418397644478
 31
0.0
  0
LINE
  5
40B
330
1E
100
AcDbEntity
  8
0
100
AcDbLine
 10
126.8041529037487
 20
129.1690475583121
 30
0.0
 11
126.9738585312334
 21
127.8962553521763
 31
0.0
  0
LINE
  5
40C
330
1E
100
AcDbEntity
  8
0
100
AcDbLine
 10
126.9738585312334
 20
127.8962553521763
 30
0.0
 11
127.4546911424403
 21
126.7366002310304
 31
0.0
  0
LINE
  5
40D
330
1E
100
AcDbEntity
  8
0
100
AcDbLine
 10
126.9738585312334
 20
130.4418397644478
 30
0.0
 11
126.8041529037487
 21
129.1690475583121
 31
0.0
  0
LINE
  5
40E
330
1E
100
AcDbEntity
  8
0
100
AcDbLine
 10
132.9418397644479
 20
133.8642365853908
 30
0.0
 11
131.6690475583121
 21
134.0339422128755
 31
0.0
  0
LINE
  5
40F
330
1E
100
AcDbEntity
  8
0
100
AcDbLine
 10
134.1014948855938
 20
133.3834039741839
 30
0.0
 11
132.9418397644479
 21
133.8642365853908
 31
0.0
  0
LINE
  5
410
330
1E
100
AcDbEntity
  8
0
100
AcDbLine
 10
130.3962553521763
 20
133.8642365853908
 30
0.0
 11
129.2366002310304
 21
133.3834039741839
 31
0.0
  0
LINE
  5
411
330
1E
100
AcDbEntity
  8
0
100
AcDbLine
 10
129.2366002310304
 20
133.3834039741839
 30
0.0
 11
128.2183664661217
 21
132.6197286505025
 31
0.0
  0
LINE
  5
412
330
1E
100
AcDbEntity
  8
0
100
AcDbLine
 10
128.2183664661217
 20
132.6197286505025
 30
0.0
 11
127.4546911424403
 21
131.6014948855938
 31
0.0
  0
LINE
  5
413
330
1E
100
AcDbEntity
  8
0
100
AcDbLine
 10
131.6690475583121
 20
134.0339422128755
 30
0.0
 11
130.3962553521763
 21
133.8642365853908
 31
0.0
  0
LINE
  5
414
330
1E
100
AcDbEntity
  8
0
100
AcDbLine
 10
34.8802713494975
 20
32.38027134949752
 30
0.0
 11
34.11659602581603
 21
33.39850511440616
 31
0.0
  0
LINE
  5
415
330
1E
100
AcDbEntity
  8
0
100
AcDbLine
 10
40.76339976896956
 20
40.04530885755968
 30
0.0
 11
41.7816335338782
 21
39.28163353387822
 31
0.0
  0
LINE
  5
416
330
1E
100
AcDbEntity
  8
0
100
AcDbLine
 10
43.1958470962513
 20
35.83095244168787
 30
0.0
 11
43.02614146876653
 21
37.10374464782366
 31
0.0
  0
LINE
  5
417
330
1E
100
AcDbEntity
  8
0
100
AcDbLine
 10
38.33095244168785
 20
30.96605778712442
 30
0.0
 11
39.60374464782363
 21
31.13576341460918
 31
0.0
  0
LINE
  5
418
330
1E
100
AcDbEntity
  8
0
100
AcDbLine
 10
37.05816023555207
 20
31.1357634146092
 30
0.0
 11
38.33095244168785
 21
30.96605778712442
 31
0.0
  0
LINE
  5
419
330
1E
100
AcDbEntity
  8
0
100
AcDbLine
 10
34.8802713494975
 20
32.38027134949752
 30
0.0
 11
35.89850511440614
 21
31.61659602581606
 31
0.0
  0
LINE
  5
41A
330
1E
100
AcDbEntity
  8
0
100
AcDbLine
 10
35.89850511440614
 20
31.61659602581606
 30
0.0
 11
37.05816023555207
 21
31.1357634146092
 31
0.0
  0
LINE
  5
41B
330
1E
100
AcDbEntity
  8
0
100
AcDbLine
 10
41.7816335338782
 20
32.38027134949753
 30
0.0
 11
42.54530885755968
 21
33.39850511440614
 31
0.0
  0
LINE
  5
41C
330
1E
100
AcDbEntity
  8
0
100
AcDbLine
 10
40.76339976896959
 20
31.61659602581606
 30
0.0
 11
41.7816335338782
 21
32.38027134949753
 31
0.0
  0
LINE
  5
41D
330
1E
100
AcDbEntity
  8
0
100
AcDbLine
 10
39.60374464782363
 20
31.13576341460918
 30
0.0
 11
40.76339976896959
 21
31.61659602581606
 31
0.0
  0
LINE
  5
41E
330
1E
100
AcDbEntity
  8
0
100
AcDbLine
 10
43.02614146876654
 20
34.55816023555209
 30
0.0
 11
43.1958470962513
 21
35.83095244168787
 31
0.0
  0
LINE
  5
41F
330
1E
100
AcDbEntity
  8
0
100
AcDbLine
 10
42.54530885755968
 20
33.39850511440614
 30
0.0
 11
43.02614146876654
 21
34.55816023555209
 31
0.0
  0
LINE
  5
420
330
1E
100
AcDbEntity
  8
0
100
AcDbLine
 10
42.54530885755968
 20
38.26339976896959
 30
0.0
 11
41.7816335338782
 21
39.28163353387822
 31
0.0
  0
LINE
  5
421
330
1E
100
AcDbEntity
  8
0
100
AcDbLine
 10
43.02614146876653
 20
37.10374464782366
 30
0.0
 11
42.54530885755968
 21
38.26339976896959
 31
0.0
  0
LINE
  5
422
330
1E
100
AcDbEntity
  8
0
100
AcDbLine
 10
38.33095244168785
 20
40.69584709625131
 30
0.0
 11
39.60374464782363
 21
40.52614146876655
 31
0.0
  0
LINE
  5
423
330
1E
100
AcDbEntity
  8
0
100
AcDbLine
 10
33.46605778712441
 20
35.83095244168787
 30
0.0
 11
33.63576341460917
 21
37.10374464782364
 31
0.0
  0
LINE
  5
424
330
1E
100
AcDbEntity
  8
0
100
AcDbLine
 10
33.63576341460918
 20
34.55816023555209
 30
0.0
 11
33.46605778712441
 21
35.83095244168787
 31
0.0
  0
LINE
  5
425
330
1E
100
AcDbEntity
  8
0
100
AcDbLine
 10
34.11659602581603
 20
33.39850511440616
 30
0.0
 11
33.63576341460918
 21
34.55816023555209
 31
0.0
  0
LINE
  5
426
330
1E
100
AcDbEntity
  8
0
100
AcDbLine
 10
34.8802713494975
 20
39.28163353387822
 30
0.0
 11
35.89850511440612
 21
40.04530885755968
 31
0.0
  0
LINE
  5
427
330
1E
100
AcDbEntity
  8
0
100
AcDbLine
 10
34.11659602581603
 20
38.2633997689696
 30
0.0
 11
34.8802713494975
 21
39.28163353387822
 31
0.0
  0
LINE
  5
428
330
1E
100
AcDbEntity
  8
0
100
AcDbLine
 10
33.63576341460917
 20
37.10374464782364
 30
0.0
 11
34.11659602581603
 21
38.2633997689696
 31
0.0
  0
LINE
  5
429
330
1E
100
AcDbEntity
  8
0
100
AcDbLine
 10
37.05816023555208
 20
40.52614146876655
 30
0.0
 11
38.33095244168785
 21
40.69584709625131
 31
0.0
  0
LINE
  5
42A
330
1E
100
AcDbEntity
  8
0
100
AcDbLine
 10
35.89850511440612
 20
40.04530885755968
 30
0.0
 11
37.05816023555208
 21
40.52614146876655
 31
0.0
  0
LINE
  5
42B
330
1E
100
AcDbEntity
  8
0
100
AcDbLine
 10
39.60374464782363
 20
40.52614146876655
 30
0.0
 11
40.76339976896956
 21
40.04530885755968
 31
0.0
  0
LINE
  5
42C
330
1E
100
AcDbEntity
  8
0
100
AcDbLine
 10
34.88027134949752
 20
132.6197286505025
 30
0.0
 11
35.89850511440614
 21
133.3834039741839
 31
0.0
  0
LINE
  5
42D
330
1E
100
AcDbEntity
  8
0
100
AcDbLine
 10
42.54530885755968
 20
126.7366002310304
 30
0.0
 11
41.78163353387822
 21
125.7183664661218
 31
0.0
  0
LINE
  5
42E
330
1E
100
AcDbEntity
  8
0
100
AcDbLine
 10
38.33095244168787
 20
124.3041529037486
 30
0.0
 11
39.60374464782366
 21
124.4738585312334
 31
0.0
  0
LINE
  5
42F
330
1E
100
AcDbEntity
  8
0
100
AcDbLine
 10
33.46605778712442
 20
129.1690475583121
 30
0.0
 11
33.63576341460917
 21
127.8962553521763
 31
0.0
  0
LINE
  5
430
330
1E
100
AcDbEntity
  8
0
100
AcDbLine
 10
33.6357634146092
 20
130.4418397644479
 30
0.0
 11
33.46605778712442
 21
129.1690475583121
 31
0.0
  0
LINE
  5
431
330
1E
100
AcDbEntity
  8
0
100
AcDbLine
 10
34.88027134949752
 20
132.6197286505025
 30
0.0
 11
34.11659602581605
 21
131.6014948855938
 31
0.0
  0
LINE
  5
432
330
1E
100
AcDbEntity
  8
0
100
AcDbLine
 10
34.11659602581605
 20
131.6014948855938
 30
0.0
 11
33.6357634146092
 21
130.4418397644479
 31
0.0
  0
LINE
  5
433
330
1E
100
AcDbEntity
  8
0
100
AcDbLine
 10
34.88027134949752
 20
125.7183664661218
 30
0.0
 11
35.89850511440613
 21
124.9546911424403
 31
0.0
  0
LINE
  5
434
330
1E
100
AcDbEntity
  8
0
100
AcDbLine
 10
34.11659602581605
 20
126.7366002310304
 30
0.0
 11
34.88027134949752
 21
125.7183664661218
 31
0.0
  0
LINE
  5
435
330
1E
100
AcDbEntity
  8
0
100
AcDbLine
 10
33.63576341460917
 20
127.8962553521763
 30
0.0
 11
34.11659602581605
 21
126.7366002310304
 31
0.0
  0
LINE
  5
436
330
1E
100
AcDbEntity
  8
0
100
AcDbLine
 10
37.05816023555209
 20
124.4738585312334
 30
0.0
 11
38.33095244168787
 21
124.3041529037486
 31
0.0
  0
LINE
  5
437
330
1E
100
AcDbEntity
  8
0
100
AcDbLine
 10
35.89850511440613
 20
124.9546911424403
 30
0.0
 11
37.05816023555209
 21
124.4738585312334
 31
0.0
  0
LINE
  5
438
330
1E
100
AcDbEntity
  8
0
100
AcDbLine
 10
40.76339976896957
 20
124.9546911424403
 30
0.0
 11
41.78163353387822
 21
125.7183664661218
 31
0.0
  0
LINE
  5
439
330
1E
100
AcDbEntity
  8
0
100
AcDbLine
 10
39.60374464782366
 20
124.4738585312334
 30
0.0
 11
40.76339976896957
 21
124.9546911424403
 31
0.0
  0
LINE
  5
43A
330
1E
100
AcDbEntity
  8
0
100
AcDbLine
 10
43.19584709625131
 20
129.1690475583121
 30
0.0
 11
43.02614146876654
 21
127.8962553521763
 31
0.0
  0
LINE
  5
43B
330
1E
100
AcDbEntity
  8
0
100
AcDbLine
 10
38.33095244168787
 20
134.0339422128755
 30
0.0
 11
39.60374464782364
 21
133.8642365853908
 31
0.0
  0
LINE
  5
43C
330
1E
100
AcDbEntity
  8
0
100
AcDbLine
 10
37.05816023555209
 20
133.8642365853908
 30
0.0
 11
38.33095244168787
 21
134.0339422128755
 31
0.0
  0
LINE
  5
43D
330
1E
100
AcDbEntity
  8
0
100
AcDbLine
 10
35.89850511440614
 20
133.3834039741839
 30
0.0
 11
37.05816023555209
 21
133.8642365853908
 31
0.0
  0
LINE
  5
43E
330
1E
100
AcDbEntity
  8
0
100
AcDbLine
 10
39.60374464782364
 20
133.8642365853908
 30
0.0
 11
40.76339976896959
 21
133.3834039741839
 31
0.0
  0
LINE
  5
43F
330
1E
100
AcDbEntity
  8
0
100
AcDbLine
 10
43.02614146876655
 20
130.4418397644479
 30
0.0
 11
43.19584709625131
 21
129.1690475583121
 31
0.0
  0
LINE
  5
440
330
1E
100
AcDbEntity
  8
0
100
AcDbLine
 10
42.54530885755968
 20
131.6014948855938
 30
0.0
 11
43.02614146876655
 21
130.4418397644479
 31
0.0
  0
LINE
  5
441
330
1E
100
AcDbEntity
  8
0
100
AcDbLine
 10
43.02614146876654
 20
127.8962553521763
 30
0.0
 11
42.54530885755968
 21
126.7366002310304
 31
0.0
  0
LINE
  5
442
330
1E
100
AcDbEntity
  8
0
100
AcDbLine
 10
41.78163353387822
 20
132.6197286505025
 30
0.0
 11
42.54530885755968
 21
131.6014948855938
 31
0.0
  0
LINE
  5
443
330
1E
100
AcDbEntity
  8
0
100
AcDbLine
 10
40.76339976896959
 20
133.3834039741839
 30
0.0
 11
41.78163353387822
 21
132.6197286505025
 31
0.0
  0
LINE
  5
444
330
1E
100
AcDbEntity
  8
0
100
AcDbLine
 10
129.2366002310304
 20
40.04530885755967
 30
0.0
 11
128.2183664661217
 21
39.2816335338782
 31
0.0
  0
LINE
  5
445
330
1E
100
AcDbEntity
  8
0
100
AcDbLine
 10
135.1197286505024
 20
32.3802713494975
 30
0.0
 11
135.8834039741839
 21
33.39850511440614
 31
0.0
  0
LINE
  5
446
330
1E
100
AcDbEntity
  8
0
100
AcDbLine
 10
127.4546911424403
 20
33.39850511440612
 30
0.0
 11
126.9738585312334
 21
34.55816023555208
 31
0.0
  0
LINE
  5
447
330
1E
100
AcDbEntity
  8
0
100
AcDbLine
 10
126.8041529037486
 20
35.83095244168785
 30
0.0
 11
126.9738585312334
 21
37.10374464782365
 31
0.0
  0
LINE
  5
448
330
1E
100
AcDbEntity
  8
0
100
AcDbLine
 10
126.9738585312334
 20
34.55816023555208
 30
0.0
 11
126.8041529037486
 21
35.83095244168785
 31
0.0
  0
LINE
  5
449
330
1E
100
AcDbEntity
  8
0
100
AcDbLine
 10
127.4546911424403
 20
38.26339976896956
 30
0.0
 11
128.2183664661217
 21
39.2816335338782
 31
0.0
  0
LINE
  5
44A
330
1E
100
AcDbEntity
  8
0
100
AcDbLine
 10
126.9738585312334
 20
37.10374464782365
 30
0.0
 11
127.4546911424403
 21
38.26339976896956
 31
0.0
  0
LINE
  5
44B
330
1E
100
AcDbEntity
  8
0
100
AcDbLine
 10
132.9418397644479
 20
31.13576341460916
 30
0.0
 11
131.6690475583121
 21
30.96605778712441
 31
0.0
  0
LINE
  5
44C
330
1E
100
AcDbEntity
  8
0
100
AcDbLine
 10
130.3962553521763
 20
31.13576341460917
 30
0.0
 11
129.2366002310304
 21
31.61659602581603
 31
0.0
  0
LINE
  5
44D
330
1E
100
AcDbEntity
  8
0
100
AcDbLine
 10
129.2366002310304
 20
31.61659602581603
 30
0.0
 11
128.2183664661217
 21
32.3802713494975
 31
0.0
  0
LINE
  5
44E
330
1E
100
AcDbEntity
  8
0
100
AcDbLine
 10
128.2183664661217
 20
32.3802713494975
 30
0.0
 11
127.4546911424403
 21
33.39850511440612
 31
0.0
  0
LINE
  5
44F
330
1E
100
AcDbEntity
  8
0
100
AcDbLine
 10
131.6690475583121
 20
30.96605778712441
 30
0.0
 11
130.3962553521763
 21
31.13576341460917
 31
0.0
  0
LINE
  5
450
330
1E
100
AcDbEntity
  8
0
100
AcDbLine
 10
134.1014948855938
 20
31.61659602581603
 30
0.0
 11
132.9418397644479
 21
31.13576341460916
 31
0.0
  0
LINE
  5
451
330
1E
100
AcDbEntity
  8
0
100
AcDbLine
 10
135.1197286505024
 20
32.3802713494975
 30
0.0
 11
134.1014948855938
 21
31.61659602581603
 31
0.0
  0
LINE
  5
452
330
1E
100
AcDbEntity
  8
0
100
AcDbLine
 10
134.1014948855938
 20
40.04530885755967
 30
0.0
 11
132.9418397644478
 21
40.52614146876654
 31
0.0
  0
LINE
  5
453
330
1E
100
AcDbEntity
  8
0
100
AcDbLine
 10
131.6690475583121
 20
40.6958470962513
 30
0.0
 11
130.3962553521762
 21
40.52614146876654
 31
0.0
  0
LINE
  5
454
330
1E
100
AcDbEntity
  8
0
100
AcDbLine
 10
130.3962553521762
 20
40.52614146876654
 30
0.0
 11
129.2366002310304
 21
40.04530885755967
 31
0.0
  0
LINE
  5
455
330
1E
100
AcDbEntity
  8
0
100
AcDbLine
 10
132.9418397644478
 20
40.52614146876654
 30
0.0
 11
131.6690475583121
 21
40.6958470962513
 31
0.0
  0
LINE
  5
456
330
1E
100
AcDbEntity
  8
0
100
AcDbLine
 10
136.3642365853908
 20
34.55816023555206
 30
0.0
 11
136.5339422128755
 21
35.83095244168785
 31
0.0
  0
LINE
  5
457
330
1E
100
AcDbEntity
  8
0
100
AcDbLine
 10
135.8834039741839
 20
33.39850511440614
 30
0.0
 11
136.3642365853908
 21
34.55816023555206
 31
0.0
  0
LINE
  5
458
330
1E
100
AcDbEntity
  8
0
100
AcDbLine
 10
136.3642365853908
 20
37.10374464782363
 30
0.0
 11
135.8834039741839
 21
38.26339976896958
 31
0.0
  0
LINE
  5
459
330
1E
100
AcDbEntity
  8
0
100
AcDbLine
 10
135.8834039741839
 20
38.26339976896958
 30
0.0
 11
135.1197286505024
 21
39.28163353387819
 31
0.0
  0
LINE
  5
45A
330
1E
100
AcDbEntity
  8
0
100
AcDbLine
 10
135.1197286505024
 20
39.28163353387819
 30
0.0
 11
134.1014948855938
 21
40.04530885755967
 31
0.0
  0
LINE
  5
45B
330
1E
100
AcDbEntity
  8
0
100
AcDbLine
 10
136.5339422128755
 20
35.83095244168785
 30
0.0
 11
136.3642365853908
 21
37.10374464782363
 31
0.0
  0
LINE
  5
45C
330
1E
100
AcDbEntity
  8
0
100
AcDbLine
 10
184.12
 20
82.5
 30
0.0
 11
184.3
 21
83.76000000000001
 31
0.0
  0
LINE
  5
45D
330
1E
100
AcDbEntity
  8
0
100
AcDbLine
 10
193.6999999999999
 20
83.76000000000001
 30
0.0
 11
193.88
 21
82.5
 31
0.0
  0
LINE
  5
45E
330
1E
100
AcDbEntity
  8
0
100
AcDbLine
 10
316.3
 20
83.76000000000001
 30
0.0
 11
316.12
 21
82.5
 31
0.0
  0
LINE
  5
45F
330
1E
100
AcDbEntity
  8
0
100
AcDbLine
 10
325.8799999999999
 20
82.5
 30
0.0
 11
325.7
 21
83.76000000000001
 31
0.0
  0
LINE
  5
460
330
1E
100
AcDbEntity
  8
0
100
AcDbLine
 10
201.98
 20
96.58000000000001
 30
0.0
 11
200.0
 21
82.5
 31
0.0
  0
LINE
  5
461
330
1E
100
AcDbEntity
  8
0
100
AcDbLine
 10
181.7359999999999
 20
101.956
 30
0.0
 11
179.0
 21
82.5
 31
0.0
  0
LINE
  5
462
330
1E
100
AcDbEntity
  8
0
100
AcDbLine
 10
210.3499999999999
 20
94.38819999999999
 30
0.0
 11
208.691
 21
82.5
 31
0.0
  0
LINE
  5
463
330
1E
100
AcDbEntity
  8
0
100
AcDbLine
 10
211.7319999999999
 20
94.11179999999999
 30
0.0
 11
210.074
 21
82.5
 31
0.0
  0
LINE
  5
464
330
1E
100
AcDbEntity
  8
0
100
AcDbLine
 10
301.3088
 20
82.5
 30
0.0
 11
299.6499999999999
 21
94.38819999999999
 31
0.0
  0
LINE
  5
465
330
1E
100
AcDbEntity
  8
0
100
AcDbLine
 10
299.9264999999999
 20
82.5
 30
0.0
 11
298.2676
 21
94.11179999999999
 31
0.0
  0
LINE
  5
466
330
1E
100
AcDbEntity
  8
0
100
AcDbLine
 10
310.0
 20
82.5
 30
0.0
 11
308.02
 21
96.58000000000001
 31
0.0
  0
LINE
  5
467
330
1E
100
AcDbEntity
  8
0
100
AcDbLine
 10
331.0
 20
82.5
 30
0.0
 11
328.264
 21
101.956
 31
0.0
  0
LINE
  5
468
330
1E
100
AcDbEntity
  8
0
100
AcDbLine
 10
274.456
 20
9.236
 30
0.0
 11
255.0
 21
6.5
 31
0.0
  0
LINE
  5
469
330
1E
100
AcDbEntity
  8
0
100
AcDbLine
 10
274.456
 20
9.236
 30
0.0
 11
255.0
 21
6.5
 31
0.0
  0
LINE
  5
46A
330
1E
100
AcDbEntity
  8
0
100
AcDbLine
 10
278.0853
 20
42.412
 30
0.0
 11
266.8881999999999
 21
37.85
 31
0.0
  0
LINE
  5
46B
330
1E
100
AcDbEntity
  8
0
100
AcDbLine
 10
277.3940999999999
 20
43.656
 30
0.0
 11
266.6118
 21
39.23199999999999
 31
0.0
  0
LINE
  5
46C
330
1E
100
AcDbEntity
  8
0
100
AcDbLine
 10
282.2799999999999
 20
34.75999999999999
 30
0.0
 11
269.0799999999999
 21
29.48
 31
0.0
  0
LINE
  5
46D
330
1E
100
AcDbEntity
  8
0
100
AcDbLine
 10
320.968
 20
44.80399999999999
 30
0.0
 11
308.808
 21
28.69199999999999
 31
0.0
  0
LINE
  5
46E
330
1E
100
AcDbEntity
  8
0
100
AcDbLine
 10
308.808
 20
28.69199999999999
 30
0.0
 11
292.696
 21
16.532
 31
0.0
  0
LINE
  5
46F
330
1E
100
AcDbEntity
  8
0
100
AcDbLine
 10
308.808
 20
28.69199999999999
 30
0.0
 11
292.696
 21
16.532
 31
0.0
  0
LINE
  5
470
330
1E
100
AcDbEntity
  8
0
100
AcDbLine
 10
292.696
 20
16.532
 30
0.0
 11
274.456
 21
9.236
 31
0.0
  0
LINE
  5
471
330
1E
100
AcDbEntity
  8
0
100
AcDbLine
 10
292.696
 20
16.532
 30
0.0
 11
274.456
 21
9.236
 31
0.0
  0
LINE
  5
472
330
1E
100
AcDbEntity
  8
0
100
AcDbLine
 10
331.0
 20
82.5
 30
0.0
 11
328.264
 21
63.044
 31
0.0
  0
LINE
  5
473
330
1E
100
AcDbEntity
  8
0
100
AcDbLine
 10
295.0882
 20
59.4147
 30
0.0
 11
287.7618
 21
49.738
 31
0.0
  0
LINE
  5
474
330
1E
100
AcDbEntity
  8
0
100
AcDbLine
 10
293.8441
 20
60.1059
 30
0.0
 11
286.7941
 21
50.706
 31
0.0
  0
LINE
  5
475
330
1E
100
AcDbEntity
  8
0
100
AcDbLine
 10
308.02
 20
68.42
 30
0.0
 11
302.74
 21
55.22
 31
0.0
  0
LINE
  5
476
330
1E
100
AcDbEntity
  8
0
100
AcDbLine
 10
328.264
 20
63.044
 30
0.0
 11
320.968
 21
44.80399999999999
 31
0.0
  0
LINE
  5
477
330
1E
100
AcDbEntity
  8
0
100
AcDbLine
 10
301.6690475583121
 20
40.69584709625131
 30
0.0
 11
300.3962553521763
 21
40.52614146876655
 31
0.0
  0
LINE
  5
478
330
1E
100
AcDbEntity
  8
0
100
AcDbLine
 10
301.6690475583121
 20
30.96605778712442
 30
0.0
 11
300.3962553521763
 21
31.13576341460918
 31
0.0
  0
LINE
  5
479
330
1E
100
AcDbEntity
  8
0
100
AcDbLine
 10
302.74
 20
55.22
 30
0.0
 11
293.94
 21
43.56
 31
0.0
  0
LINE
  5
47A
330
1E
100
AcDbEntity
  8
0
100
AcDbLine
 10
306.3642365853908
 20
37.10374464782364
 30
0.0
 11
305.8834039741839
 21
38.2633997689696
 31
0.0
  0
LINE
  5
47B
330
1E
100
AcDbEntity
  8
0
100
AcDbLine
 10
305.8834039741839
 20
33.39850511440616
 30
0.0
 11
306.3642365853908
 21
34.55816023555209
 31
0.0
  0
LINE
  5
47C
330
1E
100
AcDbEntity
  8
0
100
AcDbLine
 10
305.1197286505025
 20
32.38027134949752
 30
0.0
 11
304.1014948855938
 21
31.61659602581606
 31
0.0
  0
LINE
  5
47D
330
1E
100
AcDbEntity
  8
0
100
AcDbLine
 10
305.1197286505025
 20
32.38027134949752
 30
0.0
 11
305.8834039741839
 21
33.39850511440616
 31
0.0
  0
LINE
  5
47E
330
1E
100
AcDbEntity
  8
0
100
AcDbLine
 10
304.1014948855938
 20
31.61659602581606
 30
0.0
 11
302.9418397644479
 21
31.1357634146092
 31
0.0
  0
LINE
  5
47F
330
1E
100
AcDbEntity
  8
0
100
AcDbLine
 10
302.9418397644479
 20
31.1357634146092
 30
0.0
 11
301.6690475583121
 21
30.96605778712442
 31
0.0
  0
LINE
  5
480
330
1E
100
AcDbEntity
  8
0
100
AcDbLine
 10
306.5339422128755
 20
35.83095244168787
 30
0.0
 11
306.3642365853908
 21
37.10374464782364
 31
0.0
  0
LINE
  5
481
330
1E
100
AcDbEntity
  8
0
100
AcDbLine
 10
306.3642365853908
 20
34.55816023555209
 30
0.0
 11
306.5339422128755
 21
35.83095244168787
 31
0.0
  0
LINE
  5
482
330
1E
100
AcDbEntity
  8
0
100
AcDbLine
 10
302.9418397644479
 20
40.52614146876655
 30
0.0
 11
301.6690475583121
 21
40.69584709625131
 31
0.0
  0
LINE
  5
483
330
1E
100
AcDbEntity
  8
0
100
AcDbLine
 10
305.1197286505025
 20
39.28163353387822
 30
0.0
 11
304.1014948855938
 21
40.04530885755968
 31
0.0
  0
LINE
  5
484
330
1E
100
AcDbEntity
  8
0
100
AcDbLine
 10
305.8834039741839
 20
38.2633997689696
 30
0.0
 11
305.1197286505025
 21
39.28163353387822
 31
0.0
  0
LINE
  5
485
330
1E
100
AcDbEntity
  8
0
100
AcDbLine
 10
304.1014948855938
 20
40.04530885755968
 30
0.0
 11
302.9418397644479
 21
40.52614146876655
 31
0.0
  0
LINE
  5
486
330
1E
100
AcDbEntity
  8
0
100
AcDbLine
 10
287.7618
 20
49.738
 30
0.0
 11
278.0853
 21
42.412
 31
0.0
  0
LINE
  5
487
330
1E
100
AcDbEntity
  8
0
100
AcDbLine
 10
286.7941
 20
50.706
 30
0.0
 11
277.3940999999999
 21
43.656
 31
0.0
  0
LINE
  5
488
330
1E
100
AcDbEntity
  8
0
100
AcDbLine
 10
293.94
 20
43.56
 30
0.0
 11
282.2799999999999
 21
34.75999999999999
 31
0.0
  0
LINE
  5
489
330
1E
100
AcDbEntity
  8
0
100
AcDbLine
 10
296.9738585312334
 20
37.10374464782366
 30
0.0
 11
297.4546911424403
 21
38.26339976896959
 31
0.0
  0
LINE
  5
48A
330
1E
100
AcDbEntity
  8
0
100
AcDbLine
 10
297.4546911424403
 20
33.39850511440614
 30
0.0
 11
296.9738585312334
 21
34.55816023555209
 31
0.0
  0
LINE
  5
48B
330
1E
100
AcDbEntity
  8
0
100
AcDbLine
 10
298.2183664661217
 20
32.38027134949753
 30
0.0
 11
297.4546911424403
 21
33.39850511440614
 31
0.0
  0
LINE
  5
48C
330
1E
100
AcDbEntity
  8
0
100
AcDbLine
 10
299.2366002310304
 20
31.61659602581606
 30
0.0
 11
298.2183664661217
 21
32.38027134949753
 31
0.0
  0
LINE
  5
48D
330
1E
100
AcDbEntity
  8
0
100
AcDbLine
 10
300.3962553521763
 20
31.13576341460918
 30
0.0
 11
299.2366002310304
 21
31.61659602581606
 31
0.0
  0
LINE
  5
48E
330
1E
100
AcDbEntity
  8
0
100
AcDbLine
 10
296.9738585312334
 20
34.55816023555209
 30
0.0
 11
296.8041529037486
 21
35.83095244168787
 31
0.0
  0
LINE
  5
48F
330
1E
100
AcDbEntity
  8
0
100
AcDbLine
 10
296.8041529037486
 20
35.83095244168787
 30
0.0
 11
296.9738585312334
 21
37.10374464782366
 31
0.0
  0
LINE
  5
490
330
1E
100
AcDbEntity
  8
0
100
AcDbLine
 10
297.4546911424403
 20
38.26339976896959
 30
0.0
 11
298.2183664661217
 21
39.28163353387822
 31
0.0
  0
LINE
  5
491
330
1E
100
AcDbEntity
  8
0
100
AcDbLine
 10
299.2366002310304
 20
40.04530885755968
 30
0.0
 11
298.2183664661217
 21
39.28163353387822
 31
0.0
  0
LINE
  5
492
330
1E
100
AcDbEntity
  8
0
100
AcDbLine
 10
300.3962553521763
 20
40.52614146876655
 30
0.0
 11
299.2366002310304
 21
40.04530885755968
 31
0.0
  0
LINE
  5
493
330
1E
100
AcDbEntity
  8
0
100
AcDbLine
 10
301.3088
 20
82.5
 30
0.0
 11
299.6499999999999
 21
70.6118
 31
0.0
  0
LINE
  5
494
330
1E
100
AcDbEntity
  8
0
100
AcDbLine
 10
310.0
 20
82.5
 30
0.0
 11
308.02
 21
68.42
 31
0.0
  0
LINE
  5
495
330
1E
100
AcDbEntity
  8
0
100
AcDbLine
 10
322.2599999999999
 20
77.8
 30
0.0
 11
321.0
 21
77.62
 31
0.0
  0
LINE
  5
496
330
1E
100
AcDbEntity
  8
0
100
AcDbLine
 10
325.22
 20
80.08
 30
0.0
 11
324.44
 21
79.06
 31
0.0
  0
LINE
  5
497
330
1E
100
AcDbEntity
  8
0
100
AcDbLine
 10
324.44
 20
79.06
 30
0.0
 11
323.42
 21
78.28
 31
0.0
  0
LINE
  5
498
330
1E
100
AcDbEntity
  8
0
100
AcDbLine
 10
323.42
 20
78.28
 30
0.0
 11
322.2599999999999
 21
77.8
 31
0.0
  0
LINE
  5
499
330
1E
100
AcDbEntity
  8
0
100
AcDbLine
 10
325.7
 20
81.24
 30
0.0
 11
325.22
 21
80.08
 31
0.0
  0
LINE
  5
49A
330
1E
100
AcDbEntity
  8
0
100
AcDbLine
 10
325.8799999999999
 20
82.5
 30
0.0
 11
325.7
 21
81.24
 31
0.0
  0
LINE
  5
49B
330
1E
100
AcDbEntity
  8
0
100
AcDbLine
 10
317.56
 20
79.06
 30
0.0
 11
316.7799999999999
 21
80.08
 31
0.0
  0
LINE
  5
49C
330
1E
100
AcDbEntity
  8
0
100
AcDbLine
 10
318.5799999999999
 20
78.28
 30
0.0
 11
317.56
 21
79.06
 31
0.0
  0
LINE
  5
49D
330
1E
100
AcDbEntity
  8
0
100
AcDbLine
 10
321.0
 20
77.62
 30
0.0
 11
319.74
 21
77.8
 31
0.0
  0
LINE
  5
49E
330
1E
100
AcDbEntity
  8
0
100
AcDbLine
 10
319.74
 20
77.8
 30
0.0
 11
318.5799999999999
 21
78.28
 31
0.0
  0
LINE
  5
49F
330
1E
100
AcDbEntity
  8
0
100
AcDbLine
 10
316.7799999999999
 20
80.08
 30
0.0
 11
316.3
 21
81.24
 31
0.0
  0
LINE
  5
4A0
330
1E
100
AcDbEntity
  8
0
100
AcDbLine
 10
316.3
 20
81.24
 30
0.0
 11
316.12
 21
82.5
 31
0.0
  0
LINE
  5
4A1
330
1E
100
AcDbEntity
  8
0
100
AcDbLine
 10
299.6499999999999
 20
70.6118
 30
0.0
 11
295.0882
 21
59.4147
 31
0.0
  0
LINE
  5
4A2
330
1E
100
AcDbEntity
  8
0
100
AcDbLine
 10
298.2676
 20
70.8882
 30
0.0
 11
293.8441
 21
60.1059
 31
0.0
  0
LINE
  5
4A3
330
1E
100
AcDbEntity
  8
0
100
AcDbLine
 10
299.9264999999999
 20
82.5
 30
0.0
 11
298.2676
 21
70.8882
 31
0.0
  0
LINE
  5
4A4
330
1E
100
AcDbEntity
  8
0
100
AcDbLine
 10
240.92
 20
29.48
 30
0.0
 11
227.72
 21
34.75999999999999
 31
0.0
  0
LINE
  5
4A5
330
1E
100
AcDbEntity
  8
0
100
AcDbLine
 10
201.1919999999999
 20
28.69199999999999
 30
0.0
 11
189.032
 21
44.80399999999999
 31
0.0
  0
LINE
  5
4A6
330
1E
100
AcDbEntity
  8
0
100
AcDbLine
 10
235.5439999999999
 20
9.236
 30
0.0
 11
217.3039999999999
 21
16.532
 31
0.0
  0
LINE
  5
4A7
330
1E
100
AcDbEntity
  8
0
100
AcDbLine
 10
235.5439999999999
 20
9.236
 30
0.0
 11
217.3039999999999
 21
16.532
 31
0.0
  0
LINE
  5
4A8
330
1E
100
AcDbEntity
  8
0
100
AcDbLine
 10
255.4246188298015
 20
28.10416241709651
 30
0.0
 11
240.92
 21
29.48
 31
0.0
  0
LINE
  5
4A9
330
1E
100
AcDbEntity
  8
0
100
AcDbLine
 10
255.0
 20
6.5
 30
0.0
 11
235.5439999999999
 21
9.236
 31
0.0
  0
LINE
  5
4AA
330
1E
100
AcDbEntity
  8
0
100
AcDbLine
 10
255.0
 20
6.5
 30
0.0
 11
235.5439999999999
 21
9.236
 31
0.0
  0
LINE
  5
4AB
330
1E
100
AcDbEntity
  8
0
100
AcDbLine
 10
250.3
 20
17.76000000000002
 30
0.0
 11
250.78
 21
18.92000000000001
 31
0.0
  0
LINE
  5
4AC
330
1E
100
AcDbEntity
  8
0
100
AcDbLine
 10
259.7
 20
17.76000000000002
 30
0.0
 11
259.22
 21
18.92000000000001
 31
0.0
  0
LINE
  5
4AD
330
1E
100
AcDbEntity
  8
0
100
AcDbLine
 10
259.22
 20
14.08000000000001
 30
0.0
 11
259.7
 21
15.24
 31
0.0
  0
LINE
  5
4AE
330
1E
100
AcDbEntity
  8
0
100
AcDbLine
 10
259.88
 20
16.50000000000001
 30
0.0
 11
259.7
 21
17.76000000000002
 31
0.0
  0
LINE
  5
4AF
330
1E
100
AcDbEntity
  8
0
100
AcDbLine
 10
259.7
 20
15.24
 30
0.0
 11
259.88
 21
16.50000000000001
 31
0.0
  0
LINE
  5
4B0
330
1E
100
AcDbEntity
  8
0
100
AcDbLine
 10
252.58
 20
12.28000000000001
 30
0.0
 11
251.56
 21
13.06
 31
0.0
  0
LINE
  5
4B1
330
1E
100
AcDbEntity
  8
0
100
AcDbLine
 10
255.0
 20
11.62
 30
0.0
 11
256.26
 21
11.80000000000001
 31
0.0
  0
LINE
  5
4B2
330
1E
100
AcDbEntity
  8
0
100
AcDbLine
 10
257.42
 20
12.28000000000001
 30
0.0
 11
258.44
 21
13.06
 31
0.0
  0
LINE
  5
4B3
330
1E
100
AcDbEntity
  8
0
100
AcDbLine
 10
258.44
 20
13.06
 30
0.0
 11
259.22
 21
14.08000000000001
 31
0.0
  0
LINE
  5
4B4
330
1E
100
AcDbEntity
  8
0
100
AcDbLine
 10
256.26
 20
11.80000000000001
 30
0.0
 11
257.42
 21
12.28000000000001
 31
0.0
  0
LINE
  5
4B5
330
1E
100
AcDbEntity
  8
0
100
AcDbLine
 10
255.0
 20
11.62
 30
0.0
 11
253.74
 21
11.80000000000001
 31
0.0
  0
LINE
  5
4B6
330
1E
100
AcDbEntity
  8
0
100
AcDbLine
 10
253.74
 20
11.80000000000001
 30
0.0
 11
252.58
 21
12.28000000000001
 31
0.0
  0
LINE
  5
4B7
330
1E
100
AcDbEntity
  8
0
100
AcDbLine
 10
250.78
 20
14.08000000000001
 30
0.0
 11
250.3
 21
15.24
 31
0.0
  0
LINE
  5
4B8
330
1E
100
AcDbEntity
  8
0
100
AcDbLine
 10
251.56
 20
13.06
 30
0.0
 11
250.78
 21
14.08000000000001
 31
0.0
  0
LINE
  5
4B9
330
1E
100
AcDbEntity
  8
0
100
AcDbLine
 10
250.12
 20
16.50000000000003
 30
0.0
 11
250.3
 21
17.76000000000002
 31
0.0
  0
LINE
  5
4BA
330
1E
100
AcDbEntity
  8
0
100
AcDbLine
 10
250.3
 20
15.24
 30
0.0
 11
250.12
 21
16.50000000000003
 31
0.0
  0
LINE
  5
4BB
330
1E
100
AcDbEntity
  8
0
100
AcDbLine
 10
269.0799999999999
 20
29.48
 30
0.0
 11
255.4246188298015
 21
28.10416241709651
 31
0.0
  0
LINE
  5
4BC
330
1E
100
AcDbEntity
  8
0
100
AcDbLine
 10
251.56
 20
19.94000000000001
 30
0.0
 11
252.58
 21
20.72000000000001
 31
0.0
  0
LINE
  5
4BD
330
1E
100
AcDbEntity
  8
0
100
AcDbLine
 10
256.26
 20
21.2
 30
0.0
 11
255.0
 21
21.38000000000001
 31
0.0
  0
LINE
  5
4BE
330
1E
100
AcDbEntity
  8
0
100
AcDbLine
 10
253.74
 20
21.20000000000001
 30
0.0
 11
255.0
 21
21.38000000000001
 31
0.0
  0
LINE
  5
4BF
330
1E
100
AcDbEntity
  8
0
100
AcDbLine
 10
258.44
 20
19.94000000000001
 30
0.0
 11
257.42
 21
20.72000000000001
 31
0.0
  0
LINE
  5
4C0
330
1E
100
AcDbEntity
  8
0
100
AcDbLine
 10
259.22
 20
18.92000000000001
 30
0.0
 11
258.44
 21
19.94000000000001
 31
0.0
  0
LINE
  5
4C1
330
1E
100
AcDbEntity
  8
0
100
AcDbLine
 10
257.42
 20
20.72000000000001
 30
0.0
 11
256.26
 21
21.2
 31
0.0
  0
LINE
  5
4C2
330
1E
100
AcDbEntity
  8
0
100
AcDbLine
 10
252.58
 20
20.72000000000001
 30
0.0
 11
253.74
 21
21.20000000000001
 31
0.0
  0
LINE
  5
4C3
330
1E
100
AcDbEntity
  8
0
100
AcDbLine
 10
250.78
 20
18.92000000000001
 30
0.0
 11
251.56
 21
19.94000000000001
 31
0.0
  0
LINE
  5
4C4
330
1E
100
AcDbEntity
  8
0
100
AcDbLine
 10
217.3039999999999
 20
16.532
 30
0.0
 11
201.1919999999999
 21
28.69199999999999
 31
0.0
  0
LINE
  5
4C5
330
1E
100
AcDbEntity
  8
0
100
AcDbLine
 10
217.3039999999999
 20
16.532
 30
0.0
 11
201.1919999999999
 21
28.69199999999999
 31
0.0
  0
LINE
  5
4C6
330
1E
100
AcDbEntity
  8
0
100
AcDbLine
 10
222.238
 20
49.738
 30
0.0
 11
214.9119999999999
 21
59.4147
 31
0.0
  0
LINE
  5
4C7
330
1E
100
AcDbEntity
  8
0
100
AcDbLine
 10
227.72
 20
34.75999999999999
 30
0.0
 11
216.06
 21
43.56
 31
0.0
  0
LINE
  5
4C8
330
1E
100
AcDbEntity
  8
0
100
AcDbLine
 10
223.206
 20
50.706
 30
0.0
 11
216.156
 21
60.1059
 31
0.0
  0
LINE
  5
4C9
330
1E
100
AcDbEntity
  8
0
100
AcDbLine
 10
255.0
 20
36.191
 30
0.0
 11
243.1118
 21
37.85
 31
0.0
  0
LINE
  5
4CA
330
1E
100
AcDbEntity
  8
0
100
AcDbLine
 10
255.0
 20
37.574
 30
0.0
 11
243.3882
 21
39.23199999999999
 31
0.0
  0
LINE
  5
4CB
330
1E
100
AcDbEntity
  8
0
100
AcDbLine
 10
266.8881999999999
 20
37.85
 30
0.0
 11
255.0
 21
36.191
 31
0.0
  0
LINE
  5
4CC
330
1E
100
AcDbEntity
  8
0
100
AcDbLine
 10
266.6118
 20
39.23199999999999
 30
0.0
 11
255.0
 21
37.574
 31
0.0
  0
LINE
  5
4CD
330
1E
100
AcDbEntity
  8
0
100
AcDbLine
 10
232.606
 20
43.656
 30
0.0
 11
223.206
 21
50.706
 31
0.0
  0
LINE
  5
4CE
330
1E
100
AcDbEntity
  8
0
100
AcDbLine
 10
231.915
 20
42.412
 30
0.0
 11
222.238
 21
49.738
 31
0.0
  0
LINE
  5
4CF
330
1E
100
AcDbEntity
  8
0
100
AcDbLine
 10
243.1118
 20
37.85
 30
0.0
 11
231.915
 21
42.412
 31
0.0
  0
LINE
  5
4D0
330
1E
100
AcDbEntity
  8
0
100
AcDbLine
 10
243.3882
 20
39.23199999999999
 30
0.0
 11
232.606
 21
43.656
 31
0.0
  0
LINE
  5
4D1
330
1E
100
AcDbEntity
  8
0
100
AcDbLine
 10
207.2599999999999
 20
55.22
 30
0.0
 11
201.98
 21
68.42
 31
0.0
  0
LINE
  5
4D2
330
1E
100
AcDbEntity
  8
0
100
AcDbLine
 10
189.032
 20
44.80399999999999
 30
0.0
 11
181.7359999999999
 21
63.044
 31
0.0
  0
LINE
  5
4D3
330
1E
100
AcDbEntity
  8
0
100
AcDbLine
 10
216.06
 20
43.56
 30
0.0
 11
207.2599999999999
 21
55.22
 31
0.0
  0
LINE
  5
4D4
330
1E
100
AcDbEntity
  8
0
100
AcDbLine
 10
204.116596025816
 20
33.39850511440614
 30
0.0
 11
203.6357634146091
 21
34.55816023555206
 31
0.0
  0
LINE
  5
4D5
330
1E
100
AcDbEntity
  8
0
100
AcDbLine
 10
203.6357634146091
 20
37.10374464782363
 30
0.0
 11
204.116596025816
 21
38.26339976896958
 31
0.0
  0
LINE
  5
4D6
330
1E
100
AcDbEntity
  8
0
100
AcDbLine
 10
213.0261414687665
 20
37.10374464782365
 30
0.0
 11
212.5453088575596
 21
38.26339976896956
 31
0.0
  0
LINE
  5
4D7
330
1E
100
AcDbEntity
  8
0
100
AcDbLine
 10
209.6037446478236
 20
31.13576341460917
 30
0.0
 11
210.7633997689695
 21
31.61659602581603
 31
0.0
  0
LINE
  5
4D8
330
1E
100
AcDbEntity
  8
0
100
AcDbLine
 10
212.5453088575596
 20
33.39850511440612
 30
0.0
 11
213.0261414687665
 21
34.55816023555208
 31
0.0
  0
LINE
  5
4D9
330
1E
100
AcDbEntity
  8
0
100
AcDbLine
 10
210.7633997689695
 20
31.61659602581603
 30
0.0
 11
211.7816335338782
 21
32.3802713494975
 31
0.0
  0
LINE
  5
4DA
330
1E
100
AcDbEntity
  8
0
100
AcDbLine
 10
211.7816335338782
 20
32.3802713494975
 30
0.0
 11
212.5453088575596
 21
33.39850511440612
 31
0.0
  0
LINE
  5
4DB
330
1E
100
AcDbEntity
  8
0
100
AcDbLine
 10
213.0261414687665
 20
34.55816023555208
 30
0.0
 11
213.1958470962513
 21
35.83095244168785
 31
0.0
  0
LINE
  5
4DC
330
1E
100
AcDbEntity
  8
0
100
AcDbLine
 10
213.1958470962513
 20
35.83095244168785
 30
0.0
 11
213.0261414687665
 21
37.10374464782365
 31
0.0
  0
LINE
  5
4DD
330
1E
100
AcDbEntity
  8
0
100
AcDbLine
 10
207.058160235552
 20
31.13576341460916
 30
0.0
 11
208.3309524416878
 21
30.96605778712441
 31
0.0
  0
LINE
  5
4DE
330
1E
100
AcDbEntity
  8
0
100
AcDbLine
 10
208.3309524416878
 20
30.96605778712441
 30
0.0
 11
209.6037446478236
 21
31.13576341460917
 31
0.0
  0
LINE
  5
4DF
330
1E
100
AcDbEntity
  8
0
100
AcDbLine
 10
204.8802713494975
 20
32.3802713494975
 30
0.0
 11
205.8985051144061
 21
31.61659602581603
 31
0.0
  0
LINE
  5
4E0
330
1E
100
AcDbEntity
  8
0
100
AcDbLine
 10
204.8802713494975
 20
32.3802713494975
 30
0.0
 11
204.116596025816
 21
33.39850511440614
 31
0.0
  0
LINE
  5
4E1
330
1E
100
AcDbEntity
  8
0
100
AcDbLine
 10
205.8985051144061
 20
31.61659602581603
 30
0.0
 11
207.058160235552
 21
31.13576341460916
 31
0.0
  0
LINE
  5
4E2
330
1E
100
AcDbEntity
  8
0
100
AcDbLine
 10
209.6037446478236
 20
40.52614146876654
 30
0.0
 11
210.7633997689695
 21
40.04530885755967
 31
0.0
  0
LINE
  5
4E3
330
1E
100
AcDbEntity
  8
0
100
AcDbLine
 10
212.5453088575596
 20
38.26339976896956
 30
0.0
 11
211.7816335338782
 21
39.2816335338782
 31
0.0
  0
LINE
  5
4E4
330
1E
100
AcDbEntity
  8
0
100
AcDbLine
 10
210.7633997689695
 20
40.04530885755967
 30
0.0
 11
211.7816335338782
 21
39.2816335338782
 31
0.0
  0
LINE
  5
4E5
330
1E
100
AcDbEntity
  8
0
100
AcDbLine
 10
207.0581602355521
 20
40.52614146876654
 30
0.0
 11
208.3309524416878
 21
40.6958470962513
 31
0.0
  0
LINE
  5
4E6
330
1E
100
AcDbEntity
  8
0
100
AcDbLine
 10
208.3309524416878
 20
40.6958470962513
 30
0.0
 11
209.6037446478236
 21
40.52614146876654
 31
0.0
  0
LINE
  5
4E7
330
1E
100
AcDbEntity
  8
0
100
AcDbLine
 10
204.116596025816
 20
38.26339976896958
 30
0.0
 11
204.8802713494975
 21
39.28163353387819
 31
0.0
  0
LINE
  5
4E8
330
1E
100
AcDbEntity
  8
0
100
AcDbLine
 10
204.8802713494975
 20
39.28163353387819
 30
0.0
 11
205.8985051144061
 21
40.04530885755967
 31
0.0
  0
LINE
  5
4E9
330
1E
100
AcDbEntity
  8
0
100
AcDbLine
 10
205.8985051144061
 20
40.04530885755967
 30
0.0
 11
207.0581602355521
 21
40.52614146876654
 31
0.0
  0
LINE
  5
4EA
330
1E
100
AcDbEntity
  8
0
100
AcDbLine
 10
203.4660577871244
 20
35.83095244168785
 30
0.0
 11
203.6357634146091
 21
37.10374464782363
 31
0.0
  0
LINE
  5
4EB
330
1E
100
AcDbEntity
  8
0
100
AcDbLine
 10
203.6357634146091
 20
34.55816023555206
 30
0.0
 11
203.4660577871244
 21
35.83095244168785
 31
0.0
  0
LINE
  5
4EC
330
1E
100
AcDbEntity
  8
0
100
AcDbLine
 10
189.0
 20
77.62
 30
0.0
 11
190.2599999999999
 21
77.8
 31
0.0
  0
LINE
  5
4ED
330
1E
100
AcDbEntity
  8
0
100
AcDbLine
 10
214.9119999999999
 20
59.4147
 30
0.0
 11
210.3499999999999
 21
70.6118
 31
0.0
  0
LINE
  5
4EE
330
1E
100
AcDbEntity
  8
0
100
AcDbLine
 10
201.98
 20
68.42
 30
0.0
 11
200.0
 21
82.5
 31
0.0
  0
LINE
  5
4EF
330
1E
100
AcDbEntity
  8
0
100
AcDbLine
 10
216.156
 20
60.1059
 30
0.0
 11
211.7319999999999
 21
70.8882
 31
0.0
  0
LINE
  5
4F0
330
1E
100
AcDbEntity
  8
0
100
AcDbLine
 10
211.7319999999999
 20
70.8882
 30
0.0
 11
210.074
 21
82.5
 31
0.0
  0
LINE
  5
4F1
330
1E
100
AcDbEntity
  8
0
100
AcDbLine
 10
210.3499999999999
 20
70.6118
 30
0.0
 11
208.691
 21
82.5
 31
0.0
  0
LINE
  5
4F2
330
1E
100
AcDbEntity
  8
0
100
AcDbLine
 10
192.44
 20
79.06
 30
0.0
 11
193.22
 21
80.08
 31
0.0
  0
LINE
  5
4F3
330
1E
100
AcDbEntity
  8
0
100
AcDbLine
 10
191.42
 20
78.28
 30
0.0
 11
192.44
 21
79.06
 31
0.0
  0
LINE
  5
4F4
330
1E
100
AcDbEntity
  8
0
100
AcDbLine
 10
190.2599999999999
 20
77.8
 30
0.0
 11
191.42
 21
78.28
 31
0.0
  0
LINE
  5
4F5
330
1E
100
AcDbEntity
  8
0
100
AcDbLine
 10
193.22
 20
80.08
 30
0.0
 11
193.6999999999999
 21
81.24
 31
0.0
  0
LINE
  5
4F6
330
1E
100
AcDbEntity
  8
0
100
AcDbLine
 10
193.6999999999999
 20
81.24
 30
0.0
 11
193.88
 21
82.5
 31
0.0
  0
LINE
  5
4F7
330
1E
100
AcDbEntity
  8
0
100
AcDbLine
 10
181.7359999999999
 20
63.044
 30
0.0
 11
179.0
 21
82.5
 31
0.0
  0
LINE
  5
4F8
330
1E
100
AcDbEntity
  8
0
100
AcDbLine
 10
184.7799999999999
 20
80.08
 30
0.0
 11
185.56
 21
79.06
 31
0.0
  0
LINE
  5
4F9
330
1E
100
AcDbEntity
  8
0
100
AcDbLine
 10
185.56
 20
79.06
 30
0.0
 11
186.5799999999999
 21
78.28
 31
0.0
  0
LINE
  5
4FA
330
1E
100
AcDbEntity
  8
0
100
AcDbLine
 10
187.74
 20
77.8
 30
0.0
 11
189.0
 21
77.62
 31
0.0
  0
LINE
  5
4FB
330
1E
100
AcDbEntity
  8
0
100
AcDbLine
 10
186.5799999999999
 20
78.28
 30
0.0
 11
187.74
 21
77.8
 31
0.0
  0
LINE
  5
4FC
330
1E
100
AcDbEntity
  8
0
100
AcDbLine
 10
184.12
 20
82.5
 30
0.0
 11
184.3
 21
81.24
 31
0.0
  0
LINE
  5
4FD
330
1E
100
AcDbEntity
  8
0
100
AcDbLine
 10
184.3
 20
81.24
 30
0.0
 11
184.7799999999999
 21
80.08
 31
0.0
  0
LINE
  5
4FE
330
1E
100
AcDbEntity
  8
0
100
AcDbLine
 10
274.456
 20
155.764
 30
0.0
 11
255.0
 21
158.4999999999999
 31
0.0
  0
LINE
  5
4FF
330
1E
100
AcDbEntity
  8
0
100
AcDbLine
 10
282.2799999999999
 20
130.24
 30
0.0
 11
269.0799999999999
 21
135.52
 31
0.0
  0
LINE
  5
500
330
1E
100
AcDbEntity
  8
0
100
AcDbLine
 10
278.0853
 20
122.5879999999999
 30
0.0
 11
266.8881999999999
 21
127.15
 31
0.0
  0
LINE
  5
501
330
1E
100
AcDbEntity
  8
0
100
AcDbLine
 10
277.3940999999999
 20
121.344
 30
0.0
 11
266.6118
 21
125.7679999999999
 31
0.0
  0
LINE
  5
502
330
1E
100
AcDbEntity
  8
0
100
AcDbLine
 10
320.968
 20
120.1959999999999
 30
0.0
 11
308.808
 21
136.3079999999999
 31
0.0
  0
LINE
  5
503
330
1E
100
AcDbEntity
  8
0
100
AcDbLine
 10
308.02
 20
96.58000000000001
 30
0.0
 11
302.74
 21
109.78
 31
0.0
  0
LINE
  5
504
330
1E
100
AcDbEntity
  8
0
100
AcDbLine
 10
295.0882
 20
105.5849999999999
 30
0.0
 11
287.7618
 21
115.2619999999999
 31
0.0
  0
LINE
  5
505
330
1E
100
AcDbEntity
  8
0
100
AcDbLine
 10
293.8441
 20
104.8939999999999
 30
0.0
 11
286.7941
 21
114.294
 31
0.0
  0
LINE
  5
506
330
1E
100
AcDbEntity
  8
0
100
AcDbLine
 10
328.264
 20
101.956
 30
0.0
 11
320.968
 21
120.1959999999999
 31
0.0
  0
LINE
  5
507
330
1E
100
AcDbEntity
  8
0
100
AcDbLine
 10
322.2599999999999
 20
87.2
 30
0.0
 11
321.0
 21
87.37999999999999
 31
0.0
  0
LINE
  5
508
330
1E
100
AcDbEntity
  8
0
100
AcDbLine
 10
325.22
 20
84.92
 30
0.0
 11
324.44
 21
85.93999999999999
 31
0.0
  0
LINE
  5
509
330
1E
100
AcDbEntity
  8
0
100
AcDbLine
 10
325.7
 20
83.76000000000001
 30
0.0
 11
325.22
 21
84.92
 31
0.0
  0
LINE
  5
50A
330
1E
100
AcDbEntity
  8
0
100
AcDbLine
 10
324.44
 20
85.93999999999999
 30
0.0
 11
323.42
 21
86.72
 31
0.0
  0
LINE
  5
50B
330
1E
100
AcDbEntity
  8
0
100
AcDbLine
 10
323.42
 20
86.72
 30
0.0
 11
322.2599999999999
 21
87.2
 31
0.0
  0
LINE
  5
50C
330
1E
100
AcDbEntity
  8
0
100
AcDbLine
 10
317.56
 20
85.93999999999999
 30
0.0
 11
316.7799999999999
 21
84.92
 31
0.0
  0
LINE
  5
50D
330
1E
100
AcDbEntity
  8
0
100
AcDbLine
 10
316.7799999999999
 20
84.92
 30
0.0
 11
316.3
 21
83.76000000000001
 31
0.0
  0
LINE
  5
50E
330
1E
100
AcDbEntity
  8
0
100
AcDbLine
 10
318.5799999999999
 20
86.72
 30
0.0
 11
317.56
 21
85.93999999999999
 31
0.0
  0
LINE
  5
50F
330
1E
100
AcDbEntity
  8
0
100
AcDbLine
 10
321.0
 20
87.37999999999999
 30
0.0
 11
319.74
 21
87.2
 31
0.0
  0
LINE
  5
510
330
1E
100
AcDbEntity
  8
0
100
AcDbLine
 10
319.74
 20
87.2
 30
0.0
 11
318.5799999999999
 21
86.72
 31
0.0
  0
LINE
  5
511
330
1E
100
AcDbEntity
  8
0
100
AcDbLine
 10
299.6499999999999
 20
94.38819999999999
 30
0.0
 11
295.0882
 21
105.5849999999999
 31
0.0
  0
LINE
  5
512
330
1E
100
AcDbEntity
  8
0
100
AcDbLine
 10
298.2676
 20
94.11179999999999
 30
0.0
 11
293.8441
 21
104.8939999999999
 31
0.0
  0
LINE
  5
513
330
1E
100
AcDbEntity
  8
0
100
AcDbLine
 10
301.6690475583121
 20
134.0339422128755
 30
0.0
 11
300.3962553521763
 21
133.8642365853908
 31
0.0
  0
LINE
  5
514
330
1E
100
AcDbEntity
  8
0
100
AcDbLine
 10
301.6690475583121
 20
124.3041529037486
 30
0.0
 11
300.3962553521763
 21
124.4738585312334
 31
0.0
  0
LINE
  5
515
330
1E
100
AcDbEntity
  8
0
100
AcDbLine
 10
302.74
 20
109.78
 30
0.0
 11
293.94
 21
121.4399999999999
 31
0.0
  0
LINE
  5
516
330
1E
100
AcDbEntity
  8
0
100
AcDbLine
 10
306.3642365853908
 20
127.8962553521763
 30
0.0
 11
305.8834039741839
 21
126.7366002310304
 31
0.0
  0
LINE
  5
517
330
1E
100
AcDbEntity
  8
0
100
AcDbLine
 10
302.9418397644478
 20
124.4738585312334
 30
0.0
 11
301.6690475583121
 21
124.3041529037486
 31
0.0
  0
LINE
  5
518
330
1E
100
AcDbEntity
  8
0
100
AcDbLine
 10
305.1197286505024
 20
125.7183664661218
 30
0.0
 11
304.1014948855938
 21
124.9546911424403
 31
0.0
  0
LINE
  5
519
330
1E
100
AcDbEntity
  8
0
100
AcDbLine
 10
305.8834039741839
 20
126.7366002310304
 30
0.0
 11
305.1197286505024
 21
125.7183664661218
 31
0.0
  0
LINE
  5
51A
330
1E
100
AcDbEntity
  8
0
100
AcDbLine
 10
304.1014948855938
 20
124.9546911424403
 30
0.0
 11
302.9418397644478
 21
124.4738585312334
 31
0.0
  0
LINE
  5
51B
330
1E
100
AcDbEntity
  8
0
100
AcDbLine
 10
305.8834039741839
 20
131.6014948855938
 30
0.0
 11
306.3642365853908
 21
130.4418397644479
 31
0.0
  0
LINE
  5
51C
330
1E
100
AcDbEntity
  8
0
100
AcDbLine
 10
306.5339422128755
 20
129.1690475583121
 30
0.0
 11
306.3642365853908
 21
127.8962553521763
 31
0.0
  0
LINE
  5
51D
330
1E
100
AcDbEntity
  8
0
100
AcDbLine
 10
306.3642365853908
 20
130.4418397644479
 30
0.0
 11
306.5339422128755
 21
129.1690475583121
 31
0.0
  0
LINE
  5
51E
330
1E
100
AcDbEntity
  8
0
100
AcDbLine
 10
305.1197286505024
 20
132.6197286505025
 30
0.0
 11
304.1014948855938
 21
133.3834039741839
 31
0.0
  0
LINE
  5
51F
330
1E
100
AcDbEntity
  8
0
100
AcDbLine
 10
305.1197286505024
 20
132.6197286505025
 30
0.0
 11
305.8834039741839
 21
131.6014948855938
 31
0.0
  0
LINE
  5
520
330
1E
100
AcDbEntity
  8
0
100
AcDbLine
 10
304.1014948855938
 20
133.3834039741839
 30
0.0
 11
302.9418397644478
 21
133.8642365853908
 31
0.0
  0
LINE
  5
521
330
1E
100
AcDbEntity
  8
0
100
AcDbLine
 10
302.9418397644478
 20
133.8642365853908
 30
0.0
 11
301.6690475583121
 21
134.0339422128755
 31
0.0
  0
LINE
  5
522
330
1E
100
AcDbEntity
  8
0
100
AcDbLine
 10
286.7941
 20
114.294
 30
0.0
 11
277.3940999999999
 21
121.344
 31
0.0
  0
LINE
  5
523
330
1E
100
AcDbEntity
  8
0
100
AcDbLine
 10
287.7618
 20
115.2619999999999
 30
0.0
 11
278.0853
 21
122.5879999999999
 31
0.0
  0
LINE
  5
524
330
1E
100
AcDbEntity
  8
0
100
AcDbLine
 10
293.94
 20
121.4399999999999
 30
0.0
 11
282.2799999999999
 21
130.24
 31
0.0
  0
LINE
  5
525
330
1E
100
AcDbEntity
  8
0
100
AcDbLine
 10
296.9738585312334
 20
127.8962553521763
 30
0.0
 11
297.4546911424403
 21
126.7366002310304
 31
0.0
  0
LINE
  5
526
330
1E
100
AcDbEntity
  8
0
100
AcDbLine
 10
297.4546911424403
 20
126.7366002310304
 30
0.0
 11
298.2183664661217
 21
125.7183664661218
 31
0.0
  0
LINE
  5
527
330
1E
100
AcDbEntity
  8
0
100
AcDbLine
 10
299.2366002310304
 20
124.9546911424403
 30
0.0
 11
298.2183664661217
 21
125.7183664661218
 31
0.0
  0
LINE
  5
528
330
1E
100
AcDbEntity
  8
0
100
AcDbLine
 10
300.3962553521763
 20
124.4738585312334
 30
0.0
 11
299.2366002310304
 21
124.9546911424403
 31
0.0
  0
LINE
  5
529
330
1E
100
AcDbEntity
  8
0
100
AcDbLine
 10
297.4546911424403
 20
131.6014948855938
 30
0.0
 11
296.9738585312334
 21
130.4418397644479
 31
0.0
  0
LINE
  5
52A
330
1E
100
AcDbEntity
  8
0
100
AcDbLine
 10
296.9738585312334
 20
130.4418397644479
 30
0.0
 11
296.8041529037486
 21
129.1690475583121
 31
0.0
  0
LINE
  5
52B
330
1E
100
AcDbEntity
  8
0
100
AcDbLine
 10
296.8041529037486
 20
129.1690475583121
 30
0.0
 11
296.9738585312334
 21
127.8962553521763
 31
0.0
  0
LINE
  5
52C
330
1E
100
AcDbEntity
  8
0
100
AcDbLine
 10
298.2183664661217
 20
132.6197286505025
 30
0.0
 11
297.4546911424403
 21
131.6014948855938
 31
0.0
  0
LINE
  5
52D
330
1E
100
AcDbEntity
  8
0
100
AcDbLine
 10
299.2366002310304
 20
133.3834039741839
 30
0.0
 11
298.2183664661217
 21
132.6197286505025
 31
0.0
  0
LINE
  5
52E
330
1E
100
AcDbEntity
  8
0
100
AcDbLine
 10
300.3962553521763
 20
133.8642365853908
 30
0.0
 11
299.2366002310304
 21
133.3834039741839
 31
0.0
  0
LINE
  5
52F
330
1E
100
AcDbEntity
  8
0
100
AcDbLine
 10
308.808
 20
136.3079999999999
 30
0.0
 11
292.696
 21
148.4679999999999
 31
0.0
  0
LINE
  5
530
330
1E
100
AcDbEntity
  8
0
100
AcDbLine
 10
292.696
 20
148.4679999999999
 30
0.0
 11
274.456
 21
155.764
 31
0.0
  0
LINE
  5
531
330
1E
100
AcDbEntity
  8
0
100
AcDbLine
 10
240.92
 20
135.52
 30
0.0
 11
227.72
 21
130.24
 31
0.0
  0
LINE
  5
532
330
1E
100
AcDbEntity
  8
0
100
AcDbLine
 10
201.1919999999999
 20
136.3079999999999
 30
0.0
 11
189.032
 21
120.1959999999999
 31
0.0
  0
LINE
  5
533
330
1E
100
AcDbEntity
  8
0
100
AcDbLine
 10
222.238
 20
115.2619999999999
 30
0.0
 11
214.9119999999999
 21
105.5849999999999
 31
0.0
  0
LINE
  5
534
330
1E
100
AcDbEntity
  8
0
100
AcDbLine
 10
227.72
 20
130.24
 30
0.0
 11
216.06
 21
121.4399999999999
 31
0.0
  0
LINE
  5
535
330
1E
100
AcDbEntity
  8
0
100
AcDbLine
 10
223.206
 20
114.294
 30
0.0
 11
216.156
 21
104.8939999999999
 31
0.0
  0
LINE
  5
536
330
1E
100
AcDbEntity
  8
0
100
AcDbLine
 10
255.0
 20
128.8089999999999
 30
0.0
 11
243.1118
 21
127.15
 31
0.0
  0
LINE
  5
537
330
1E
100
AcDbEntity
  8
0
100
AcDbLine
 10
255.0
 20
127.4259999999999
 30
0.0
 11
243.3882
 21
125.7679999999999
 31
0.0
  0
LINE
  5
538
330
1E
100
AcDbEntity
  8
0
100
AcDbLine
 10
266.6118
 20
125.7679999999999
 30
0.0
 11
255.0
 21
127.4259999999999
 31
0.0
  0
LINE
  5
539
330
1E
100
AcDbEntity
  8
0
100
AcDbLine
 10
266.8881999999999
 20
127.15
 30
0.0
 11
255.0
 21
128.8089999999999
 31
0.0
  0
LINE
  5
53A
330
1E
100
AcDbEntity
  8
0
100
AcDbLine
 10
232.606
 20
121.344
 30
0.0
 11
223.206
 21
114.294
 31
0.0
  0
LINE
  5
53B
330
1E
100
AcDbEntity
  8
0
100
AcDbLine
 10
231.915
 20
122.5879999999999
 30
0.0
 11
222.238
 21
115.2619999999999
 31
0.0
  0
LINE
  5
53C
330
1E
100
AcDbEntity
  8
0
100
AcDbLine
 10
243.1118
 20
127.15
 30
0.0
 11
231.915
 21
122.5879999999999
 31
0.0
  0
LINE
  5
53D
330
1E
100
AcDbEntity
  8
0
100
AcDbLine
 10
243.3882
 20
125.7679999999999
 30
0.0
 11
232.606
 21
121.344
 31
0.0
  0
LINE
  5
53E
330
1E
100
AcDbEntity
  8
0
100
AcDbLine
 10
207.2599999999999
 20
109.78
 30
0.0
 11
201.98
 21
96.58000000000001
 31
0.0
  0
LINE
  5
53F
330
1E
100
AcDbEntity
  8
0
100
AcDbLine
 10
189.032
 20
120.1959999999999
 30
0.0
 11
181.7359999999999
 21
101.956
 31
0.0
  0
LINE
  5
540
330
1E
100
AcDbEntity
  8
0
100
AcDbLine
 10
189.0
 20
87.37999999999999
 30
0.0
 11
190.2599999999999
 21
87.2
 31
0.0
  0
LINE
  5
541
330
1E
100
AcDbEntity
  8
0
100
AcDbLine
 10
214.9119999999999
 20
105.5849999999999
 30
0.0
 11
210.3499999999999
 21
94.38819999999999
 31
0.0
  0
LINE
  5
542
330
1E
100
AcDbEntity
  8
0
100
AcDbLine
 10
216.156
 20
104.8939999999999
 30
0.0
 11
211.7319999999999
 21
94.11179999999999
 31
0.0
  0
LINE
  5
543
330
1E
100
AcDbEntity
  8
0
100
AcDbLine
 10
192.44
 20
85.93999999999999
 30
0.0
 11
193.22
 21
84.92
 31
0.0
  0
LINE
  5
544
330
1E
100
AcDbEntity
  8
0
100
AcDbLine
 10
193.22
 20
84.92
 30
0.0
 11
193.6999999999999
 21
83.76000000000001
 31
0.0
  0
LINE
  5
545
330
1E
100
AcDbEntity
  8
0
100
AcDbLine
 10
191.42
 20
86.72
 30
0.0
 11
192.44
 21
85.93999999999999
 31
0.0
  0
LINE
  5
546
330
1E
100
AcDbEntity
  8
0
100
AcDbLine
 10
190.2599999999999
 20
87.2
 30
0.0
 11
191.42
 21
86.72
 31
0.0
  0
LINE
  5
547
330
1E
100
AcDbEntity
  8
0
100
AcDbLine
 10
184.7799999999999
 20
84.92
 30
0.0
 11
185.56
 21
85.93999999999999
 31
0.0
  0
LINE
  5
548
330
1E
100
AcDbEntity
  8
0
100
AcDbLine
 10
184.3
 20
83.76000000000001
 30
0.0
 11
184.7799999999999
 21
84.92
 31
0.0
  0
LINE
  5
549
330
1E
100
AcDbEntity
  8
0
100
AcDbLine
 10
185.56
 20
85.93999999999999
 30
0.0
 11
186.5799999999999
 21
86.72
 31
0.0
  0
LINE
  5
54A
330
1E
100
AcDbEntity
  8
0
100
AcDbLine
 10
187.74
 20
87.2
 30
0.0
 11
189.0
 21
87.37999999999999
 31
0.0
  0
LINE
  5
54B
330
1E
100
AcDbEntity
  8
0
100
AcDbLine
 10
186.5799999999999
 20
86.72
 30
0.0
 11
187.74
 21
87.2
 31
0.0
  0
LINE
  5
54C
330
1E
100
AcDbEntity
  8
0
100
AcDbLine
 10
216.06
 20
121.4399999999999
 30
0.0
 11
207.2599999999999
 21
109.78
 31
0.0
  0
LINE
  5
54D
330
1E
100
AcDbEntity
  8
0
100
AcDbLine
 10
204.116596025816
 20
131.6014948855938
 30
0.0
 11
203.6357634146091
 21
130.4418397644479
 31
0.0
  0
LINE
  5
54E
330
1E
100
AcDbEntity
  8
0
100
AcDbLine
 10
203.6357634146091
 20
127.8962553521763
 30
0.0
 11
204.116596025816
 21
126.7366002310304
 31
0.0
  0
LINE
  5
54F
330
1E
100
AcDbEntity
  8
0
100
AcDbLine
 10
213.0261414687665
 20
127.8962553521763
 30
0.0
 11
212.5453088575596
 21
126.7366002310304
 31
0.0
  0
LINE
  5
550
330
1E
100
AcDbEntity
  8
0
100
AcDbLine
 10
209.6037446478236
 20
124.4738585312334
 30
0.0
 11
210.7633997689695
 21
124.9546911424403
 31
0.0
  0
LINE
  5
551
330
1E
100
AcDbEntity
  8
0
100
AcDbLine
 10
210.7633997689695
 20
124.9546911424403
 30
0.0
 11
211.7816335338782
 21
125.7183664661217
 31
0.0
  0
LINE
  5
552
330
1E
100
AcDbEntity
  8
0
100
AcDbLine
 10
212.5453088575596
 20
126.7366002310304
 30
0.0
 11
211.7816335338782
 21
125.7183664661217
 31
0.0
  0
LINE
  5
553
330
1E
100
AcDbEntity
  8
0
100
AcDbLine
 10
207.058160235552
 20
124.4738585312334
 30
0.0
 11
208.3309524416878
 21
124.3041529037486
 31
0.0
  0
LINE
  5
554
330
1E
100
AcDbEntity
  8
0
100
AcDbLine
 10
208.3309524416878
 20
124.3041529037486
 30
0.0
 11
209.6037446478236
 21
124.4738585312334
 31
0.0
  0
LINE
  5
555
330
1E
100
AcDbEntity
  8
0
100
AcDbLine
 10
204.116596025816
 20
126.7366002310304
 30
0.0
 11
204.8802713494975
 21
125.7183664661218
 31
0.0
  0
LINE
  5
556
330
1E
100
AcDbEntity
  8
0
100
AcDbLine
 10
204.8802713494975
 20
125.7183664661218
 30
0.0
 11
205.8985051144061
 21
124.9546911424403
 31
0.0
  0
LINE
  5
557
330
1E
100
AcDbEntity
  8
0
100
AcDbLine
 10
205.8985051144061
 20
124.9546911424403
 30
0.0
 11
207.058160235552
 21
124.4738585312334
 31
0.0
  0
LINE
  5
558
330
1E
100
AcDbEntity
  8
0
100
AcDbLine
 10
209.6037446478236
 20
133.8642365853908
 30
0.0
 11
210.7633997689696
 21
133.3834039741839
 31
0.0
  0
LINE
  5
559
330
1E
100
AcDbEntity
  8
0
100
AcDbLine
 10
212.5453088575596
 20
131.6014948855938
 30
0.0
 11
213.0261414687665
 21
130.4418397644478
 31
0.0
  0
LINE
  5
55A
330
1E
100
AcDbEntity
  8
0
100
AcDbLine
 10
213.0261414687665
 20
130.4418397644478
 30
0.0
 11
213.1958470962513
 21
129.1690475583121
 31
0.0
  0
LINE
  5
55B
330
1E
100
AcDbEntity
  8
0
100
AcDbLine
 10
213.1958470962513
 20
129.1690475583121
 30
0.0
 11
213.0261414687665
 21
127.8962553521763
 31
0.0
  0
LINE
  5
55C
330
1E
100
AcDbEntity
  8
0
100
AcDbLine
 10
210.7633997689696
 20
133.3834039741839
 30
0.0
 11
211.7816335338782
 21
132.6197286505025
 31
0.0
  0
LINE
  5
55D
330
1E
100
AcDbEntity
  8
0
100
AcDbLine
 10
211.7816335338782
 20
132.6197286505025
 30
0.0
 11
212.5453088575596
 21
131.6014948855938
 31
0.0
  0
LINE
  5
55E
330
1E
100
AcDbEntity
  8
0
100
AcDbLine
 10
207.058160235552
 20
133.8642365853908
 30
0.0
 11
208.3309524416878
 21
134.0339422128755
 31
0.0
  0
LINE
  5
55F
330
1E
100
AcDbEntity
  8
0
100
AcDbLine
 10
208.3309524416878
 20
134.0339422128755
 30
0.0
 11
209.6037446478236
 21
133.8642365853908
 31
0.0
  0
LINE
  5
560
330
1E
100
AcDbEntity
  8
0
100
AcDbLine
 10
204.8802713494975
 20
132.6197286505024
 30
0.0
 11
204.116596025816
 21
131.6014948855938
 31
0.0
  0
LINE
  5
561
330
1E
100
AcDbEntity
  8
0
100
AcDbLine
 10
204.8802713494975
 20
132.6197286505024
 30
0.0
 11
205.8985051144061
 21
133.3834039741839
 31
0.0
  0
LINE
  5
562
330
1E
100
AcDbEntity
  8
0
100
AcDbLine
 10
205.8985051144061
 20
133.3834039741839
 30
0.0
 11
207.058160235552
 21
133.8642365853908
 31
0.0
  0
LINE
  5
563
330
1E
100
AcDbEntity
  8
0
100
AcDbLine
 10
203.4660577871244
 20
129.1690475583121
 30
0.0
 11
203.6357634146091
 21
127.8962553521763
 31
0.0
  0
LINE
  5
564
330
1E
100
AcDbEntity
  8
0
100
AcDbLine
 10
203.6357634146091
 20
130.4418397644479
 30
0.0
 11
203.4660577871244
 21
129.1690475583121
 31
0.0
  0
LINE
  5
565
330
1E
100
AcDbEntity
  8
0
100
AcDbLine
 10
235.5439999999999
 20
155.764
 30
0.0
 11
217.3039999999999
 21
148.4679999999999
 31
0.0
  0
LINE
  5
566
330
1E
100
AcDbEntity
  8
0
100
AcDbLine
 10
255.0
 20
137.5
 30
0.0
 11
240.92
 21
135.52
 31
0.0
  0
LINE
  5
567
330
1E
100
AcDbEntity
  8
0
100
AcDbLine
 10
255.0
 20
158.4999999999999
 30
0.0
 11
235.5439999999999
 21
155.764
 31
0.0
  0
LINE
  5
568
330
1E
100
AcDbEntity
  8
0
100
AcDbLine
 10
250.3
 20
147.24
 30
0.0
 11
250.78
 21
146.0799999999999
 31
0.0
  0
LINE
  5
569
330
1E
100
AcDbEntity
  8
0
100
AcDbLine
 10
259.7
 20
147.24
 30
0.0
 11
259.22
 21
146.0799999999999
 31
0.0
  0
LINE
  5
56A
330
1E
100
AcDbEntity
  8
0
100
AcDbLine
 10
269.0799999999999
 20
135.52
 30
0.0
 11
255.0
 21
137.5
 31
0.0
  0
LINE
  5
56B
330
1E
100
AcDbEntity
  8
0
100
AcDbLine
 10
251.56
 20
145.06
 30
0.0
 11
252.58
 21
144.28
 31
0.0
  0
LINE
  5
56C
330
1E
100
AcDbEntity
  8
0
100
AcDbLine
 10
256.2599999999999
 20
143.8
 30
0.0
 11
255.0
 21
143.62
 31
0.0
  0
LINE
  5
56D
330
1E
100
AcDbEntity
  8
0
100
AcDbLine
 10
253.74
 20
143.8
 30
0.0
 11
255.0
 21
143.62
 31
0.0
  0
LINE
  5
56E
330
1E
100
AcDbEntity
  8
0
100
AcDbLine
 10
258.44
 20
145.06
 30
0.0
 11
257.42
 21
144.28
 31
0.0
  0
LINE
  5
56F
330
1E
100
AcDbEntity
  8
0
100
AcDbLine
 10
259.22
 20
146.0799999999999
 30
0.0
 11
258.44
 21
145.06
 31
0.0
  0
LINE
  5
570
330
1E
100
AcDbEntity
  8
0
100
AcDbLine
 10
257.42
 20
144.28
 30
0.0
 11
256.2599999999999
 21
143.8
 31
0.0
  0
LINE
  5
571
330
1E
100
AcDbEntity
  8
0
100
AcDbLine
 10
252.58
 20
144.28
 30
0.0
 11
253.74
 21
143.8
 31
0.0
  0
LINE
  5
572
330
1E
100
AcDbEntity
  8
0
100
AcDbLine
 10
250.78
 20
146.0799999999999
 30
0.0
 11
251.56
 21
145.06
 31
0.0
  0
LINE
  5
573
330
1E
100
AcDbEntity
  8
0
100
AcDbLine
 10
259.22
 20
150.92
 30
0.0
 11
259.7
 21
149.76
 31
0.0
  0
LINE
  5
574
330
1E
100
AcDbEntity
  8
0
100
AcDbLine
 10
259.88
 20
148.5
 30
0.0
 11
259.7
 21
147.24
 31
0.0
  0
LINE
  5
575
330
1E
100
AcDbEntity
  8
0
100
AcDbLine
 10
259.7
 20
149.76
 30
0.0
 11
259.88
 21
148.5
 31
0.0
  0
LINE
  5
576
330
1E
100
AcDbEntity
  8
0
100
AcDbLine
 10
252.5799999999999
 20
152.72
 30
0.0
 11
251.56
 21
151.94
 31
0.0
  0
LINE
  5
577
330
1E
100
AcDbEntity
  8
0
100
AcDbLine
 10
255.0
 20
153.38
 30
0.0
 11
256.26
 21
153.2
 31
0.0
  0
LINE
  5
578
330
1E
100
AcDbEntity
  8
0
100
AcDbLine
 10
257.42
 20
152.72
 30
0.0
 11
258.44
 21
151.94
 31
0.0
  0
LINE
  5
579
330
1E
100
AcDbEntity
  8
0
100
AcDbLine
 10
258.44
 20
151.94
 30
0.0
 11
259.22
 21
150.92
 31
0.0
  0
LINE
  5
57A
330
1E
100
AcDbEntity
  8
0
100
AcDbLine
 10
256.26
 20
153.2
 30
0.0
 11
257.42
 21
152.72
 31
0.0
  0
LINE
  5
57B
330
1E
100
AcDbEntity
  8
0
100
AcDbLine
 10
255.0
 20
153.38
 30
0.0
 11
253.74
 21
153.2
 31
0.0
  0
LINE
  5
57C
330
1E
100
AcDbEntity
  8
0
100
AcDbLine
 10
253.74
 20
153.2
 30
0.0
 11
252.5799999999999
 21
152.72
 31
0.0
  0
LINE
  5
57D
330
1E
100
AcDbEntity
  8
0
100
AcDbLine
 10
250.78
 20
150.92
 30
0.0
 11
250.3
 21
149.76
 31
0.0
  0
LINE
  5
57E
330
1E
100
AcDbEntity
  8
0
100
AcDbLine
 10
250.12
 20
148.5
 30
0.0
 11
250.3
 21
147.24
 31
0.0
  0
LINE
  5
57F
330
1E
100
AcDbEntity
  8
0
100
AcDbLine
 10
250.3
 20
149.76
 30
0.0
 11
250.12
 21
148.5
 31
0.0
  0
LINE
  5
580
330
1E
100
AcDbEntity
  8
0
100
AcDbLine
 10
251.56
 20
151.94
 30
0.0
 11
250.78
 21
150.92
 31
0.0
  0
LINE
  5
581
330
1E
100
AcDbEntity
  8
0
100
AcDbLine
 10
217.3039999999999
 20
148.4679999999999
 30
0.0
 11
201.1919999999999
 21
136.3079999999999
 31
0.0
  0
ENDSEC
  0
SECTION
  2
OBJECTS
  0
DICTIONARY
  5
C
330
0
100
AcDbDictionary
281
     1
  3
ACAD_GROUP
350
D
  3
ACAD_LAYOUT
350
19
  3
ACAD_MLINESTYLE
350
16
  3
ACAD_PLOTSETTINGS
350
18
  3
ACAD_PLOTSTYLENAME
350
E
  3
AcDbVariableDictionary
350
582
  0
DICTIONARY
  5
D
102
{ACAD_REACTORS
330
C
102
}
330
C
100
AcDbDictionary
281
     1
  0
DICTIONARY
  5
19
102
{ACAD_REACTORS
330
C
102
}
330
C
100
AcDbDictionary
281
     1
  3
Layout1
350
1D
  3
Model
350
21
  0
DICTIONARY
  5
16
102
{ACAD_REACTORS
330
C
102
}
330
C
100
AcDbDictionary
281
     1
  3
Standard
350
17
  0
DICTIONARY
  5
18
102
{ACAD_REACTORS
330
C
102
}
330
C
100
AcDbDictionary
281
     1
  0
ACDBDICTIONARYWDFLT
  5
E
102
{ACAD_REACTORS
330
C
102
}
330
C
100
AcDbDictionary
281
     1
  3
Normal
350
F
100
AcDbDictionaryWithDefault
340
F
  0
DICTIONARY
  5
582
102
{ACAD_REACTORS
330
C
102
}
330
C
100
AcDbDictionary
281
     1
  3
DIMASSOC
350
583
  0
LAYOUT
  5
1D
102
{ACAD_REACTORS
330
19
102
}
330
19
100
AcDbPlotSettings
  1

  2
hp deskjet 980c series
  4

  6

 40
0.0
 41
0.0
 42
0.0
 43
0.0
 44
0.0
 45
0.0
 46
0.0
 47
0.0
 48
0.0
 49
0.0
140
0.0
141
0.0
142
1.0
143
1.0
 70
   688
 72
     0
 73
     0
 74
     5
  7

 75
    16
147
1.0
148
0.0
149
0.0
100
AcDbLayout
  1
Layout1
 70
     1
 71
     1
 10
0.0
 20
0.0
 11
12.0
 21
9.0
 12
0.0
 22
0.0
 32
0.0
 14
1.000000000000000E+20
 24
1.000000000000000E+20
 34
1.000000000000000E+20
 15
-1.000000000000000E+20
 25
-1.000000000000000E+20
 35
-1.000000000000000E+20
146
0.0
 13
0.0
 23
0.0
 33
0.0
 16
1.0
 26
0.0
 36
0.0
 17
0.0
 27
1.0
 37
0.0
 76
     0
330
1A
  0
LAYOUT
  5
21
102
{ACAD_REACTORS
330
19
102
}
330
19
100
AcDbPlotSettings
  1

  2
hp deskjet 980c series
  4

  6

 40
0.0
 41
0.0
 42
0.0
 43
0.0
 44
0.0
 45
0.0
 46
0.0
 47
0.0
 48
0.0
 49
0.0
140
0.0
141
0.0
142
1.0
143
1.0
 70
  1712
 72
     0
 73
     0
 74
     0
  7

 75
     0
147
1.0
148
0.0
149
0.0
100
AcDbLayout
  1
Model
 70
     1
 71
     0
 10
0.0
 20
0.0
 11
12.0
 21
9.0
 12
0.0
 22
0.0
 32
0.0
 14
0.0
 24
0.0
 34
0.0
 15
0.0
 25
0.0
 35
0.0
146
0.0
 13
0.0
 23
0.0
 33
0.0
 16
1.0
 26
0.0
 36
0.0
 17
0.0
 27
1.0
 37
0.0
 76
     0
330
1E
  0
MLINESTYLE
  5
17
102
{ACAD_REACTORS
330
16
102
}
330
16
100
AcDbMlineStyle
  2
STANDARD
 70
     0
  3

 62
   256
 51
90.0
 52
90.0
 71
     2
 49
0.5
 62
   256
  6
BYLAYER
 49
-0.5
 62
   256
  6
BYLAYER
  0
ACDBPLACEHOLDER
  5
F
102
{ACAD_REACTORS
330
E
102
}
330
E
  0
DICTIONARYVAR
  5
583
102
{ACAD_REACTORS
330
582
102
}
330
582
100
DictionaryVariables
280
     0
  1
1
  0
ENDSEC
  0
EOF
