  0
SECTION
  2
HEADER
  9
$ACADVER
  1
AC1015
  9
$ACADMAINTVER
 70
    13
  9
$DWGCODEPAGE
  3
ANSI_1252
  9
$INSBASE
 10
0.0
 20
0.0
 30
0.0
  9
$EXTMIN
 10
0.0
 20
-0.0000000000000064
 30
0.0
  9
$EXTMAX
 10
77.0
 20
90.0
 30
0.0
  9
$LIMMIN
 10
0.0
 20
0.0
  9
$LIMMAX
 10
12.0
 20
9.0
  9
$ORTHOMODE
 70
     0
  9
$REGENMODE
 70
     1
  9
$FILLMODE
 70
     1
  9
$QTEXTMODE
 70
     0
  9
$MIRRTEXT
 70
     1
  9
$LTSCALE
 40
1.0
  9
$ATTMODE
 70
     1
  9
$TEXTSIZE
 40
0.2
  9
$TRACEWID
 40
0.05
  9
$TEXTSTYLE
  7
Standard
  9
$CLAYER
  8
0
  9
$CELTYPE
  6
Continuous
  9
$CECOLOR
 62
   256
  9
$CELTSCALE
 40
1.0
  9
$DISPSILH
 70
     0
  9
$DIMSCALE
 40
1.0
  9
$DIMASZ
 40
0.18
  9
$DIMEXO
 40
0.0625
  9
$DIMDLI
 40
0.38
  9
$DIMRND
 40
0.0
  9
$DIMDLE
 40
0.0
  9
$DIMEXE
 40
0.18
  9
$DIMTP
 40
0.0
  9
$DIMTM
 40
0.0
  9
$DIMTXT
 40
0.18
  9
$DIMCEN
 40
0.09
  9
$DIMTSZ
 40
0.0
  9
$DIMTOL
 70
     0
  9
$DIMLIM
 70
     0
  9
$DIMTIH
 70
     1
  9
$DIMTOH
 70
     1
  9
$DIMSE1
 70
     0
  9
$DIMSE2
 70
     0
  9
$DIMTAD
 70
     0
  9
$DIMZIN
 70
     0
  9
$DIMBLK
  1

  9
$DIMASO
 70
     1
  9
$DIMSHO
 70
     1
  9
$DIMPOST
  1

  9
$DIMAPOST
  1

  9
$DIMALT
 70
     0
  9
$DIMALTD
 70
     2
  9
$DIMALTF
 40
25.4
  9
$DIMLFAC
 40
1.0
  9
$DIMTOFL
 70
     0
  9
$DIMTVP
 40
0.0
  9
$DIMTIX
 70
     0
  9
$DIMSOXD
 70
     0
  9
$DIMSAH
 70
     0
  9
$DIMBLK1
  1

  9
$DIMBLK2
  1

  9
$DIMSTYLE
  2
Standard
  9
$DIMCLRD
 70
     0
  9
$DIMCLRE
 70
     0
  9
$DIMCLRT
 70
     0
  9
$DIMTFAC
 40
1.0
  9
$DIMGAP
 40
0.09
  9
$DIMJUST
 70
     0
  9
$DIMSD1
 70
     0
  9
$DIMSD2
 70
     0
  9
$DIMTOLJ
 70
     1
  9
$DIMTZIN
 70
     0
  9
$DIMALTZ
 70
     0
  9
$DIMALTTZ
 70
     0
  9
$DIMUPT
 70
     0
  9
$DIMDEC
 70
     4
  9
$DIMTDEC
 70
     4
  9
$DIMALTU
 70
     2
  9
$DIMALTTD
 70
     2
  9
$DIMTXSTY
  7
Standard
  9
$DIMAUNIT
 70
     0
  9
$DIMADEC
 70
     0
  9
$DIMALTRND
 40
0.0
  9
$DIMAZIN
 70
     0
  9
$DIMDSEP
 70
    46
  9
$DIMATFIT
 70
     3
  9
$DIMFRAC
 70
     0
  9
$DIMLDRBLK
  1

  9
$DIMLUNIT
 70
     2
  9
$DIMLWD
 70
    -2
  9
$DIMLWE
 70
    -2
  9
$DIMTMOVE
 70
     0
  9
$LUNITS
 70
     2
  9
$LUPREC
 70
     4
  9
$SKETCHINC
 40
0.1
  9
$FILLETRAD
 40
0.0
  9
$AUNITS
 70
     0
  9
$AUPREC
 70
     0
  9
$MENU
  1
.
  9
$ELEVATION
 40
0.0
  9
$PELEVATION
 40
0.0
  9
$THICKNESS
 40
0.0
  9
$LIMCHECK
 70
     0
  9
$CHAMFERA
 40
0.0
  9
$CHAMFERB
 40
0.0
  9
$CHAMFERC
 40
0.0
  9
$CHAMFERD
 40
0.0
  9
$SKPOLY
 70
     0
  9
$TDCREATE
 40
2454779.689965636
  9
$TDUCREATE
 40
2454779.648298970
  9
$TDUPDATE
 40
2454779.693430984
  9
$TDUUPDATE
 40
2454779.651764317
  9
$TDINDWG
 40
0.0034653472
  9
$TDUSRTIMER
 40
0.0034653472
  9
$USRTIMER
 70
     1
  9
$ANGBASE
 50
0.0
  9
$ANGDIR
 70
     0
  9
$PDMODE
 70
     0
  9
$PDSIZE
 40
0.0
  9
$PLINEWID
 40
0.0
  9
$SPLFRAME
 70
     0
  9
$SPLINETYPE
 70
     6
  9
$SPLINESEGS
 70
     8
  9
$HANDSEED
  5
33B
  9
$SURFTAB1
 70
     6
  9
$SURFTAB2
 70
     6
  9
$SURFTYPE
 70
     6
  9
$SURFU
 70
     6
  9
$SURFV
 70
     6
  9
$UCSBASE
  2

  9
$UCSNAME
  2

  9
$UCSORG
 10
0.0
 20
0.0
 30
0.0
  9
$UCSXDIR
 10
1.0
 20
0.0
 30
0.0
  9
$UCSYDIR
 10
0.0
 20
1.0
 30
0.0
  9
$UCSORTHOREF
  2

  9
$UCSORTHOVIEW
 70
     1
  9
$UCSORGTOP
 10
0.0
 20
0.0
 30
0.0
  9
$UCSORGBOTTOM
 10
0.0
 20
0.0
 30
0.0
  9
$UCSORGLEFT
 10
0.0
 20
0.0
 30
0.0
  9
$UCSORGRIGHT
 10
0.0
 20
0.0
 30
0.0
  9
$UCSORGFRONT
 10
0.0
 20
0.0
 30
0.0
  9
$UCSORGBACK
 10
0.0
 20
0.0
 30
0.0
  9
$PUCSBASE
  2

  9
$PUCSNAME
  2

  9
$PUCSORG
 10
0.0
 20
0.0
 30
0.0
  9
$PUCSXDIR
 10
1.0
 20
0.0
 30
0.0
  9
$PUCSYDIR
 10
0.0
 20
1.0
 30
0.0
  9
$PUCSORTHOREF
  2

  9
$PUCSORTHOVIEW
 70
     0
  9
$PUCSORGTOP
 10
0.0
 20
0.0
 30
0.0
  9
$PUCSORGBOTTOM
 10
0.0
 20
0.0
 30
0.0
  9
$PUCSORGLEFT
 10
0.0
 20
0.0
 30
0.0
  9
$PUCSORGRIGHT
 10
0.0
 20
0.0
 30
0.0
  9
$PUCSORGFRONT
 10
0.0
 20
0.0
 30
0.0
  9
$PUCSORGBACK
 10
0.0
 20
0.0
 30
0.0
  9
$USERI1
 70
     0
  9
$USERI2
 70
     0
  9
$USERI3
 70
     0
  9
$USERI4
 70
     0
  9
$USERI5
 70
     0
  9
$USERR1
 40
0.0
  9
$USERR2
 40
0.0
  9
$USERR3
 40
0.0
  9
$USERR4
 40
0.0
  9
$USERR5
 40
0.0
  9
$WORLDVIEW
 70
     1
  9
$SHADEDGE
 70
     3
  9
$SHADEDIF
 70
    70
  9
$TILEMODE
 70
     1
  9
$MAXACTVP
 70
    64
  9
$PINSBASE
 10
0.0
 20
0.0
 30
0.0
  9
$PLIMCHECK
 70
     0
  9
$PEXTMIN
 10
1.000000000000000E+20
 20
1.000000000000000E+20
 30
1.000000000000000E+20
  9
$PEXTMAX
 10
-1.000000000000000E+20
 20
-1.000000000000000E+20
 30
-1.000000000000000E+20
  9
$PLIMMIN
 10
0.0
 20
0.0
  9
$PLIMMAX
 10
12.0
 20
9.0
  9
$UNITMODE
 70
     0
  9
$VISRETAIN
 70
     1
  9
$PLINEGEN
 70
     0
  9
$PSLTSCALE
 70
     1
  9
$TREEDEPTH
 70
  3020
  9
$CMLSTYLE
  2
Standard
  9
$CMLJUST
 70
     0
  9
$CMLSCALE
 40
1.0
  9
$PROXYGRAPHICS
 70
     1
  9
$MEASUREMENT
 70
     0
  9
$CELWEIGHT
370
    -1
  9
$ENDCAPS
280
     0
  9
$JOINSTYLE
280
     0
  9
$LWDISPLAY
290
     0
  9
$INSUNITS
 70
     0
  9
$HYPERLINKBASE
  1

  9
$STYLESHEET
  1

  9
$XEDIT
290
     1
  9
$CEPSNTYPE
380
     0
  9
$PSTYLEMODE
290
     1
  9
$FINGERPRINTGUID
  2
{803B1B87-838A-48EA-8E31-97321BB21C35}
  9
$VERSIONGUID
  2
{D8B09CBE-9EBB-47CD-9FEB-C55FDE1085C3}
  9
$EXTNAMES
290
     1
  9
$PSVPSCALE
 40
0.0
  9
$OLESTARTUP
290
     0
  0
ENDSEC
  0
SECTION
  2
CLASSES
  0
CLASS
  1
ACDBDICTIONARYWDFLT
  2
AcDbDictionaryWithDefault
  3
AutoCAD 2000
 90
        0
280
     0
281
     0
  0
CLASS
  1
ACDBPLACEHOLDER
  2
AcDbPlaceHolder
  3
AutoCAD 2000
 90
        0
280
     0
281
     0
  0
CLASS
  1
LAYOUT
  2
AcDbLayout
  3
AutoCAD 2000
 90
        0
280
     0
281
     0
  0
CLASS
  1
DICTIONARYVAR
  2
AcDbDictionaryVar
  3
AutoCAD 2000
 90
        0
280
     0
281
     0
  0
ENDSEC
  0
SECTION
  2
TABLES
  0
TABLE
  2
VPORT
  5
8
330
0
100
AcDbSymbolTable
 70
     2
  0
VPORT
  5
33A
330
8
100
AcDbSymbolTableRecord
100
AcDbViewportTableRecord
  2
*Active
 70
     0
 10
0.0
 20
0.0
 11
1.0
 21
1.0
 12
38.5
 22
44.99999999999999
 13
0.0
 23
0.0
 14
1.0
 24
1.0
 15
0.0
 25
0.0
 16
0.0
 26
0.0
 36
1.0
 17
0.0
 27
0.0
 37
0.0
 40
90.69053708439898
 41
2.078104993597951
 42
50.0
 43
0.0
 44
0.0
 50
0.0
 51
0.0
 71
     0
 72
   100
 73
     1
 74
     3
 75
     0
 76
     0
 77
     0
 78
     0
281
     0
 65
     1
110
0.0
120
0.0
130
0.0
111
1.0
121
0.0
131
0.0
112
0.0
122
1.0
132
0.0
 79
     1
146
0.0
  0
ENDTAB
  0
TABLE
  2
LTYPE
  5
5
330
0
100
AcDbSymbolTable
 70
     1
  0
LTYPE
  5
13
330
5
100
AcDbSymbolTableRecord
100
AcDbLinetypeTableRecord
  2
ByBlock
 70
     0
  3

 72
    65
 73
     0
 40
0.0
  0
LTYPE
  5
14
330
5
100
AcDbSymbolTableRecord
100
AcDbLinetypeTableRecord
  2
ByLayer
 70
     0
  3

 72
    65
 73
     0
 40
0.0
  0
LTYPE
  5
15
330
5
100
AcDbSymbolTableRecord
100
AcDbLinetypeTableRecord
  2
Continuous
 70
     0
  3
Solid line
 72
    65
 73
     0
 40
0.0
  0
ENDTAB
  0
TABLE
  2
LAYER
  5
2
330
0
100
AcDbSymbolTable
 70
     1
  0
LAYER
  5
10
330
2
100
AcDbSymbolTableRecord
100
AcDbLayerTableRecord
  2
0
 70
     0
 62
     7
  6
Continuous
370
    -3
390
F
  0
ENDTAB
  0
TABLE
  2
STYLE
  5
3
330
0
100
AcDbSymbolTable
 70
     1
  0
STYLE
  5
11
330
3
100
AcDbSymbolTableRecord
100
AcDbTextStyleTableRecord
  2
Standard
 70
     0
 40
0.0
 41
1.0
 50
0.0
 71
     0
 42
0.2
  3
txt
  4

  0
ENDTAB
  0
TABLE
  2
VIEW
  5
6
330
0
100
AcDbSymbolTable
 70
     0
  0
ENDTAB
  0
TABLE
  2
UCS
  5
7
330
0
100
AcDbSymbolTable
 70
     0
  0
ENDTAB
  0
TABLE
  2
APPID
  5
9
330
0
100
AcDbSymbolTable
 70
     1
  0
APPID
  5
12
330
9
100
AcDbSymbolTableRecord
100
AcDbRegAppTableRecord
  2
ACAD
 70
     0
  0
ENDTAB
  0
TABLE
  2
DIMSTYLE
  5
A
330
0
100
AcDbSymbolTable
 70
     1
100
AcDbDimStyleTable
 71
     0
  0
DIMSTYLE
105
334
330
A
100
AcDbSymbolTableRecord
100
AcDbDimStyleTableRecord
  2
Standard
 70
     0
340
11
  0
ENDTAB
  0
TABLE
  2
BLOCK_RECORD
  5
1
330
0
100
AcDbSymbolTable
 70
     0
  0
BLOCK_RECORD
  5
1E
330
1
100
AcDbSymbolTableRecord
100
AcDbBlockTableRecord
  2
*Model_Space
340
21
  0
BLOCK_RECORD
  5
1A
330
1
100
AcDbSymbolTableRecord
100
AcDbBlockTableRecord
  2
*Paper_Space
340
1D
  0
ENDTAB
  0
ENDSEC
  0
SECTION
  2
BLOCKS
  0
BLOCK
  5
1F
330
1E
100
AcDbEntity
  8
0
100
AcDbBlockBegin
  2
*Model_Space
 70
     0
 10
0.0
 20
0.0
 30
0.0
  3
*Model_Space
  1

  0
ENDBLK
  5
20
330
1E
100
AcDbEntity
  8
0
100
AcDbBlockEnd
  0
BLOCK
  5
1B
330
1A
100
AcDbEntity
 67
     1
  8
0
100
AcDbBlockBegin
  2
*Paper_Space
 70
     0
 10
0.0
 20
0.0
 30
0.0
  3
*Paper_Space
  1

  0
ENDBLK
  5
1C
330
1A
100
AcDbEntity
 67
     1
  8
0
100
AcDbBlockEnd
  0
ENDSEC
  0
SECTION
  2
ENTITIES
  0
LINE
  5
22
330
1E
100
AcDbEntity
  8
0
100
AcDbLine
 10
33.6
 20
27.648
 30
0.0
 11
33.6
 21
27.0
 31
0.0
  0
LINE
  5
23
330
1E
100
AcDbEntity
  8
0
100
AcDbLine
 10
33.6
 20
27.648
 30
0.0
 11
33.6
 21
29.37599999999999
 31
0.0
  0
LINE
  5
24
330
1E
100
AcDbEntity
  8
0
100
AcDbLine
 10
33.0
 20
27.43199999999999
 30
0.0
 11
33.0
 21
28.07999999999999
 31
0.0
  0
LINE
  5
25
330
1E
100
AcDbEntity
  8
0
100
AcDbLine
 10
33.0
 20
27.43199999999999
 30
0.0
 11
33.6
 21
27.0
 31
0.0
  0
LINE
  5
26
330
1E
100
AcDbEntity
  8
0
100
AcDbLine
 10
28.0
 20
29.384
 30
0.0
 11
28.3
 21
29.0
 31
0.0
  0
LINE
  5
27
330
1E
100
AcDbEntity
  8
0
100
AcDbLine
 10
28.0
 20
29.384
 30
0.0
 11
28.0
 21
29.96
 31
0.0
  0
LINE
  5
28
330
1E
100
AcDbEntity
  8
0
100
AcDbLine
 10
28.3
 20
29.576
 30
0.0
 11
28.3
 21
31.112
 31
0.0
  0
LINE
  5
29
330
1E
100
AcDbEntity
  8
0
100
AcDbLine
 10
28.3
 20
29.576
 30
0.0
 11
28.3
 21
29.0
 31
0.0
  0
LINE
  5
2A
330
1E
100
AcDbEntity
  8
0
100
AcDbLine
 10
28.3
 20
29.0
 30
0.0
 11
28.3
 21
29.576
 31
0.0
  0
LINE
  5
2B
330
1E
100
AcDbEntity
  8
0
100
AcDbLine
 10
28.3
 20
29.0
 30
0.0
 11
33.0
 21
29.0
 31
0.0
  0
LINE
  5
2C
330
1E
100
AcDbEntity
  8
0
100
AcDbLine
 10
25.18
 20
31.0
 30
0.0
 11
25.18
 21
31.504
 31
0.0
  0
LINE
  5
2D
330
1E
100
AcDbEntity
  8
0
100
AcDbLine
 10
25.18
 20
31.0
 30
0.0
 11
28.0
 21
31.0
 31
0.0
  0
LINE
  5
2E
330
1E
100
AcDbEntity
  8
0
100
AcDbLine
 10
28.0
 20
31.0
 30
0.0
 11
28.0
 21
29.96
 31
0.0
  0
LINE
  5
2F
330
1E
100
AcDbEntity
  8
0
100
AcDbLine
 10
28.0
 20
29.96
 30
0.0
 11
28.0
 21
31.49599999999999
 31
0.0
  0
LINE
  5
30
330
1E
100
AcDbEntity
  8
0
100
AcDbLine
 10
28.0
 20
29.96
 30
0.0
 11
28.0
 21
29.384
 31
0.0
  0
LINE
  5
31
330
1E
100
AcDbEntity
  8
0
100
AcDbLine
 10
28.0
 20
29.96
 30
0.0
 11
28.0
 21
31.0
 31
0.0
  0
LINE
  5
32
330
1E
100
AcDbEntity
  8
0
100
AcDbLine
 10
25.0
 20
31.33599999999999
 30
0.0
 11
25.18
 21
31.0
 31
0.0
  0
LINE
  5
33
330
1E
100
AcDbEntity
  8
0
100
AcDbLine
 10
25.0
 20
31.33599999999999
 30
0.0
 11
25.0
 21
31.84
 31
0.0
  0
LINE
  5
34
330
1E
100
AcDbEntity
  8
0
100
AcDbLine
 10
25.18
 20
31.504
 30
0.0
 11
25.18
 21
32.848
 31
0.0
  0
LINE
  5
35
330
1E
100
AcDbEntity
  8
0
100
AcDbLine
 10
25.18
 20
31.504
 30
0.0
 11
25.18
 21
31.0
 31
0.0
  0
LINE
  5
36
330
1E
100
AcDbEntity
  8
0
100
AcDbLine
 10
25.0
 20
31.84
 30
0.0
 11
25.0
 21
33.184
 31
0.0
  0
LINE
  5
37
330
1E
100
AcDbEntity
  8
0
100
AcDbLine
 10
25.0
 20
31.84
 30
0.0
 11
25.0
 21
31.33599999999999
 31
0.0
  0
LINE
  5
38
330
1E
100
AcDbEntity
  8
0
100
AcDbLine
 10
28.0
 20
31.504
 30
0.0
 11
28.0
 21
31.0
 31
0.0
  0
LINE
  5
39
330
1E
100
AcDbEntity
  8
0
100
AcDbLine
 10
28.0
 20
31.49599999999999
 30
0.0
 11
28.0
 21
33.99199999999999
 31
0.0
  0
LINE
  5
3A
330
1E
100
AcDbEntity
  8
0
100
AcDbLine
 10
28.0
 20
31.49599999999999
 30
0.0
 11
28.0
 21
29.96
 31
0.0
  0
LINE
  5
3B
330
1E
100
AcDbEntity
  8
0
100
AcDbLine
 10
28.3
 20
31.112
 30
0.0
 11
28.3
 21
33.67199999999999
 31
0.0
  0
LINE
  5
3C
330
1E
100
AcDbEntity
  8
0
100
AcDbLine
 10
28.3
 20
31.112
 30
0.0
 11
28.3
 21
29.576
 31
0.0
  0
LINE
  5
3D
330
1E
100
AcDbEntity
  8
0
100
AcDbLine
 10
33.0
 20
31.112
 30
0.0
 11
33.0
 21
29.576
 31
0.0
  0
LINE
  5
3E
330
1E
100
AcDbEntity
  8
0
100
AcDbLine
 10
33.0
 20
29.576
 30
0.0
 11
33.0
 21
29.0
 31
0.0
  0
LINE
  5
3F
330
1E
100
AcDbEntity
  8
0
100
AcDbLine
 10
33.0
 20
29.808
 30
0.0
 11
33.0
 21
28.07999999999999
 31
0.0
  0
LINE
  5
40
330
1E
100
AcDbEntity
  8
0
100
AcDbLine
 10
33.0
 20
29.808
 30
0.0
 11
33.0
 21
32.616
 31
0.0
  0
LINE
  5
41
330
1E
100
AcDbEntity
  8
0
100
AcDbLine
 10
25.18
 20
32.848
 30
0.0
 11
25.18
 21
35.088
 31
0.0
  0
LINE
  5
42
330
1E
100
AcDbEntity
  8
0
100
AcDbLine
 10
25.18
 20
32.848
 30
0.0
 11
25.18
 21
31.504
 31
0.0
  0
LINE
  5
43
330
1E
100
AcDbEntity
  8
0
100
AcDbLine
 10
23.0
 20
33.288
 30
0.0
 11
23.18
 21
33.0
 31
0.0
  0
LINE
  5
44
330
1E
100
AcDbEntity
  8
0
100
AcDbLine
 10
23.0
 20
33.288
 30
0.0
 11
23.0
 21
33.71999999999999
 31
0.0
  0
LINE
  5
45
330
1E
100
AcDbEntity
  8
0
100
AcDbLine
 10
23.18
 20
33.43199999999999
 30
0.0
 11
23.18
 21
34.584
 31
0.0
  0
LINE
  5
46
330
1E
100
AcDbEntity
  8
0
100
AcDbLine
 10
23.18
 20
33.43199999999999
 30
0.0
 11
23.18
 21
33.0
 31
0.0
  0
LINE
  5
47
330
1E
100
AcDbEntity
  8
0
100
AcDbLine
 10
23.18
 20
33.0
 30
0.0
 11
23.18
 21
33.43199999999999
 31
0.0
  0
LINE
  5
48
330
1E
100
AcDbEntity
  8
0
100
AcDbLine
 10
23.18
 20
33.0
 30
0.0
 11
25.0
 21
33.0
 31
0.0
  0
LINE
  5
49
330
1E
100
AcDbEntity
  8
0
100
AcDbLine
 10
23.0
 20
33.71999999999999
 30
0.0
 11
23.0
 21
34.872
 31
0.0
  0
LINE
  5
4A
330
1E
100
AcDbEntity
  8
0
100
AcDbLine
 10
23.0
 20
33.71999999999999
 30
0.0
 11
23.0
 21
33.288
 31
0.0
  0
LINE
  5
4B
330
1E
100
AcDbEntity
  8
0
100
AcDbLine
 10
16.8163
 20
35.0
 30
0.0
 11
23.0
 21
35.0
 31
0.0
  0
LINE
  5
4C
330
1E
100
AcDbEntity
  8
0
100
AcDbLine
 10
23.0
 20
35.07009999999999
 30
0.0
 11
23.0
 21
35.3825
 31
0.0
  0
LINE
  5
4D
330
1E
100
AcDbEntity
  8
0
100
AcDbLine
 10
23.0
 20
35.0
 30
0.0
 11
23.0
 21
34.872
 31
0.0
  0
LINE
  5
4E
330
1E
100
AcDbEntity
  8
0
100
AcDbLine
 10
23.0
 20
35.0
 30
0.0
 11
23.0
 21
35.07009999999999
 31
0.0
  0
LINE
  5
4F
330
1E
100
AcDbEntity
  8
0
100
AcDbLine
 10
23.0
 20
34.872
 30
0.0
 11
23.0
 21
33.71999999999999
 31
0.0
  0
LINE
  5
50
330
1E
100
AcDbEntity
  8
0
100
AcDbLine
 10
23.0
 20
34.872
 30
0.0
 11
23.0
 21
35.0
 31
0.0
  0
LINE
  5
51
330
1E
100
AcDbEntity
  8
0
100
AcDbLine
 10
23.18
 20
34.584
 30
0.0
 11
23.18
 21
36.50399999999999
 31
0.0
  0
LINE
  5
52
330
1E
100
AcDbEntity
  8
0
100
AcDbLine
 10
23.18
 20
34.584
 30
0.0
 11
23.18
 21
33.43199999999999
 31
0.0
  0
LINE
  5
53
330
1E
100
AcDbEntity
  8
0
100
AcDbLine
 10
25.0
 20
34.584
 30
0.0
 11
25.0
 21
33.43199999999999
 31
0.0
  0
LINE
  5
54
330
1E
100
AcDbEntity
  8
0
100
AcDbLine
 10
25.0
 20
33.43199999999999
 30
0.0
 11
25.0
 21
33.0
 31
0.0
  0
LINE
  5
55
330
1E
100
AcDbEntity
  8
0
100
AcDbLine
 10
25.0
 20
33.184
 30
0.0
 11
25.0
 21
35.368
 31
0.0
  0
LINE
  5
56
330
1E
100
AcDbEntity
  8
0
100
AcDbLine
 10
25.0
 20
33.184
 30
0.0
 11
25.0
 21
31.84
 31
0.0
  0
LINE
  5
57
330
1E
100
AcDbEntity
  8
0
100
AcDbLine
 10
16.4082
 20
35.3825
 30
0.0
 11
16.4082
 21
35.2273
 31
0.0
  0
LINE
  5
59
330
1E
100
AcDbEntity
  8
0
100
AcDbLine
 10
23.0
 20
35.3825
 30
0.0
 11
23.0
 21
36.1194
 31
0.0
  0
LINE
  5
5A
330
1E
100
AcDbEntity
  8
0
100
AcDbLine
 10
16.4082
 20
35.2273
 30
0.0
 11
16.8163
 21
35.0
 31
0.0
  0
LINE
  5
5B
330
1E
100
AcDbEntity
  8
0
100
AcDbLine
 10
16.4082
 20
35.2273
 30
0.0
 11
16.4082
 21
35.3825
 31
0.0
  0
LINE
  5
5C
330
1E
100
AcDbEntity
  8
0
100
AcDbLine
 10
23.0
 20
36.1194
 30
0.0
 11
23.0
 21
37.32909999999999
 31
0.0
  0
LINE
  5
5D
330
1E
100
AcDbEntity
  8
0
100
AcDbLine
 10
16.1709
 20
36.1194
 30
0.0
 11
16.4082
 21
35.3825
 31
0.0
  0
LINE
  5
5E
330
1E
100
AcDbEntity
  8
0
100
AcDbLine
 10
16.12239999999999
 20
35.9091
 30
0.0
 11
16.4082
 21
35.2273
 31
0.0
  0
LINE
  5
61
330
1E
100
AcDbEntity
  8
0
100
AcDbLine
 10
23.18
 20
36.50399999999999
 30
0.0
 11
23.18
 21
39.048
 31
0.0
  0
LINE
  5
62
330
1E
100
AcDbEntity
  8
0
100
AcDbLine
 10
23.18
 20
36.50399999999999
 30
0.0
 11
23.18
 21
34.584
 31
0.0
  0
LINE
  5
63
330
1E
100
AcDbEntity
  8
0
100
AcDbLine
 10
16.0
 20
36.59089999999999
 30
0.0
 11
16.12239999999999
 21
35.9091
 31
0.0
  0
LINE
  5
64
330
1E
100
AcDbEntity
  8
0
100
AcDbLine
 10
16.0
 20
36.59089999999999
 30
0.0
 11
16.0
 21
36.9091
 31
0.0
  0
LINE
  5
65
330
1E
100
AcDbEntity
  8
0
100
AcDbLine
 10
16.0
 20
36.9091
 30
0.0
 11
16.0
 21
36.59089999999999
 31
0.0
  0
LINE
  5
66
330
1E
100
AcDbEntity
  8
0
100
AcDbLine
 10
16.0
 20
36.9091
 30
0.0
 11
16.0
 21
37.7273
 31
0.0
  0
LINE
  5
69
330
1E
100
AcDbEntity
  8
0
100
AcDbLine
 10
25.0
 20
36.50399999999999
 30
0.0
 11
25.0
 21
34.584
 31
0.0
  0
LINE
  5
6A
330
1E
100
AcDbEntity
  8
0
100
AcDbLine
 10
25.0
 20
35.368
 30
0.0
 11
25.0
 21
38.224
 31
0.0
  0
LINE
  5
6B
330
1E
100
AcDbEntity
  8
0
100
AcDbLine
 10
25.0
 20
35.368
 30
0.0
 11
25.0
 21
33.184
 31
0.0
  0
LINE
  5
6C
330
1E
100
AcDbEntity
  8
0
100
AcDbLine
 10
25.18
 20
35.088
 30
0.0
 11
25.18
 21
38.056
 31
0.0
  0
LINE
  5
6D
330
1E
100
AcDbEntity
  8
0
100
AcDbLine
 10
25.18
 20
35.088
 30
0.0
 11
25.18
 21
32.848
 31
0.0
  0
LINE
  5
6E
330
1E
100
AcDbEntity
  8
0
100
AcDbLine
 10
28.0
 20
35.088
 30
0.0
 11
28.0
 21
32.848
 31
0.0
  0
LINE
  5
6F
330
1E
100
AcDbEntity
  8
0
100
AcDbLine
 10
28.0
 20
32.848
 30
0.0
 11
28.0
 21
31.504
 31
0.0
  0
LINE
  5
70
330
1E
100
AcDbEntity
  8
0
100
AcDbLine
 10
28.0
 20
33.99199999999999
 30
0.0
 11
28.0
 21
37.256
 31
0.0
  0
LINE
  5
71
330
1E
100
AcDbEntity
  8
0
100
AcDbLine
 10
28.0
 20
33.99199999999999
 30
0.0
 11
28.0
 21
31.49599999999999
 31
0.0
  0
LINE
  5
72
330
1E
100
AcDbEntity
  8
0
100
AcDbLine
 10
28.3
 20
37.064
 30
0.0
 11
28.3
 21
40.904
 31
0.0
  0
LINE
  5
73
330
1E
100
AcDbEntity
  8
0
100
AcDbLine
 10
28.3
 20
37.064
 30
0.0
 11
28.3
 21
33.67199999999999
 31
0.0
  0
LINE
  5
74
330
1E
100
AcDbEntity
  8
0
100
AcDbLine
 10
28.3
 20
33.67199999999999
 30
0.0
 11
28.3
 21
37.064
 31
0.0
  0
LINE
  5
75
330
1E
100
AcDbEntity
  8
0
100
AcDbLine
 10
28.3
 20
33.67199999999999
 30
0.0
 11
28.3
 21
31.112
 31
0.0
  0
LINE
  5
76
330
1E
100
AcDbEntity
  8
0
100
AcDbLine
 10
16.0
 20
37.7273
 30
0.0
 11
16.0
 21
36.9091
 31
0.0
  0
LINE
  5
77
330
1E
100
AcDbEntity
  8
0
100
AcDbLine
 10
16.0
 20
37.7273
 30
0.0
 11
16.0
 21
39.0455
 31
0.0
  0
LINE
  5
78
330
1E
100
AcDbEntity
  8
0
100
AcDbLine
 10
23.0
 20
37.32909999999999
 30
0.0
 11
23.0
 21
38.5454
 31
0.0
  0
LINE
  5
79
330
1E
100
AcDbEntity
  8
0
100
AcDbLine
 10
16.08249999999999
 20
37.32909999999999
 30
0.0
 11
16.1484
 21
38.5454
 31
0.0
  0
LINE
  5
7A
330
1E
100
AcDbEntity
  8
0
100
AcDbLine
 10
16.08249999999999
 20
37.32909999999999
 30
0.0
 11
16.1709
 21
36.1194
 31
0.0
  0
LINE
  5
7B
330
1E
100
AcDbEntity
  8
0
100
AcDbLine
 10
16.0
 20
37.6833
 30
0.0
 11
16.0
 21
37.93439999999999
 31
0.0
  0
LINE
  5
7C
330
1E
100
AcDbEntity
  8
0
100
AcDbLine
 10
16.0
 20
37.93439999999999
 30
0.0
 11
16.0
 21
37.6833
 31
0.0
  0
LINE
  5
7D
330
1E
100
AcDbEntity
  8
0
100
AcDbLine
 10
16.0
 20
37.93439999999999
 30
0.0
 11
16.0
 21
38.6492
 31
0.0
  0
LINE
  5
7E
330
1E
100
AcDbEntity
  8
0
100
AcDbLine
 10
16.0
 20
37.93439999999999
 30
0.0
 11
16.0
 21
38.6685
 31
0.0
  0
LINE
  5
7F
330
1E
100
AcDbEntity
  8
0
100
AcDbLine
 10
25.18
 20
38.056
 30
0.0
 11
25.18
 21
41.416
 31
0.0
  0
LINE
  5
80
330
1E
100
AcDbEntity
  8
0
100
AcDbLine
 10
25.18
 20
38.056
 30
0.0
 11
25.18
 21
35.088
 31
0.0
  0
LINE
  5
81
330
1E
100
AcDbEntity
  8
0
100
AcDbLine
 10
23.0
 20
38.5454
 30
0.0
 11
23.0
 21
39.3973
 31
0.0
  0
LINE
  5
82
330
1E
100
AcDbEntity
  8
0
100
AcDbLine
 10
16.1484
 20
38.5454
 30
0.0
 11
16.4082
 21
39.3973
 31
0.0
  0
LINE
  5
83
330
1E
100
AcDbEntity
  8
0
100
AcDbLine
 10
16.0
 20
38.6685
 30
0.0
 11
16.0
 21
37.93439999999999
 31
0.0
  0
LINE
  5
84
330
1E
100
AcDbEntity
  8
0
100
AcDbLine
 10
16.0
 20
38.6685
 30
0.0
 11
16.0
 21
39.90489999999999
 31
0.0
  0
LINE
  5
85
330
1E
100
AcDbEntity
  8
0
100
AcDbLine
 10
16.0
 20
39.0455
 30
0.0
 11
16.0
 21
40.81819999999999
 31
0.0
  0
LINE
  5
86
330
1E
100
AcDbEntity
  8
0
100
AcDbLine
 10
16.0
 20
39.0455
 30
0.0
 11
16.0
 21
37.7273
 31
0.0
  0
LINE
  5
87
330
1E
100
AcDbEntity
  8
0
100
AcDbLine
 10
16.0
 20
38.6492
 30
0.0
 11
16.0
 21
39.8855
 31
0.0
  0
LINE
  5
88
330
1E
100
AcDbEntity
  8
0
100
AcDbLine
 10
16.0
 20
38.6492
 30
0.0
 11
16.0
 21
37.93439999999999
 31
0.0
  0
LINE
  5
89
330
1E
100
AcDbEntity
  8
0
100
AcDbLine
 10
23.18
 20
39.048
 30
0.0
 11
23.18
 21
41.928
 31
0.0
  0
LINE
  5
8A
330
1E
100
AcDbEntity
  8
0
100
AcDbLine
 10
23.18
 20
39.048
 30
0.0
 11
23.18
 21
36.50399999999999
 31
0.0
  0
LINE
  5
8B
330
1E
100
AcDbEntity
  8
0
100
AcDbLine
 10
10.0
 20
40.11999999999999
 30
0.0
 11
10.0
 21
40.3
 31
0.0
  0
LINE
  5
8C
330
1E
100
AcDbEntity
  8
0
100
AcDbLine
 10
10.0
 20
40.11999999999999
 30
0.0
 11
10.36
 21
40.0
 31
0.0
  0
LINE
  5
8D
330
1E
100
AcDbEntity
  8
0
100
AcDbLine
 10
10.36
 20
40.0
 30
0.0
 11
16.0
 21
40.0
 31
0.0
  0
LINE
  5
8E
330
1E
100
AcDbEntity
  8
0
100
AcDbLine
 10
10.0
 20
40.3
 30
0.0
 11
10.0
 21
40.78
 31
0.0
  0
LINE
  5
8F
330
1E
100
AcDbEntity
  8
0
100
AcDbLine
 10
10.0
 20
40.3
 30
0.0
 11
10.0
 21
40.11999999999999
 31
0.0
  0
LINE
  5
90
330
1E
100
AcDbEntity
  8
0
100
AcDbLine
 10
16.0
 20
40.17999999999999
 30
0.0
 11
16.0
 21
40.0
 31
0.0
  0
LINE
  5
91
330
1E
100
AcDbEntity
  8
0
100
AcDbLine
 10
16.0
 20
39.90489999999999
 30
0.0
 11
16.0
 21
38.6685
 31
0.0
  0
LINE
  5
92
330
1E
100
AcDbEntity
  8
0
100
AcDbLine
 10
16.0
 20
39.90489999999999
 30
0.0
 11
16.0
 21
41.5662
 31
0.0
  0
LINE
  5
93
330
1E
100
AcDbEntity
  8
0
100
AcDbLine
 10
16.0
 20
39.8855
 30
0.0
 11
16.0
 21
40.0
 31
0.0
  0
LINE
  5
94
330
1E
100
AcDbEntity
  8
0
100
AcDbLine
 10
16.0
 20
39.8855
 30
0.0
 11
16.0
 21
38.6492
 31
0.0
  0
LINE
  5
95
330
1E
100
AcDbEntity
  8
0
100
AcDbLine
 10
23.0
 20
39.3973
 30
0.0
 11
23.0
 21
39.7034
 31
0.0
  0
LINE
  5
96
330
1E
100
AcDbEntity
  8
0
100
AcDbLine
 10
23.0
 20
39.7034
 30
0.0
 11
23.0
 21
39.9874
 31
0.0
  0
LINE
  5
98
330
1E
100
AcDbEntity
  8
0
100
AcDbLine
 10
23.0
 20
39.9874
 30
0.0
 11
23.0
 21
40.58659999999999
 31
0.0
  0
LINE
  5
99
330
1E
100
AcDbEntity
  8
0
100
AcDbLine
 10
16.4082
 20
40.1364
 30
0.0
 11
16.4082
 21
40.58659999999999
 31
0.0
  0
LINE
  5
9A
330
1E
100
AcDbEntity
  8
0
100
AcDbLine
 10
16.4082
 20
40.1364
 30
0.0
 11
16.4082
 21
39.3973
 31
0.0
  0
LINE
  5
9C
330
1E
100
AcDbEntity
  8
0
100
AcDbLine
 10
16.4082
 20
39.3973
 30
0.0
 11
16.4082
 21
40.1364
 31
0.0
  0
LINE
  5
9D
330
1E
100
AcDbEntity
  8
0
100
AcDbLine
 10
16.0
 20
40.0
 30
0.0
 11
16.0
 21
39.8855
 31
0.0
  0
LINE
  5
9E
330
1E
100
AcDbEntity
  8
0
100
AcDbLine
 10
25.0
 20
39.048
 30
0.0
 11
25.0
 21
36.50399999999999
 31
0.0
  0
LINE
  5
9F
330
1E
100
AcDbEntity
  8
0
100
AcDbLine
 10
25.0
 20
38.224
 30
0.0
 11
25.0
 21
41.472
 31
0.0
  0
LINE
  5
A0
330
1E
100
AcDbEntity
  8
0
100
AcDbLine
 10
25.0
 20
38.224
 30
0.0
 11
25.0
 21
35.368
 31
0.0
  0
LINE
  5
A1
330
1E
100
AcDbEntity
  8
0
100
AcDbLine
 10
28.0
 20
38.056
 30
0.0
 11
28.0
 21
35.088
 31
0.0
  0
LINE
  5
A2
330
1E
100
AcDbEntity
  8
0
100
AcDbLine
 10
28.0
 20
37.256
 30
0.0
 11
28.0
 21
40.968
 31
0.0
  0
LINE
  5
A3
330
1E
100
AcDbEntity
  8
0
100
AcDbLine
 10
28.0
 20
37.256
 30
0.0
 11
28.0
 21
33.99199999999999
 31
0.0
  0
LINE
  5
A4
330
1E
100
AcDbEntity
  8
0
100
AcDbLine
 10
33.0
 20
37.064
 30
0.0
 11
33.0
 21
33.67199999999999
 31
0.0
  0
LINE
  5
A5
330
1E
100
AcDbEntity
  8
0
100
AcDbLine
 10
33.0
 20
33.67199999999999
 30
0.0
 11
33.0
 21
31.112
 31
0.0
  0
LINE
  5
A6
330
1E
100
AcDbEntity
  8
0
100
AcDbLine
 10
33.0
 20
32.616
 30
0.0
 11
33.0
 21
29.808
 31
0.0
  0
LINE
  5
A7
330
1E
100
AcDbEntity
  8
0
100
AcDbLine
 10
33.0
 20
32.616
 30
0.0
 11
33.0
 21
36.288
 31
0.0
  0
LINE
  5
A8
330
1E
100
AcDbEntity
  8
0
100
AcDbLine
 10
33.0
 20
36.288
 30
0.0
 11
33.0
 21
32.616
 31
0.0
  0
LINE
  5
A9
330
1E
100
AcDbEntity
  8
0
100
AcDbLine
 10
33.0
 20
36.288
 30
0.0
 11
33.0
 21
40.464
 31
0.0
  0
LINE
  5
AA
330
1E
100
AcDbEntity
  8
0
100
AcDbLine
 10
10.0
 20
40.78
 30
0.0
 11
10.0
 21
41.56
 31
0.0
  0
LINE
  5
AB
330
1E
100
AcDbEntity
  8
0
100
AcDbLine
 10
10.0
 20
40.78
 30
0.0
 11
10.0
 21
40.3
 31
0.0
  0
LINE
  5
AC
330
1E
100
AcDbEntity
  8
0
100
AcDbLine
 10
10.0
 20
40.78
 30
0.0
 11
10.0
 21
41.0
 31
0.0
  0
LINE
  5
AD
330
1E
100
AcDbEntity
  8
0
100
AcDbLine
 10
16.0
 20
40.65999999999999
 30
0.0
 11
16.0
 21
40.17999999999999
 31
0.0
  0
LINE
  5
AF
330
1E
100
AcDbEntity
  8
0
100
AcDbLine
 10
16.4082
 20
40.58659999999999
 30
0.0
 11
16.4082
 21
40.1364
 31
0.0
  0
LINE
  5
B0
330
1E
100
AcDbEntity
  8
0
100
AcDbLine
 10
23.0
 20
40.58659999999999
 30
0.0
 11
23.0
 21
42.70909999999999
 31
0.0
  0
LINE
  5
B3
330
1E
100
AcDbEntity
  8
0
100
AcDbLine
 10
16.0
 20
40.81819999999999
 30
0.0
 11
16.0
 21
39.0455
 31
0.0
  0
LINE
  5
B4
330
1E
100
AcDbEntity
  8
0
100
AcDbLine
 10
16.0
 20
40.81819999999999
 30
0.0
 11
16.0
 21
42.81819999999999
 31
0.0
  0
LINE
  5
B5
330
1E
100
AcDbEntity
  8
0
100
AcDbLine
 10
0.6
 20
41.0
 30
0.0
 11
10.0
 21
41.0
 31
0.0
  0
LINE
  5
B6
330
1E
100
AcDbEntity
  8
0
100
AcDbLine
 10
0.0
 20
41.096
 30
0.0
 11
0.6
 21
41.0
 31
0.0
  0
LINE
  5
B7
330
1E
100
AcDbEntity
  8
0
100
AcDbLine
 10
0.0
 20
41.24
 30
0.0
 11
0.0
 21
41.62399999999999
 31
0.0
  0
LINE
  5
B8
330
1E
100
AcDbEntity
  8
0
100
AcDbLine
 10
0.0
 20
41.096
 30
0.0
 11
0.0
 21
41.24
 31
0.0
  0
LINE
  5
B9
330
1E
100
AcDbEntity
  8
0
100
AcDbLine
 10
0.0
 20
41.096
 30
0.0
 11
0.6
 21
41.0
 31
0.0
  0
LINE
  5
BA
330
1E
100
AcDbEntity
  8
0
100
AcDbLine
 10
10.0
 20
41.14399999999999
 30
0.0
 11
10.0
 21
41.0
 31
0.0
  0
LINE
  5
BB
330
1E
100
AcDbEntity
  8
0
100
AcDbLine
 10
10.0
 20
41.0
 30
0.0
 11
10.0
 21
40.78
 31
0.0
  0
LINE
  5
BC
330
1E
100
AcDbEntity
  8
0
100
AcDbLine
 10
25.18
 20
41.416
 30
0.0
 11
25.18
 21
45.0
 31
0.0
  0
LINE
  5
BD
330
1E
100
AcDbEntity
  8
0
100
AcDbLine
 10
25.18
 20
41.416
 30
0.0
 11
25.18
 21
38.056
 31
0.0
  0
LINE
  5
BE
330
1E
100
AcDbEntity
  8
0
100
AcDbLine
 10
16.0
 20
41.45999999999999
 30
0.0
 11
16.0
 21
40.65999999999999
 31
0.0
  0
LINE
  5
BF
330
1E
100
AcDbEntity
  8
0
100
AcDbLine
 10
10.0
 20
41.528
 30
0.0
 11
10.0
 21
41.14399999999999
 31
0.0
  0
LINE
  5
C0
330
1E
100
AcDbEntity
  8
0
100
AcDbLine
 10
10.0
 20
41.56
 30
0.0
 11
10.0
 21
42.58
 31
0.0
  0
LINE
  5
C1
330
1E
100
AcDbEntity
  8
0
100
AcDbLine
 10
10.0
 20
41.56
 30
0.0
 11
10.0
 21
40.78
 31
0.0
  0
LINE
  5
C2
330
1E
100
AcDbEntity
  8
0
100
AcDbLine
 10
0.0
 20
41.62399999999999
 30
0.0
 11
0.0
 21
42.248
 31
0.0
  0
LINE
  5
C3
330
1E
100
AcDbEntity
  8
0
100
AcDbLine
 10
0.0
 20
41.62399999999999
 30
0.0
 11
0.0
 21
42.248
 31
0.0
  0
LINE
  5
C4
330
1E
100
AcDbEntity
  8
0
100
AcDbLine
 10
16.0
 20
41.5662
 30
0.0
 11
16.0
 21
39.90489999999999
 31
0.0
  0
LINE
  5
C5
330
1E
100
AcDbEntity
  8
0
100
AcDbLine
 10
16.0
 20
41.5662
 30
0.0
 11
16.0
 21
43.1888
 31
0.0
  0
LINE
  5
C6
330
1E
100
AcDbEntity
  8
0
100
AcDbLine
 10
23.18
 20
41.928
 30
0.0
 11
23.18
 21
45.0
 31
0.0
  0
LINE
  5
C7
330
1E
100
AcDbEntity
  8
0
100
AcDbLine
 10
23.18
 20
41.928
 30
0.0
 11
23.18
 21
39.048
 31
0.0
  0
LINE
  5
C8
330
1E
100
AcDbEntity
  8
0
100
AcDbLine
 10
0.0
 20
42.248
 30
0.0
 11
0.0000000000000001
 21
43.06399999999999
 31
0.0
  0
LINE
  5
C9
330
1E
100
AcDbEntity
  8
0
100
AcDbLine
 10
10.0
 20
42.168
 30
0.0
 11
10.0
 21
41.528
 31
0.0
  0
LINE
  5
CA
330
1E
100
AcDbEntity
  8
0
100
AcDbLine
 10
0.0000000000000001
 20
43.06399999999999
 30
0.0
 11
0.0000000000000002
 21
43.99199999999999
 31
0.0
  0
LINE
  5
CB
330
1E
100
AcDbEntity
  8
0
100
AcDbLine
 10
10.0
 20
43.016
 30
0.0
 11
10.0
 21
42.168
 31
0.0
  0
LINE
  5
CC
330
1E
100
AcDbEntity
  8
0
100
AcDbLine
 10
10.0
 20
42.58
 30
0.0
 11
10.0
 21
43.74
 31
0.0
  0
LINE
  5
CD
330
1E
100
AcDbEntity
  8
0
100
AcDbLine
 10
10.0
 20
42.58
 30
0.0
 11
10.0
 21
41.56
 31
0.0
  0
LINE
  5
CE
330
1E
100
AcDbEntity
  8
0
100
AcDbLine
 10
16.0
 20
42.52
 30
0.0
 11
16.0
 21
41.45999999999999
 31
0.0
  0
LINE
  5
CF
330
1E
100
AcDbEntity
  8
0
100
AcDbLine
 10
0.0000000000000002
 20
45.0
 30
0.0
 11
0.0000000000000003
 21
46.008
 31
0.0
  0
LINE
  5
D0
330
1E
100
AcDbEntity
  8
0
100
AcDbLine
 10
0.0000000000000002
 20
43.99199999999999
 30
0.0
 11
0.0000000000000002
 21
45.0
 31
0.0
  0
LINE
  5
D1
330
1E
100
AcDbEntity
  8
0
100
AcDbLine
 10
10.0
 20
43.976
 30
0.0
 11
10.0
 21
43.016
 31
0.0
  0
LINE
  5
D2
330
1E
100
AcDbEntity
  8
0
100
AcDbLine
 10
10.0
 20
45.0
 30
0.0
 11
10.0
 21
43.74
 31
0.0
  0
LINE
  5
D3
330
1E
100
AcDbEntity
  8
0
100
AcDbLine
 10
10.0
 20
45.0
 30
0.0
 11
10.0
 21
46.26
 31
0.0
  0
LINE
  5
D4
330
1E
100
AcDbEntity
  8
0
100
AcDbLine
 10
10.0
 20
45.0
 30
0.0
 11
10.0
 21
43.976
 31
0.0
  0
LINE
  5
D5
330
1E
100
AcDbEntity
  8
0
100
AcDbLine
 10
10.0
 20
43.74
 30
0.0
 11
10.0
 21
45.0
 31
0.0
  0
LINE
  5
D6
330
1E
100
AcDbEntity
  8
0
100
AcDbLine
 10
10.0
 20
43.74
 30
0.0
 11
10.0
 21
42.58
 31
0.0
  0
LINE
  5
D7
330
1E
100
AcDbEntity
  8
0
100
AcDbLine
 10
16.0
 20
43.71999999999999
 30
0.0
 11
16.0
 21
42.52
 31
0.0
  0
LINE
  5
D8
330
1E
100
AcDbEntity
  8
0
100
AcDbLine
 10
16.0
 20
43.1888
 30
0.0
 11
16.0
 21
41.5662
 31
0.0
  0
LINE
  5
D9
330
1E
100
AcDbEntity
  8
0
100
AcDbLine
 10
16.0
 20
43.1888
 30
0.0
 11
16.0
 21
44.9274
 31
0.0
  0
LINE
  5
DA
330
1E
100
AcDbEntity
  8
0
100
AcDbLine
 10
16.0
 20
42.81819999999999
 30
0.0
 11
16.0
 21
45.0
 31
0.0
  0
LINE
  5
DB
330
1E
100
AcDbEntity
  8
0
100
AcDbLine
 10
16.0
 20
42.81819999999999
 30
0.0
 11
16.0
 21
40.81819999999999
 31
0.0
  0
LINE
  5
DC
330
1E
100
AcDbEntity
  8
0
100
AcDbLine
 10
16.0
 20
45.0
 30
0.0
 11
16.0
 21
42.81819999999999
 31
0.0
  0
LINE
  5
DD
330
1E
100
AcDbEntity
  8
0
100
AcDbLine
 10
16.0
 20
45.0
 30
0.0
 11
16.0
 21
47.1818
 31
0.0
  0
LINE
  5
DE
330
1E
100
AcDbEntity
  8
0
100
AcDbLine
 10
16.0
 20
45.0
 30
0.0
 11
16.0
 21
43.71999999999999
 31
0.0
  0
LINE
  5
DF
330
1E
100
AcDbEntity
  8
0
100
AcDbLine
 10
16.0
 20
44.9274
 30
0.0
 11
16.0
 21
43.1888
 31
0.0
  0
LINE
  5
E0
330
1E
100
AcDbEntity
  8
0
100
AcDbLine
 10
16.0
 20
44.9274
 30
0.0
 11
16.0
 21
46.6081
 31
0.0
  0
LINE
  5
E1
330
1E
100
AcDbEntity
  8
0
100
AcDbLine
 10
0.0000000000000003
 20
46.008
 30
0.0
 11
0.0000000000000003
 21
46.936
 31
0.0
  0
LINE
  5
E2
330
1E
100
AcDbEntity
  8
0
100
AcDbLine
 10
10.0
 20
46.26
 30
0.0
 11
10.0
 21
47.41999999999999
 31
0.0
  0
LINE
  5
E3
330
1E
100
AcDbEntity
  8
0
100
AcDbLine
 10
16.0
 20
46.28
 30
0.0
 11
16.0
 21
45.0
 31
0.0
  0
LINE
  5
E4
330
1E
100
AcDbEntity
  8
0
100
AcDbLine
 10
0.0000000000000003
 20
46.936
 30
0.0
 11
0.0000000000000004
 21
47.75199999999999
 31
0.0
  0
LINE
  5
E5
330
1E
100
AcDbEntity
  8
0
100
AcDbLine
 10
10.0
 20
46.98399999999999
 30
0.0
 11
10.0
 21
46.26
 31
0.0
  0
LINE
  5
E6
330
1E
100
AcDbEntity
  8
0
100
AcDbLine
 10
0.0000000000000004
 20
47.75199999999999
 30
0.0
 11
0.0000000000000004
 21
48.37600000000001
 31
0.0
  0
LINE
  5
E7
330
1E
100
AcDbEntity
  8
0
100
AcDbLine
 10
10.0
 20
47.83199999999999
 30
0.0
 11
10.0
 21
46.98399999999999
 31
0.0
  0
LINE
  5
E8
330
1E
100
AcDbEntity
  8
0
100
AcDbLine
 10
10.0
 20
47.41999999999999
 30
0.0
 11
10.0
 21
48.44
 31
0.0
  0
LINE
  5
E9
330
1E
100
AcDbEntity
  8
0
100
AcDbLine
 10
10.0
 20
47.41999999999999
 30
0.0
 11
10.0
 21
46.26
 31
0.0
  0
LINE
  5
EA
330
1E
100
AcDbEntity
  8
0
100
AcDbLine
 10
16.0
 20
47.48
 30
0.0
 11
16.0
 21
46.28
 31
0.0
  0
LINE
  5
EB
330
1E
100
AcDbEntity
  8
0
100
AcDbLine
 10
16.0
 20
46.6081
 30
0.0
 11
16.0
 21
44.9274
 31
0.0
  0
LINE
  5
EC
330
1E
100
AcDbEntity
  8
0
100
AcDbLine
 10
16.0
 20
46.6081
 30
0.0
 11
16.0
 21
48.2307
 31
0.0
  0
LINE
  5
ED
330
1E
100
AcDbEntity
  8
0
100
AcDbLine
 10
16.09799999999999
 20
47.2909
 30
0.0
 11
16.4082
 21
49.4134
 31
0.0
  0
LINE
  5
EE
330
1E
100
AcDbEntity
  8
0
100
AcDbLine
 10
16.0
 20
47.1818
 30
0.0
 11
16.0
 21
49.1818
 31
0.0
  0
LINE
  5
EF
330
1E
100
AcDbEntity
  8
0
100
AcDbLine
 10
16.0
 20
47.1818
 30
0.0
 11
16.0
 21
45.0
 31
0.0
  0
LINE
  5
F0
330
1E
100
AcDbEntity
  8
0
100
AcDbLine
 10
16.0408
 20
45.0
 30
0.0
 11
16.09799999999999
 21
42.70909999999999
 31
0.0
  0
LINE
  5
F1
330
1E
100
AcDbEntity
  8
0
100
AcDbLine
 10
16.0408
 20
45.0
 30
0.0
 11
16.09799999999999
 21
47.2909
 31
0.0
  0
LINE
  5
F2
330
1E
100
AcDbEntity
  8
0
100
AcDbLine
 10
23.0
 20
47.2909
 30
0.0
 11
23.0
 21
49.4134
 31
0.0
  0
LINE
  5
F3
330
1E
100
AcDbEntity
  8
0
100
AcDbLine
 10
23.0
 20
45.0
 30
0.0
 11
23.0
 21
47.2909
 31
0.0
  0
LINE
  5
F4
330
1E
100
AcDbEntity
  8
0
100
AcDbLine
 10
23.0
 20
42.70909999999999
 30
0.0
 11
23.0
 21
45.0
 31
0.0
  0
LINE
  5
F5
330
1E
100
AcDbEntity
  8
0
100
AcDbLine
 10
16.09799999999999
 20
42.70909999999999
 30
0.0
 11
16.4082
 21
40.58659999999999
 31
0.0
  0
LINE
  5
F6
330
1E
100
AcDbEntity
  8
0
100
AcDbLine
 10
0.0000000000000004
 20
48.37600000000001
 30
0.0
 11
0.0000000000000004
 21
48.76
 31
0.0
  0
LINE
  5
F7
330
1E
100
AcDbEntity
  8
0
100
AcDbLine
 10
10.0
 20
48.472
 30
0.0
 11
10.0
 21
47.83199999999999
 31
0.0
  0
LINE
  5
F8
330
1E
100
AcDbEntity
  8
0
100
AcDbLine
 10
10.0
 20
48.44
 30
0.0
 11
10.0
 21
49.22
 31
0.0
  0
LINE
  5
F9
330
1E
100
AcDbEntity
  8
0
100
AcDbLine
 10
10.0
 20
48.44
 30
0.0
 11
10.0
 21
47.41999999999999
 31
0.0
  0
LINE
  5
FA
330
1E
100
AcDbEntity
  8
0
100
AcDbLine
 10
0.0000000000000005
 20
48.90399999999999
 30
0.0
 11
0.600000000000001
 21
49.0
 31
0.0
  0
LINE
  5
FB
330
1E
100
AcDbEntity
  8
0
100
AcDbLine
 10
0.0000000000000004
 20
48.76
 30
0.0
 11
0.0000000000000005
 21
48.90399999999999
 31
0.0
  0
LINE
  5
FC
330
1E
100
AcDbEntity
  8
0
100
AcDbLine
 10
0.6
 20
49.0
 30
0.0
 11
10.0
 21
49.0
 31
0.0
  0
LINE
  5
FD
330
1E
100
AcDbEntity
  8
0
100
AcDbLine
 10
0.0000000000000005
 20
48.90399999999999
 30
0.0
 11
0.600000000000001
 21
49.0
 31
0.0
  0
LINE
  5
FE
330
1E
100
AcDbEntity
  8
0
100
AcDbLine
 10
10.0
 20
48.856
 30
0.0
 11
10.0
 21
48.472
 31
0.0
  0
LINE
  5
FF
330
1E
100
AcDbEntity
  8
0
100
AcDbLine
 10
0.600000000000001
 20
49.0
 30
0.0
 11
10.0
 21
49.0
 31
0.0
  0
LINE
  5
100
330
1E
100
AcDbEntity
  8
0
100
AcDbLine
 10
10.0
 20
49.0
 30
0.0
 11
10.0
 21
49.22
 31
0.0
  0
LINE
  5
101
330
1E
100
AcDbEntity
  8
0
100
AcDbLine
 10
10.0
 20
49.0
 30
0.0
 11
10.0
 21
48.856
 31
0.0
  0
LINE
  5
102
330
1E
100
AcDbEntity
  8
0
100
AcDbLine
 10
10.0
 20
49.22
 30
0.0
 11
10.0
 21
49.7
 31
0.0
  0
LINE
  5
103
330
1E
100
AcDbEntity
  8
0
100
AcDbLine
 10
10.0
 20
49.22
 30
0.0
 11
10.0
 21
48.44
 31
0.0
  0
LINE
  5
104
330
1E
100
AcDbEntity
  8
0
100
AcDbLine
 10
10.0
 20
49.22
 30
0.0
 11
10.0
 21
49.0
 31
0.0
  0
LINE
  5
105
330
1E
100
AcDbEntity
  8
0
100
AcDbLine
 10
10.0
 20
49.7
 30
0.0
 11
10.0
 21
49.88
 31
0.0
  0
LINE
  5
106
330
1E
100
AcDbEntity
  8
0
100
AcDbLine
 10
10.0
 20
49.7
 30
0.0
 11
10.0
 21
49.22
 31
0.0
  0
LINE
  5
107
330
1E
100
AcDbEntity
  8
0
100
AcDbLine
 10
16.0
 20
48.54
 30
0.0
 11
16.0
 21
47.48
 31
0.0
  0
LINE
  5
108
330
1E
100
AcDbEntity
  8
0
100
AcDbLine
 10
16.0
 20
49.34000000000001
 30
0.0
 11
16.0
 21
48.54
 31
0.0
  0
LINE
  5
109
330
1E
100
AcDbEntity
  8
0
100
AcDbLine
 10
16.0
 20
49.82
 30
0.0
 11
16.0
 21
49.34000000000001
 31
0.0
  0
LINE
  5
10A
330
1E
100
AcDbEntity
  8
0
100
AcDbLine
 10
16.0
 20
49.1818
 30
0.0
 11
16.0
 21
50.9545
 31
0.0
  0
LINE
  5
10B
330
1E
100
AcDbEntity
  8
0
100
AcDbLine
 10
16.0
 20
49.1818
 30
0.0
 11
16.0
 21
47.1818
 31
0.0
  0
LINE
  5
10C
330
1E
100
AcDbEntity
  8
0
100
AcDbLine
 10
10.0
 20
49.88
 30
0.0
 11
10.36
 21
50.0
 31
0.0
  0
LINE
  5
10D
330
1E
100
AcDbEntity
  8
0
100
AcDbLine
 10
10.0
 20
49.88
 30
0.0
 11
10.0
 21
49.7
 31
0.0
  0
LINE
  5
10E
330
1E
100
AcDbEntity
  8
0
100
AcDbLine
 10
10.36
 20
50.0
 30
0.0
 11
16.0
 21
50.0
 31
0.0
  0
LINE
  5
10F
330
1E
100
AcDbEntity
  8
0
100
AcDbLine
 10
16.0
 20
49.8727
 30
0.0
 11
16.0
 21
48.2307
 31
0.0
  0
LINE
  5
110
330
1E
100
AcDbEntity
  8
0
100
AcDbLine
 10
16.0
 20
49.8727
 30
0.0
 11
16.0
 21
51.32159999999999
 31
0.0
  0
LINE
  5
111
330
1E
100
AcDbEntity
  8
0
100
AcDbLine
 10
23.0
 20
49.4134
 30
0.0
 11
23.0
 21
50.0127
 31
0.0
  0
LINE
  5
112
330
1E
100
AcDbEntity
  8
0
100
AcDbLine
 10
16.4082
 20
49.8637
 30
0.0
 11
16.4082
 21
50.6027
 31
0.0
  0
LINE
  5
113
330
1E
100
AcDbEntity
  8
0
100
AcDbLine
 10
16.4082
 20
49.8637
 30
0.0
 11
16.4082
 21
49.4134
 31
0.0
  0
LINE
  5
117
330
1E
100
AcDbEntity
  8
0
100
AcDbLine
 10
16.4082
 20
49.4134
 30
0.0
 11
16.4082
 21
49.8637
 31
0.0
  0
LINE
  5
118
330
1E
100
AcDbEntity
  8
0
100
AcDbLine
 10
16.0
 20
48.2307
 30
0.0
 11
16.0
 21
46.6081
 31
0.0
  0
LINE
  5
119
330
1E
100
AcDbEntity
  8
0
100
AcDbLine
 10
16.0
 20
48.2307
 30
0.0
 11
16.0
 21
49.8727
 31
0.0
  0
LINE
  5
11A
330
1E
100
AcDbEntity
  8
0
100
AcDbLine
 10
23.0
 20
50.0127
 30
0.0
 11
23.0
 21
50.2967
 31
0.0
  0
LINE
  5
11C
330
1E
100
AcDbEntity
  8
0
100
AcDbLine
 10
23.0
 20
50.6027
 30
0.0
 11
23.0
 21
51.4545
 31
0.0
  0
LINE
  5
11E
330
1E
100
AcDbEntity
  8
0
100
AcDbLine
 10
16.4082
 20
50.6027
 30
0.0
 11
16.4082
 21
49.8637
 31
0.0
  0
LINE
  5
11F
330
1E
100
AcDbEntity
  8
0
100
AcDbLine
 10
23.0
 20
50.2967
 30
0.0
 11
23.0
 21
50.6027
 31
0.0
  0
LINE
  5
120
330
1E
100
AcDbEntity
  8
0
100
AcDbLine
 10
16.0
 20
50.0
 30
0.0
 11
16.0
 21
51.2636
 31
0.0
  0
LINE
  5
121
330
1E
100
AcDbEntity
  8
0
100
AcDbLine
 10
16.0
 20
50.0
 30
0.0
 11
16.0
 21
49.82
 31
0.0
  0
LINE
  5
122
330
1E
100
AcDbEntity
  8
0
100
AcDbLine
 10
23.0
 20
50.80799999999999
 30
0.0
 11
23.0
 21
48.02399999999999
 31
0.0
  0
LINE
  5
123
330
1E
100
AcDbEntity
  8
0
100
AcDbLine
 10
23.0
 20
48.02399999999999
 30
0.0
 11
23.0
 21
50.80799999999999
 31
0.0
  0
LINE
  5
124
330
1E
100
AcDbEntity
  8
0
100
AcDbLine
 10
23.18
 20
48.07199999999999
 30
0.0
 11
23.18
 21
50.952
 31
0.0
  0
LINE
  5
125
330
1E
100
AcDbEntity
  8
0
100
AcDbLine
 10
23.18
 20
48.07199999999999
 30
0.0
 11
23.18
 21
45.0
 31
0.0
  0
LINE
  5
126
330
1E
100
AcDbEntity
  8
0
100
AcDbLine
 10
16.0
 20
50.9545
 30
0.0
 11
16.0
 21
52.2727
 31
0.0
  0
LINE
  5
128
330
1E
100
AcDbEntity
  8
0
100
AcDbLine
 10
16.0
 20
50.9545
 30
0.0
 11
16.0
 21
49.1818
 31
0.0
  0
LINE
  5
129
330
1E
100
AcDbEntity
  8
0
100
AcDbLine
 10
16.0
 20
51.32159999999999
 30
0.0
 11
16.0
 21
49.8727
 31
0.0
  0
LINE
  5
12A
330
1E
100
AcDbEntity
  8
0
100
AcDbLine
 10
16.0
 20
51.32159999999999
 30
0.0
 11
16.0
 21
52.0556
 31
0.0
  0
LINE
  5
12B
330
1E
100
AcDbEntity
  8
0
100
AcDbLine
 10
16.0
 20
52.2727
 30
0.0
 11
16.0
 21
53.0909
 31
0.0
  0
LINE
  5
12D
330
1E
100
AcDbEntity
  8
0
100
AcDbLine
 10
16.0
 20
52.2727
 30
0.0
 11
16.0
 21
50.9545
 31
0.0
  0
LINE
  5
12E
330
1E
100
AcDbEntity
  8
0
100
AcDbLine
 10
16.0
 20
52.0556
 30
0.0
 11
16.0
 21
51.32159999999999
 31
0.0
  0
LINE
  5
12F
330
1E
100
AcDbEntity
  8
0
100
AcDbLine
 10
16.0
 20
52.0556
 30
0.0
 11
16.0
 21
52.34539999999999
 31
0.0
  0
LINE
  5
130
330
1E
100
AcDbEntity
  8
0
100
AcDbLine
 10
16.0
 20
52.34539999999999
 30
0.0
 11
16.0
 21
51.9977
 31
0.0
  0
LINE
  5
131
330
1E
100
AcDbEntity
  8
0
100
AcDbLine
 10
16.0
 20
52.34539999999999
 30
0.0
 11
16.0
 21
52.0556
 31
0.0
  0
LINE
  5
132
330
1E
100
AcDbEntity
  8
0
100
AcDbLine
 10
16.0
 20
51.9977
 30
0.0
 11
16.0
 21
51.2636
 31
0.0
  0
LINE
  5
133
330
1E
100
AcDbEntity
  8
0
100
AcDbLine
 10
16.0
 20
51.9977
 30
0.0
 11
16.0
 21
52.34539999999999
 31
0.0
  0
LINE
  5
134
330
1E
100
AcDbEntity
  8
0
100
AcDbLine
 10
23.0
 20
51.4545
 30
0.0
 11
23.0
 21
52.6709
 31
0.0
  0
LINE
  5
135
330
1E
100
AcDbEntity
  8
0
100
AcDbLine
 10
23.0
 20
52.6709
 30
0.0
 11
23.0
 21
53.88049999999999
 31
0.0
  0
LINE
  5
136
330
1E
100
AcDbEntity
  8
0
100
AcDbLine
 10
16.08249999999999
 20
52.6709
 30
0.0
 11
16.1484
 21
51.4545
 31
0.0
  0
LINE
  5
137
330
1E
100
AcDbEntity
  8
0
100
AcDbLine
 10
16.08249999999999
 20
52.6709
 30
0.0
 11
16.1709
 21
53.88049999999999
 31
0.0
  0
LINE
  5
138
330
1E
100
AcDbEntity
  8
0
100
AcDbLine
 10
16.1484
 20
51.4545
 30
0.0
 11
16.4082
 21
50.6027
 31
0.0
  0
LINE
  5
139
330
1E
100
AcDbEntity
  8
0
100
AcDbLine
 10
16.0
 20
51.2636
 30
0.0
 11
16.0
 21
51.9977
 31
0.0
  0
LINE
  5
13A
330
1E
100
AcDbEntity
  8
0
100
AcDbLine
 10
16.0
 20
51.2636
 30
0.0
 11
16.0
 21
50.0
 31
0.0
  0
LINE
  5
13B
330
1E
100
AcDbEntity
  8
0
100
AcDbLine
 10
23.18
 20
50.952
 30
0.0
 11
23.18
 21
53.496
 31
0.0
  0
LINE
  5
13C
330
1E
100
AcDbEntity
  8
0
100
AcDbLine
 10
23.18
 20
50.952
 30
0.0
 11
23.18
 21
48.07199999999999
 31
0.0
  0
LINE
  5
13D
330
1E
100
AcDbEntity
  8
0
100
AcDbLine
 10
25.0
 20
48.07199999999999
 30
0.0
 11
25.0
 21
45.0
 31
0.0
  0
LINE
  5
13E
330
1E
100
AcDbEntity
  8
0
100
AcDbLine
 10
25.0
 20
50.952
 30
0.0
 11
25.0
 21
48.07199999999999
 31
0.0
  0
LINE
  5
13F
330
1E
100
AcDbEntity
  8
0
100
AcDbLine
 10
23.18
 20
45.0
 30
0.0
 11
23.18
 21
41.928
 31
0.0
  0
LINE
  5
140
330
1E
100
AcDbEntity
  8
0
100
AcDbLine
 10
23.18
 20
45.0
 30
0.0
 11
23.18
 21
48.07199999999999
 31
0.0
  0
LINE
  5
141
330
1E
100
AcDbEntity
  8
0
100
AcDbLine
 10
25.0
 20
41.928
 30
0.0
 11
25.0
 21
39.048
 31
0.0
  0
LINE
  5
142
330
1E
100
AcDbEntity
  8
0
100
AcDbLine
 10
25.18
 20
48.58399999999999
 30
0.0
 11
25.18
 21
51.94399999999999
 31
0.0
  0
LINE
  5
143
330
1E
100
AcDbEntity
  8
0
100
AcDbLine
 10
25.18
 20
48.58399999999999
 30
0.0
 11
25.18
 21
45.0
 31
0.0
  0
LINE
  5
144
330
1E
100
AcDbEntity
  8
0
100
AcDbLine
 10
25.18
 20
51.94399999999999
 30
0.0
 11
25.18
 21
54.912
 31
0.0
  0
LINE
  5
145
330
1E
100
AcDbEntity
  8
0
100
AcDbLine
 10
25.18
 20
51.94399999999999
 30
0.0
 11
25.18
 21
48.58399999999999
 31
0.0
  0
LINE
  5
146
330
1E
100
AcDbEntity
  8
0
100
AcDbLine
 10
25.0
 20
45.0
 30
0.0
 11
25.0
 21
41.472
 31
0.0
  0
LINE
  5
147
330
1E
100
AcDbEntity
  8
0
100
AcDbLine
 10
25.0
 20
45.0
 30
0.0
 11
25.0
 21
41.928
 31
0.0
  0
LINE
  5
148
330
1E
100
AcDbEntity
  8
0
100
AcDbLine
 10
25.0
 20
41.472
 30
0.0
 11
25.0
 21
45.0
 31
0.0
  0
LINE
  5
149
330
1E
100
AcDbEntity
  8
0
100
AcDbLine
 10
25.0
 20
41.472
 30
0.0
 11
25.0
 21
38.224
 31
0.0
  0
LINE
  5
14A
330
1E
100
AcDbEntity
  8
0
100
AcDbLine
 10
28.0
 20
48.58399999999999
 30
0.0
 11
28.0
 21
45.0
 31
0.0
  0
LINE
  5
14B
330
1E
100
AcDbEntity
  8
0
100
AcDbLine
 10
28.0
 20
51.94399999999999
 30
0.0
 11
28.0
 21
48.58399999999999
 31
0.0
  0
LINE
  5
14C
330
1E
100
AcDbEntity
  8
0
100
AcDbLine
 10
25.18
 20
45.0
 30
0.0
 11
25.18
 21
41.416
 31
0.0
  0
LINE
  5
14D
330
1E
100
AcDbEntity
  8
0
100
AcDbLine
 10
25.18
 20
45.0
 30
0.0
 11
25.18
 21
48.58399999999999
 31
0.0
  0
LINE
  5
14E
330
1E
100
AcDbEntity
  8
0
100
AcDbLine
 10
28.0
 20
41.416
 30
0.0
 11
28.0
 21
38.056
 31
0.0
  0
LINE
  5
14F
330
1E
100
AcDbEntity
  8
0
100
AcDbLine
 10
28.0
 20
49.032
 30
0.0
 11
28.0
 21
52.74399999999999
 31
0.0
  0
LINE
  5
150
330
1E
100
AcDbEntity
  8
0
100
AcDbLine
 10
28.0
 20
49.032
 30
0.0
 11
28.0
 21
45.0
 31
0.0
  0
LINE
  5
151
330
1E
100
AcDbEntity
  8
0
100
AcDbLine
 10
16.0
 20
53.0909
 30
0.0
 11
16.0
 21
53.4091
 31
0.0
  0
LINE
  5
154
330
1E
100
AcDbEntity
  8
0
100
AcDbLine
 10
16.0
 20
53.0909
 30
0.0
 11
16.0
 21
52.2727
 31
0.0
  0
LINE
  5
155
330
1E
100
AcDbEntity
  8
0
100
AcDbLine
 10
16.0
 20
53.4091
 30
0.0
 11
16.12239999999999
 21
54.09089999999999
 31
0.0
  0
LINE
  5
156
330
1E
100
AcDbEntity
  8
0
100
AcDbLine
 10
16.0
 20
53.4091
 30
0.0
 11
16.0
 21
53.0909
 31
0.0
  0
LINE
  5
157
330
1E
100
AcDbEntity
  8
0
100
AcDbLine
 10
25.0
 20
53.496
 30
0.0
 11
25.0
 21
50.952
 31
0.0
  0
LINE
  5
158
330
1E
100
AcDbEntity
  8
0
100
AcDbLine
 10
23.18
 20
53.496
 30
0.0
 11
23.18
 21
55.416
 31
0.0
  0
LINE
  5
159
330
1E
100
AcDbEntity
  8
0
100
AcDbLine
 10
23.18
 20
53.496
 30
0.0
 11
23.18
 21
50.952
 31
0.0
  0
LINE
  5
15A
330
1E
100
AcDbEntity
  8
0
100
AcDbLine
 10
28.0
 20
52.74399999999999
 30
0.0
 11
28.0
 21
56.008
 31
0.0
  0
LINE
  5
15B
330
1E
100
AcDbEntity
  8
0
100
AcDbLine
 10
28.0
 20
52.74399999999999
 30
0.0
 11
28.0
 21
49.032
 31
0.0
  0
LINE
  5
15C
330
1E
100
AcDbEntity
  8
0
100
AcDbLine
 10
28.3
 20
49.09600000000001
 30
0.0
 11
28.3
 21
52.93600000000001
 31
0.0
  0
LINE
  5
15D
330
1E
100
AcDbEntity
  8
0
100
AcDbLine
 10
28.3
 20
49.09600000000001
 30
0.0
 11
28.3
 21
45.0
 31
0.0
  0
LINE
  5
15E
330
1E
100
AcDbEntity
  8
0
100
AcDbLine
 10
28.3
 20
52.93600000000001
 30
0.0
 11
28.3
 21
56.328
 31
0.0
  0
LINE
  5
15F
330
1E
100
AcDbEntity
  8
0
100
AcDbLine
 10
28.3
 20
52.93600000000001
 30
0.0
 11
28.3
 21
49.09600000000001
 31
0.0
  0
LINE
  5
160
330
1E
100
AcDbEntity
  8
0
100
AcDbLine
 10
28.0
 20
45.0
 30
0.0
 11
28.0
 21
40.968
 31
0.0
  0
LINE
  5
161
330
1E
100
AcDbEntity
  8
0
100
AcDbLine
 10
28.0
 20
45.0
 30
0.0
 11
28.0
 21
49.032
 31
0.0
  0
LINE
  5
162
330
1E
100
AcDbEntity
  8
0
100
AcDbLine
 10
28.0
 20
45.0
 30
0.0
 11
28.0
 21
41.416
 31
0.0
  0
LINE
  5
163
330
1E
100
AcDbEntity
  8
0
100
AcDbLine
 10
28.0
 20
40.968
 30
0.0
 11
28.0
 21
45.0
 31
0.0
  0
LINE
  5
164
330
1E
100
AcDbEntity
  8
0
100
AcDbLine
 10
28.0
 20
40.968
 30
0.0
 11
28.0
 21
37.256
 31
0.0
  0
LINE
  5
165
330
1E
100
AcDbEntity
  8
0
100
AcDbLine
 10
33.0
 20
49.09600000000001
 30
0.0
 11
33.0
 21
45.0
 31
0.0
  0
LINE
  5
166
330
1E
100
AcDbEntity
  8
0
100
AcDbLine
 10
33.0
 20
52.93600000000001
 30
0.0
 11
33.0
 21
49.09600000000001
 31
0.0
  0
LINE
  5
167
330
1E
100
AcDbEntity
  8
0
100
AcDbLine
 10
28.3
 20
45.0
 30
0.0
 11
28.3
 21
40.904
 31
0.0
  0
LINE
  5
168
330
1E
100
AcDbEntity
  8
0
100
AcDbLine
 10
28.3
 20
45.0
 30
0.0
 11
28.3
 21
49.09600000000001
 31
0.0
  0
LINE
  5
169
330
1E
100
AcDbEntity
  8
0
100
AcDbLine
 10
28.3
 20
40.904
 30
0.0
 11
28.3
 21
45.0
 31
0.0
  0
LINE
  5
16A
330
1E
100
AcDbEntity
  8
0
100
AcDbLine
 10
28.3
 20
40.904
 30
0.0
 11
28.3
 21
37.064
 31
0.0
  0
LINE
  5
16B
330
1E
100
AcDbEntity
  8
0
100
AcDbLine
 10
33.0
 20
40.904
 30
0.0
 11
33.0
 21
37.064
 31
0.0
  0
LINE
  5
16C
330
1E
100
AcDbEntity
  8
0
100
AcDbLine
 10
16.1709
 20
53.88049999999999
 30
0.0
 11
16.4082
 21
54.6175
 31
0.0
  0
LINE
  5
16D
330
1E
100
AcDbEntity
  8
0
100
AcDbLine
 10
23.0
 20
53.88049999999999
 30
0.0
 11
23.0
 21
54.6175
 31
0.0
  0
LINE
  5
16F
330
1E
100
AcDbEntity
  8
0
100
AcDbLine
 10
16.4082
 20
54.6175
 30
0.0
 11
16.4082
 21
54.7727
 31
0.0
  0
LINE
  5
170
330
1E
100
AcDbEntity
  8
0
100
AcDbLine
 10
23.0
 20
54.6175
 30
0.0
 11
23.0
 21
54.9299
 31
0.0
  0
LINE
  5
171
330
1E
100
AcDbEntity
  8
0
100
AcDbLine
 10
16.4082
 20
54.7727
 30
0.0
 11
16.8163
 21
55.0
 31
0.0
  0
LINE
  5
172
330
1E
100
AcDbEntity
  8
0
100
AcDbLine
 10
16.4082
 20
54.7727
 30
0.0
 11
16.4082
 21
54.6175
 31
0.0
  0
LINE
  5
173
330
1E
100
AcDbEntity
  8
0
100
AcDbLine
 10
16.12239999999999
 20
54.09089999999999
 30
0.0
 11
16.4082
 21
54.7727
 31
0.0
  0
LINE
  5
175
330
1E
100
AcDbEntity
  8
0
100
AcDbLine
 10
28.0
 20
54.912
 30
0.0
 11
28.0
 21
51.94399999999999
 31
0.0
  0
LINE
  5
176
330
1E
100
AcDbEntity
  8
0
100
AcDbLine
 10
23.0
 20
54.9299
 30
0.0
 11
23.0
 21
55.0
 31
0.0
  0
LINE
  5
177
330
1E
100
AcDbEntity
  8
0
100
AcDbLine
 10
16.8163
 20
55.0
 30
0.0
 11
23.0
 21
55.0
 31
0.0
  0
LINE
  5
178
330
1E
100
AcDbEntity
  8
0
100
AcDbLine
 10
23.0
 20
55.0
 30
0.0
 11
23.0
 21
55.128
 31
0.0
  0
LINE
  5
179
330
1E
100
AcDbEntity
  8
0
100
AcDbLine
 10
23.0
 20
56.71199999999999
 30
0.0
 11
23.0
 21
55.128
 31
0.0
  0
LINE
  5
17A
330
1E
100
AcDbEntity
  8
0
100
AcDbLine
 10
23.0
 20
55.128
 30
0.0
 11
23.0
 21
56.71199999999999
 31
0.0
  0
LINE
  5
17B
330
1E
100
AcDbEntity
  8
0
100
AcDbLine
 10
23.0
 20
55.128
 30
0.0
 11
23.0
 21
55.0
 31
0.0
  0
LINE
  5
17C
330
1E
100
AcDbEntity
  8
0
100
AcDbLine
 10
25.0
 20
55.416
 30
0.0
 11
25.0
 21
53.496
 31
0.0
  0
LINE
  5
17D
330
1E
100
AcDbEntity
  8
0
100
AcDbLine
 10
23.18
 20
55.416
 30
0.0
 11
23.18
 21
56.568
 31
0.0
  0
LINE
  5
17E
330
1E
100
AcDbEntity
  8
0
100
AcDbLine
 10
23.18
 20
55.416
 30
0.0
 11
23.18
 21
53.496
 31
0.0
  0
LINE
  5
17F
330
1E
100
AcDbEntity
  8
0
100
AcDbLine
 10
25.18
 20
54.912
 30
0.0
 11
25.18
 21
57.152
 31
0.0
  0
LINE
  5
180
330
1E
100
AcDbEntity
  8
0
100
AcDbLine
 10
25.18
 20
54.912
 30
0.0
 11
25.18
 21
51.94399999999999
 31
0.0
  0
LINE
  5
181
330
1E
100
AcDbEntity
  8
0
100
AcDbLine
 10
28.0
 20
56.008
 30
0.0
 11
28.0
 21
58.504
 31
0.0
  0
LINE
  5
182
330
1E
100
AcDbEntity
  8
0
100
AcDbLine
 10
28.0
 20
56.008
 30
0.0
 11
28.0
 21
52.74399999999999
 31
0.0
  0
LINE
  5
183
330
1E
100
AcDbEntity
  8
0
100
AcDbLine
 10
25.0
 20
56.568
 30
0.0
 11
25.0
 21
55.416
 31
0.0
  0
LINE
  5
184
330
1E
100
AcDbEntity
  8
0
100
AcDbLine
 10
23.0
 20
56.71199999999999
 30
0.0
 11
23.18
 21
57.0
 31
0.0
  0
LINE
  5
185
330
1E
100
AcDbEntity
  8
0
100
AcDbLine
 10
23.18
 20
57.0
 30
0.0
 11
25.0
 21
57.0
 31
0.0
  0
LINE
  5
186
330
1E
100
AcDbEntity
  8
0
100
AcDbLine
 10
23.18
 20
57.0
 30
0.0
 11
23.18
 21
56.568
 31
0.0
  0
LINE
  5
187
330
1E
100
AcDbEntity
  8
0
100
AcDbLine
 10
25.0
 20
57.0
 30
0.0
 11
25.0
 21
56.568
 31
0.0
  0
LINE
  5
188
330
1E
100
AcDbEntity
  8
0
100
AcDbLine
 10
23.18
 20
56.568
 30
0.0
 11
23.18
 21
57.0
 31
0.0
  0
LINE
  5
189
330
1E
100
AcDbEntity
  8
0
100
AcDbLine
 10
23.18
 20
56.568
 30
0.0
 11
23.18
 21
55.416
 31
0.0
  0
LINE
  5
18A
330
1E
100
AcDbEntity
  8
0
100
AcDbLine
 10
25.0
 20
56.816
 30
0.0
 11
25.0
 21
58.15999999999999
 31
0.0
  0
LINE
  5
18B
330
1E
100
AcDbEntity
  8
0
100
AcDbLine
 10
25.0
 20
58.15999999999999
 30
0.0
 11
25.0
 21
56.816
 31
0.0
  0
LINE
  5
18C
330
1E
100
AcDbEntity
  8
0
100
AcDbLine
 10
25.0
 20
58.15999999999999
 30
0.0
 11
25.0
 21
58.66399999999999
 31
0.0
  0
LINE
  5
18D
330
1E
100
AcDbEntity
  8
0
100
AcDbLine
 10
25.18
 20
57.152
 30
0.0
 11
25.18
 21
58.496
 31
0.0
  0
LINE
  5
18E
330
1E
100
AcDbEntity
  8
0
100
AcDbLine
 10
25.18
 20
57.152
 30
0.0
 11
25.18
 21
54.912
 31
0.0
  0
LINE
  5
18F
330
1E
100
AcDbEntity
  8
0
100
AcDbLine
 10
28.0
 20
57.152
 30
0.0
 11
28.0
 21
54.912
 31
0.0
  0
LINE
  5
190
330
1E
100
AcDbEntity
  8
0
100
AcDbLine
 10
28.0
 20
58.496
 30
0.0
 11
28.0
 21
57.152
 31
0.0
  0
LINE
  5
191
330
1E
100
AcDbEntity
  8
0
100
AcDbLine
 10
25.18
 20
58.496
 30
0.0
 11
25.18
 21
59.0
 31
0.0
  0
LINE
  5
192
330
1E
100
AcDbEntity
  8
0
100
AcDbLine
 10
25.18
 20
58.496
 30
0.0
 11
25.18
 21
57.152
 31
0.0
  0
LINE
  5
193
330
1E
100
AcDbEntity
  8
0
100
AcDbLine
 10
25.0
 20
58.66399999999999
 30
0.0
 11
25.18
 21
59.0
 31
0.0
  0
LINE
  5
194
330
1E
100
AcDbEntity
  8
0
100
AcDbLine
 10
25.0
 20
58.66399999999999
 30
0.0
 11
25.0
 21
58.15999999999999
 31
0.0
  0
LINE
  5
195
330
1E
100
AcDbEntity
  8
0
100
AcDbLine
 10
25.18
 20
59.0
 30
0.0
 11
28.0
 21
59.0
 31
0.0
  0
LINE
  5
196
330
1E
100
AcDbEntity
  8
0
100
AcDbLine
 10
25.18
 20
59.0
 30
0.0
 11
25.18
 21
58.496
 31
0.0
  0
LINE
  5
197
330
1E
100
AcDbEntity
  8
0
100
AcDbLine
 10
28.0
 20
59.0
 30
0.0
 11
28.0
 21
60.04
 31
0.0
  0
LINE
  5
198
330
1E
100
AcDbEntity
  8
0
100
AcDbLine
 10
28.0
 20
59.0
 30
0.0
 11
28.0
 21
58.496
 31
0.0
  0
LINE
  5
199
330
1E
100
AcDbEntity
  8
0
100
AcDbLine
 10
28.0
 20
58.504
 30
0.0
 11
28.0
 21
60.04
 31
0.0
  0
LINE
  5
19A
330
1E
100
AcDbEntity
  8
0
100
AcDbLine
 10
28.0
 20
58.504
 30
0.0
 11
28.0
 21
56.008
 31
0.0
  0
LINE
  5
19B
330
1E
100
AcDbEntity
  8
0
100
AcDbLine
 10
28.0
 20
60.04
 30
0.0
 11
28.0
 21
60.61600000000001
 31
0.0
  0
LINE
  5
19C
330
1E
100
AcDbEntity
  8
0
100
AcDbLine
 10
28.0
 20
60.04
 30
0.0
 11
28.0
 21
58.504
 31
0.0
  0
LINE
  5
19D
330
1E
100
AcDbEntity
  8
0
100
AcDbLine
 10
28.0
 20
60.04
 30
0.0
 11
28.0
 21
59.0
 31
0.0
  0
LINE
  5
19E
330
1E
100
AcDbEntity
  8
0
100
AcDbLine
 10
28.3
 20
56.328
 30
0.0
 11
28.3
 21
58.888
 31
0.0
  0
LINE
  5
19F
330
1E
100
AcDbEntity
  8
0
100
AcDbLine
 10
28.3
 20
56.328
 30
0.0
 11
28.3
 21
52.93600000000001
 31
0.0
  0
LINE
  5
1A0
330
1E
100
AcDbEntity
  8
0
100
AcDbLine
 10
33.0
 20
56.328
 30
0.0
 11
33.0
 21
52.93600000000001
 31
0.0
  0
LINE
  5
1A1
330
1E
100
AcDbEntity
  8
0
100
AcDbLine
 10
33.0
 20
58.888
 30
0.0
 11
33.0
 21
56.328
 31
0.0
  0
LINE
  5
1A2
330
1E
100
AcDbEntity
  8
0
100
AcDbLine
 10
28.3
 20
58.888
 30
0.0
 11
28.3
 21
60.424
 31
0.0
  0
LINE
  5
1A3
330
1E
100
AcDbEntity
  8
0
100
AcDbLine
 10
28.0
 20
60.61600000000001
 30
0.0
 11
28.3
 21
61.0
 31
0.0
  0
LINE
  5
1A4
330
1E
100
AcDbEntity
  8
0
100
AcDbLine
 10
28.0
 20
60.61600000000001
 30
0.0
 11
28.0
 21
60.04
 31
0.0
  0
LINE
  5
1A5
330
1E
100
AcDbEntity
  8
0
100
AcDbLine
 10
28.3
 20
61.0
 30
0.0
 11
33.0
 21
61.0
 31
0.0
  0
LINE
  5
1A6
330
1E
100
AcDbEntity
  8
0
100
AcDbLine
 10
28.3
 20
61.0
 30
0.0
 11
28.3
 21
60.424
 31
0.0
  0
LINE
  5
1A7
330
1E
100
AcDbEntity
  8
0
100
AcDbLine
 10
33.0
 20
60.424
 30
0.0
 11
33.0
 21
58.888
 31
0.0
  0
LINE
  5
1A8
330
1E
100
AcDbEntity
  8
0
100
AcDbLine
 10
28.3
 20
60.424
 30
0.0
 11
28.3
 21
61.0
 31
0.0
  0
LINE
  5
1A9
330
1E
100
AcDbEntity
  8
0
100
AcDbLine
 10
28.3
 20
60.424
 30
0.0
 11
28.3
 21
58.888
 31
0.0
  0
LINE
  5
1AA
330
1E
100
AcDbEntity
  8
0
100
AcDbLine
 10
33.0
 20
60.192
 30
0.0
 11
33.0
 21
57.38399999999999
 31
0.0
  0
LINE
  5
1AB
330
1E
100
AcDbEntity
  8
0
100
AcDbLine
 10
33.0
 20
60.192
 30
0.0
 11
33.0
 21
61.92
 31
0.0
  0
LINE
  5
1AC
330
1E
100
AcDbEntity
  8
0
100
AcDbLine
 10
33.0
 20
57.38399999999999
 30
0.0
 11
33.0
 21
53.71199999999999
 31
0.0
  0
LINE
  5
1AD
330
1E
100
AcDbEntity
  8
0
100
AcDbLine
 10
33.0
 20
57.38399999999999
 30
0.0
 11
33.0
 21
60.192
 31
0.0
  0
LINE
  5
1AE
330
1E
100
AcDbEntity
  8
0
100
AcDbLine
 10
33.0
 20
53.71199999999999
 30
0.0
 11
33.0
 21
49.536
 31
0.0
  0
LINE
  5
1AF
330
1E
100
AcDbEntity
  8
0
100
AcDbLine
 10
33.0
 20
53.71199999999999
 30
0.0
 11
33.0
 21
57.38399999999999
 31
0.0
  0
LINE
  5
1B0
330
1E
100
AcDbEntity
  8
0
100
AcDbLine
 10
33.0
 20
49.536
 30
0.0
 11
33.0
 21
45.0
 31
0.0
  0
LINE
  5
1B1
330
1E
100
AcDbEntity
  8
0
100
AcDbLine
 10
33.0
 20
49.536
 30
0.0
 11
33.0
 21
53.71199999999999
 31
0.0
  0
LINE
  5
1B2
330
1E
100
AcDbEntity
  8
0
100
AcDbLine
 10
33.0
 20
40.464
 30
0.0
 11
33.0
 21
36.288
 31
0.0
  0
LINE
  5
1B3
330
1E
100
AcDbEntity
  8
0
100
AcDbLine
 10
33.0
 20
40.464
 30
0.0
 11
33.0
 21
45.0
 31
0.0
  0
LINE
  5
1B4
330
1E
100
AcDbEntity
  8
0
100
AcDbLine
 10
33.0
 20
45.0
 30
0.0
 11
33.0
 21
40.464
 31
0.0
  0
LINE
  5
1B5
330
1E
100
AcDbEntity
  8
0
100
AcDbLine
 10
33.0
 20
45.0
 30
0.0
 11
33.0
 21
49.536
 31
0.0
  0
LINE
  5
1B6
330
1E
100
AcDbEntity
  8
0
100
AcDbLine
 10
33.0
 20
45.0
 30
0.0
 11
33.0
 21
40.904
 31
0.0
  0
LINE
  5
1B7
330
1E
100
AcDbEntity
  8
0
100
AcDbLine
 10
33.0
 20
61.92
 30
0.0
 11
33.0
 21
62.56800000000001
 31
0.0
  0
LINE
  5
1B8
330
1E
100
AcDbEntity
  8
0
100
AcDbLine
 10
33.0
 20
61.92
 30
0.0
 11
33.0
 21
61.0
 31
0.0
  0
LINE
  5
1B9
330
1E
100
AcDbEntity
  8
0
100
AcDbLine
 10
33.0
 20
61.92
 30
0.0
 11
33.0
 21
60.192
 31
0.0
  0
LINE
  5
1BA
330
1E
100
AcDbEntity
  8
0
100
AcDbLine
 10
33.0
 20
62.56800000000001
 30
0.0
 11
33.6
 21
63.0
 31
0.0
  0
LINE
  5
1BB
330
1E
100
AcDbEntity
  8
0
100
AcDbLine
 10
33.0
 20
62.56800000000001
 30
0.0
 11
33.0
 21
61.92
 31
0.0
  0
LINE
  5
1BC
330
1E
100
AcDbEntity
  8
0
100
AcDbLine
 10
33.0
 20
61.0
 30
0.0
 11
33.0
 21
61.92
 31
0.0
  0
LINE
  5
1BD
330
1E
100
AcDbEntity
  8
0
100
AcDbLine
 10
33.0
 20
61.0
 30
0.0
 11
33.0
 21
60.424
 31
0.0
  0
LINE
  5
1BE
330
1E
100
AcDbEntity
  8
0
100
AcDbLine
 10
33.6
 20
29.37599999999999
 30
0.0
 11
33.6
 21
27.648
 31
0.0
  0
LINE
  5
1BF
330
1E
100
AcDbEntity
  8
0
100
AcDbLine
 10
33.6
 20
29.37599999999999
 30
0.0
 11
33.6
 21
32.256
 31
0.0
  0
LINE
  5
1C0
330
1E
100
AcDbEntity
  8
0
100
AcDbLine
 10
33.6
 20
32.256
 30
0.0
 11
33.6
 21
29.37599999999999
 31
0.0
  0
LINE
  5
1C1
330
1E
100
AcDbEntity
  8
0
100
AcDbLine
 10
33.6
 20
32.256
 30
0.0
 11
33.6
 21
36.07199999999999
 31
0.0
  0
LINE
  5
1C2
330
1E
100
AcDbEntity
  8
0
100
AcDbLine
 10
33.6
 20
36.07199999999999
 30
0.0
 11
33.6
 21
32.256
 31
0.0
  0
LINE
  5
1C3
330
1E
100
AcDbEntity
  8
0
100
AcDbLine
 10
33.6
 20
36.07199999999999
 30
0.0
 11
33.6
 21
40.392
 31
0.0
  0
LINE
  5
1C4
330
1E
100
AcDbEntity
  8
0
100
AcDbLine
 10
33.6
 20
40.392
 30
0.0
 11
33.6
 21
36.07199999999999
 31
0.0
  0
LINE
  5
1C5
330
1E
100
AcDbEntity
  8
0
100
AcDbLine
 10
33.6
 20
40.392
 30
0.0
 11
33.6
 21
45.0
 31
0.0
  0
LINE
  5
1C6
330
1E
100
AcDbEntity
  8
0
100
AcDbLine
 10
33.6
 20
53.92800000000001
 30
0.0
 11
33.6
 21
49.608
 31
0.0
  0
LINE
  5
1C7
330
1E
100
AcDbEntity
  8
0
100
AcDbLine
 10
33.6
 20
53.92800000000001
 30
0.0
 11
33.6
 21
57.74399999999999
 31
0.0
  0
LINE
  5
1C8
330
1E
100
AcDbEntity
  8
0
100
AcDbLine
 10
33.6
 20
49.608
 30
0.0
 11
33.6
 21
45.0
 31
0.0
  0
LINE
  5
1C9
330
1E
100
AcDbEntity
  8
0
100
AcDbLine
 10
33.6
 20
49.608
 30
0.0
 11
33.6
 21
53.92800000000001
 31
0.0
  0
LINE
  5
1CA
330
1E
100
AcDbEntity
  8
0
100
AcDbLine
 10
33.6
 20
45.0
 30
0.0
 11
33.6
 21
40.392
 31
0.0
  0
LINE
  5
1CB
330
1E
100
AcDbEntity
  8
0
100
AcDbLine
 10
33.6
 20
45.0
 30
0.0
 11
33.6
 21
49.608
 31
0.0
  0
LINE
  5
1CC
330
1E
100
AcDbEntity
  8
0
100
AcDbLine
 10
33.0
 20
29.0
 30
0.0
 11
33.0
 21
28.07999999999999
 31
0.0
  0
LINE
  5
1CD
330
1E
100
AcDbEntity
  8
0
100
AcDbLine
 10
33.0
 20
28.07999999999999
 30
0.0
 11
33.0
 21
29.0
 31
0.0
  0
LINE
  5
1CE
330
1E
100
AcDbEntity
  8
0
100
AcDbLine
 10
33.0
 20
28.07999999999999
 30
0.0
 11
33.0
 21
27.43199999999999
 31
0.0
  0
LINE
  5
1CF
330
1E
100
AcDbEntity
  8
0
100
AcDbLine
 10
33.0
 20
28.07999999999999
 30
0.0
 11
33.0
 21
29.808
 31
0.0
  0
LINE
  5
1D0
330
1E
100
AcDbEntity
  8
0
100
AcDbLine
 10
33.6
 20
57.74399999999999
 30
0.0
 11
33.6
 21
60.624
 31
0.0
  0
LINE
  5
1D1
330
1E
100
AcDbEntity
  8
0
100
AcDbLine
 10
33.6
 20
62.35199999999999
 30
0.0
 11
33.6
 21
60.624
 31
0.0
  0
LINE
  5
1D2
330
1E
100
AcDbEntity
  8
0
100
AcDbLine
 10
33.6
 20
62.35199999999999
 30
0.0
 11
33.6
 21
63.0
 31
0.0
  0
LINE
  5
1D8
330
1E
100
AcDbEntity
  8
0
100
AcDbLine
 10
45.68419999999999
 20
-0.0000000000000045
 30
0.0
 11
48.2789
 21
-0.0000000000000047
 31
0.0
  0
LINE
  5
1D9
330
1E
100
AcDbEntity
  8
0
100
AcDbLine
 10
44.0737
 20
-0.0000000000000044
 30
0.0
 11
45.68419999999999
 21
-0.0000000000000045
 31
0.0
  0
LINE
  5
1DC
330
1E
100
AcDbEntity
  8
0
100
AcDbLine
 10
68.2315
 20
-0.0000000000000059
 30
0.0
 11
71.721
 21
-0.0000000000000061
 31
0.0
  0
LINE
  5
1DE
330
1E
100
AcDbEntity
  8
0
100
AcDbLine
 10
71.721
 20
-0.0000000000000061
 30
0.0
 11
74.3158
 21
-0.0000000000000063
 31
0.0
  0
LINE
  5
1DF
330
1E
100
AcDbEntity
  8
0
100
AcDbLine
 10
71.721
 20
-0.0000000000000061
 30
0.0
 11
71.8201
 21
-0.0000000000000061
 31
0.0
  0
LINE
  5
1E1
330
1E
100
AcDbEntity
  8
0
100
AcDbLine
 10
75.92629999999999
 20
-0.0000000000000064
 30
0.0
 11
76.5527
 21
-0.0000000000000064
 31
0.0
  0
LINE
  5
1E3
330
1E
100
AcDbEntity
  8
0
100
AcDbLine
 10
76.5527
 20
-0.0000000000000064
 30
0.0
 11
77.0
 21
0.0714299999999936
 31
0.0
  0
LINE
  5
1E4
330
1E
100
AcDbEntity
  8
0
100
AcDbLine
 10
76.5527
 20
-0.0000000000000064
 30
0.0
 11
77.0
 21
0.0714299999999936
 31
0.0
  0
LINE
  5
1E7
330
1E
100
AcDbEntity
  8
0
100
AcDbLine
 10
72.98059999999999
 20
-0.0000000000000062
 30
0.0
 11
73.36750000000001
 21
-0.0000000000000062
 31
0.0
  0
LINE
  5
1E9
330
1E
100
AcDbEntity
  8
0
100
AcDbLine
 10
74.3158
 20
-0.0000000000000063
 30
0.0
 11
75.92629999999999
 21
-0.0000000000000064
 31
0.0
  0
LINE
  5
1EB
330
1E
100
AcDbEntity
  8
0
100
AcDbLine
 10
63.6261
 20
-0.0000000000000056
 30
0.0
 11
64.29470000000001
 21
-0.0000000000000057
 31
0.0
  0
LINE
  5
1EC
330
1E
100
AcDbEntity
  8
0
100
AcDbLine
 10
63.6158
 20
-0.0000000000000056
 30
0.0
 11
66.92140000000001
 21
-0.0000000000000058
 31
0.0
  0
LINE
  5
1ED
330
1E
100
AcDbEntity
  8
0
100
AcDbLine
 10
60.0287
 20
-0.0000000000000054
 30
0.0
 11
63.6158
 21
-0.0000000000000056
 31
0.0
  0
LINE
  5
1EE
330
1E
100
AcDbEntity
  8
0
100
AcDbLine
 10
60.2432
 20
-0.0000000000000054
 30
0.0
 11
63.6261
 21
-0.0000000000000056
 31
0.0
  0
LINE
  5
1EF
330
1E
100
AcDbEntity
  8
0
100
AcDbLine
 10
60.0
 20
-0.0000000000000054
 30
0.0
 11
64.29470000000001
 21
-0.0000000000000057
 31
0.0
  0
LINE
  5
1F1
330
1E
100
AcDbEntity
  8
0
100
AcDbLine
 10
64.29470000000001
 20
-0.0000000000000057
 30
0.0
 11
66.92140000000001
 21
-0.0000000000000058
 31
0.0
  0
LINE
  5
1F2
330
1E
100
AcDbEntity
  8
0
100
AcDbLine
 10
64.29470000000001
 20
-0.0000000000000057
 30
0.0
 11
68.2315
 21
-0.0000000000000059
 31
0.0
  0
LINE
  5
1F3
330
1E
100
AcDbEntity
  8
0
100
AcDbLine
 10
56.44519999999999
 20
-0.0000000000000052
 30
0.0
 11
60.0
 21
-0.0000000000000054
 31
0.0
  0
LINE
  5
1F4
330
1E
100
AcDbEntity
  8
0
100
AcDbLine
 10
53.0691
 20
-0.000000000000005
 30
0.0
 11
56.44519999999999
 21
-0.0000000000000052
 31
0.0
  0
LINE
  5
1F7
330
1E
100
AcDbEntity
  8
0
100
AcDbLine
 10
48.2789
 20
-0.0000000000000047
 30
0.0
 11
51.7684
 21
-0.0000000000000049
 31
0.0
  0
LINE
  5
1F9
330
1E
100
AcDbEntity
  8
0
100
AcDbLine
 10
51.7684
 20
-0.0000000000000049
 30
0.0
 11
55.7053
 21
-0.0000000000000051
 31
0.0
  0
LINE
  5
1FB
330
1E
100
AcDbEntity
  8
0
100
AcDbLine
 10
55.7053
 20
-0.0000000000000051
 30
0.0
 11
60.0
 21
-0.0000000000000054
 31
0.0
  0
LINE
  5
1FC
330
1E
100
AcDbEntity
  8
0
100
AcDbLine
 10
56.3009
 20
-0.0000000000000052
 30
0.0
 11
60.0287
 21
-0.0000000000000054
 31
0.0
  0
LINE
  5
1FD
330
1E
100
AcDbEntity
  8
0
100
AcDbLine
 10
48.0754
 20
-0.0000000000000047
 30
0.0
 11
50.22059999999999
 21
-0.0000000000000048
 31
0.0
  0
LINE
  5
1FE
330
1E
100
AcDbEntity
  8
0
100
AcDbLine
 10
77.0
 20
0.0714299999999936
 30
0.0
 11
77.0
 21
0.171429999999994
 31
0.0
  0
LINE
  5
1FF
330
1E
100
AcDbEntity
  8
0
100
AcDbLine
 10
77.0
 20
0.171429999999994
 30
0.0
 11
77.0
 21
0.714289999999994
 31
0.0
  0
LINE
  5
200
330
1E
100
AcDbEntity
  8
0
100
AcDbLine
 10
77.0
 20
0.171429999999994
 30
0.0
 11
77.0
 21
0.0714299999999936
 31
0.0
  0
LINE
  5
201
330
1E
100
AcDbEntity
  8
0
100
AcDbLine
 10
68.65349999999999
 20
0.144359999999994
 30
0.0
 11
72.70529999999999
 21
0.259709999999994
 31
0.0
  0
LINE
  5
204
330
1E
100
AcDbEntity
  8
0
100
AcDbLine
 10
51.3465
 20
0.144359999999995
 30
0.0
 11
55.3761
 21
0.298999999999995
 31
0.0
  0
LINE
  5
207
330
1E
100
AcDbEntity
  8
0
100
AcDbLine
 10
43.4474
 20
-0.0000000000000044
 30
0.0
 11
44.0737
 21
-0.0000000000000044
 31
0.0
  0
LINE
  5
208
330
1E
100
AcDbEntity
  8
0
100
AcDbLine
 10
43.0
 20
0.0714299999999957
 30
0.0
 11
43.0
 21
0.171429999999996
 31
0.0
  0
LINE
  5
209
330
1E
100
AcDbEntity
  8
0
100
AcDbLine
 10
43.0
 20
0.0714299999999957
 30
0.0
 11
43.4474
 21
-0.0000000000000044
 31
0.0
  0
LINE
  5
20A
330
1E
100
AcDbEntity
  8
0
100
AcDbLine
 10
43.0
 20
0.0714299999999957
 30
0.0
 11
43.4474
 21
-0.0000000000000044
 31
0.0
  0
LINE
  5
20B
330
1E
100
AcDbEntity
  8
0
100
AcDbLine
 10
43.0
 20
9.285709999999999
 30
0.0
 11
43.0
 21
8.571429999999999
 31
0.0
  0
LINE
  5
20C
330
1E
100
AcDbEntity
  8
0
100
AcDbLine
 10
43.0
 20
9.285709999999999
 30
0.0
 11
43.0
 21
9.828569999999999
 31
0.0
  0
LINE
  5
20D
330
1E
100
AcDbEntity
  8
0
100
AcDbLine
 10
43.0
 20
9.285709999999999
 30
0.0
 11
43.3579
 21
9.285709999999999
 31
0.0
  0
LINE
  5
20E
330
1E
100
AcDbEntity
  8
0
100
AcDbLine
 10
43.0
 20
8.571429999999999
 30
0.0
 11
43.0
 21
1.428569999999989
 31
0.0
  0
LINE
  5
20F
330
1E
100
AcDbEntity
  8
0
100
AcDbLine
 10
43.0
 20
8.571429999999999
 30
0.0
 11
43.0
 21
9.285709999999999
 31
0.0
  0
LINE
  5
210
330
1E
100
AcDbEntity
  8
0
100
AcDbLine
 10
43.0
 20
1.42857
 30
0.0
 11
43.0
 21
0.714289999999996
 31
0.0
  0
LINE
  5
211
330
1E
100
AcDbEntity
  8
0
100
AcDbLine
 10
43.0
 20
1.42857
 30
0.0
 11
43.0
 21
8.571429999999999
 31
0.0
  0
LINE
  5
215
330
1E
100
AcDbEntity
  8
0
100
AcDbLine
 10
43.0
 20
9.828569999999999
 30
0.0
 11
43.0
 21
9.285709999999999
 31
0.0
  0
LINE
  5
216
330
1E
100
AcDbEntity
  8
0
100
AcDbLine
 10
43.0
 20
9.828569999999999
 30
0.0
 11
43.0
 21
9.92857
 31
0.0
  0
LINE
  5
217
330
1E
100
AcDbEntity
  8
0
100
AcDbLine
 10
43.0
 20
0.714289999999996
 30
0.0
 11
43.0
 21
0.171429999999996
 31
0.0
  0
LINE
  5
218
330
1E
100
AcDbEntity
  8
0
100
AcDbLine
 10
43.0
 20
0.714289999999996
 30
0.0
 11
43.0
 21
1.42857
 31
0.0
  0
LINE
  5
219
330
1E
100
AcDbEntity
  8
0
100
AcDbLine
 10
43.0
 20
0.714289999999996
 30
0.0
 11
43.3579
 21
0.714289999999996
 31
0.0
  0
LINE
  5
221
330
1E
100
AcDbEntity
  8
0
100
AcDbLine
 10
43.3579
 20
0.714289999999996
 30
0.0
 11
44.4571
 21
0.714289999999996
 31
0.0
  0
LINE
  5
224
330
1E
100
AcDbEntity
  8
0
100
AcDbLine
 10
55.3761
 20
0.298999999999995
 30
0.0
 11
57.89889999999999
 21
0.714289999999995
 31
0.0
  0
LINE
  5
226
330
1E
100
AcDbEntity
  8
0
100
AcDbLine
 10
55.3761
 20
0.298999999999995
 30
0.0
 11
57.89889999999999
 21
0.714289999999995
 31
0.0
  0
LINE
  5
22B
330
1E
100
AcDbEntity
  8
0
100
AcDbLine
 10
47.2947
 20
0.259709999999995
 30
0.0
 11
51.3465
 21
0.144359999999995
 31
0.0
  0
LINE
  5
22E
330
1E
100
AcDbEntity
  8
0
100
AcDbLine
 10
44.4571
 20
0.714289999999996
 30
0.0
 11
47.2947
 21
0.259709999999995
 31
0.0
  0
LINE
  5
230
330
1E
100
AcDbEntity
  8
0
100
AcDbLine
 10
43.3579
 20
9.285709999999999
 30
0.0
 11
44.4571
 21
9.285709999999999
 31
0.0
  0
LINE
  5
231
330
1E
100
AcDbEntity
  8
0
100
AcDbLine
 10
44.0
 20
10.0
 30
0.0
 11
44.0
 21
29.1888598130841
 31
0.0
  0
LINE
  5
232
330
1E
100
AcDbEntity
  8
0
100
AcDbLine
 10
44.0
 20
9.999999999999991
 30
0.0
 11
44.0
 21
29.1888598130841
 31
0.0
  0
LINE
  5
233
330
1E
100
AcDbEntity
  8
0
100
AcDbLine
 10
44.576
 20
10.0
 30
0.0
 11
46.11199999999999
 21
10.0
 31
0.0
  0
LINE
  5
234
330
1E
100
AcDbEntity
  8
0
100
AcDbLine
 10
43.4474
 20
10.0
 30
0.0
 11
44.0737
 21
10.0
 31
0.0
  0
LINE
  5
235
330
1E
100
AcDbEntity
  8
0
100
AcDbLine
 10
46.11199999999999
 20
10.0
 30
0.0
 11
48.672
 21
10.0
 31
0.0
  0
LINE
  5
236
330
1E
100
AcDbEntity
  8
0
100
AcDbLine
 10
45.68419999999999
 20
10.0
 30
0.0
 11
48.2789
 21
10.0
 31
0.0
  0
LINE
  5
237
330
1E
100
AcDbEntity
  8
0
100
AcDbLine
 10
44.0737
 20
10.0
 30
0.0
 11
45.68419999999999
 21
10.0
 31
0.0
  0
LINE
  5
238
330
1E
100
AcDbEntity
  8
0
100
AcDbLine
 10
55.3761
 20
9.700989999999999
 30
0.0
 11
57.89889999999999
 21
9.285709999999999
 31
0.0
  0
LINE
  5
23B
330
1E
100
AcDbEntity
  8
0
100
AcDbLine
 10
48.672
 20
10.0
 30
0.0
 11
52.06399999999999
 21
10.0
 31
0.0
  0
LINE
  5
23C
330
1E
100
AcDbEntity
  8
0
100
AcDbLine
 10
48.2789
 20
10.0
 30
0.0
 11
51.7684
 21
10.0
 31
0.0
  0
LINE
  5
23E
330
1E
100
AcDbEntity
  8
0
100
AcDbLine
 10
52.06399999999999
 20
10.0
 30
0.0
 11
55.90399999999999
 21
10.0
 31
0.0
  0
LINE
  5
23F
330
1E
100
AcDbEntity
  8
0
100
AcDbLine
 10
51.7684
 20
10.0
 30
0.0
 11
55.7053
 21
10.0
 31
0.0
  0
LINE
  5
240
330
1E
100
AcDbEntity
  8
0
100
AcDbLine
 10
51.3465
 20
9.855629999999999
 30
0.0
 11
55.3761
 21
9.700989999999999
 31
0.0
  0
LINE
  5
243
330
1E
100
AcDbEntity
  8
0
100
AcDbLine
 10
47.2947
 20
9.74025999999999
 30
0.0
 11
51.3465
 21
9.855629999999999
 31
0.0
  0
LINE
  5
244
330
1E
100
AcDbEntity
  8
0
100
AcDbLine
 10
44.4571
 20
9.285709999999999
 30
0.0
 11
47.2947
 21
9.74025999999999
 31
0.0
  0
LINE
  5
248
330
1E
100
AcDbEntity
  8
0
100
AcDbLine
 10
64.6239
 20
0.2989999999999939
 30
0.0
 11
68.65349999999999
 21
0.144359999999994
 31
0.0
  0
LINE
  5
24B
330
1E
100
AcDbEntity
  8
0
100
AcDbLine
 10
72.70529999999999
 20
0.259709999999994
 30
0.0
 11
75.54300000000001
 21
0.714289999999994
 31
0.0
  0
LINE
  5
24E
330
1E
100
AcDbEntity
  8
0
100
AcDbLine
 10
77.0
 20
0.714289999999994
 30
0.0
 11
77.0
 21
0.171429999999994
 31
0.0
  0
LINE
  5
24F
330
1E
100
AcDbEntity
  8
0
100
AcDbLine
 10
77.0
 20
0.714289999999994
 30
0.0
 11
77.0
 21
1.428569999999989
 31
0.0
  0
LINE
  5
250
330
1E
100
AcDbEntity
  8
0
100
AcDbLine
 10
76.6422
 20
0.714289999999994
 30
0.0
 11
77.0
 21
0.714289999999994
 31
0.0
  0
LINE
  5
253
330
1E
100
AcDbEntity
  8
0
100
AcDbLine
 10
75.54300000000001
 20
0.714289999999994
 30
0.0
 11
76.6422
 21
0.714289999999994
 31
0.0
  0
LINE
  5
255
330
1E
100
AcDbEntity
  8
0
100
AcDbLine
 10
62.1011
 20
0.714289999999995
 30
0.0
 11
64.6239
 21
0.2989999999999939
 31
0.0
  0
LINE
  5
256
330
1E
100
AcDbEntity
  8
0
100
AcDbLine
 10
60.0
 20
0.714289999999995
 30
0.0
 11
62.1011
 21
0.714289999999995
 31
0.0
  0
LINE
  5
259
330
1E
100
AcDbEntity
  8
0
100
AcDbLine
 10
55.90399999999999
 20
10.0
 30
0.0
 11
60.0
 21
9.999999999999991
 31
0.0
  0
LINE
  5
25C
330
1E
100
AcDbEntity
  8
0
100
AcDbLine
 10
77.0
 20
8.57142999999999
 30
0.0
 11
77.0
 21
1.428569999999989
 31
0.0
  0
LINE
  5
25D
330
1E
100
AcDbEntity
  8
0
100
AcDbLine
 10
77.0
 20
8.57142999999999
 30
0.0
 11
77.0
 21
9.285709999999991
 31
0.0
  0
LINE
  5
25E
330
1E
100
AcDbEntity
  8
0
100
AcDbLine
 10
77.0
 20
1.428569999999989
 30
0.0
 11
77.0
 21
0.714289999999994
 31
0.0
  0
LINE
  5
25F
330
1E
100
AcDbEntity
  8
0
100
AcDbLine
 10
77.0
 20
1.428569999999989
 30
0.0
 11
77.0
 21
8.57142999999999
 31
0.0
  0
LINE
  5
260
330
1E
100
AcDbEntity
  8
0
100
AcDbLine
 10
77.0
 20
9.285709999999991
 30
0.0
 11
77.0
 21
9.82856999999999
 31
0.0
  0
LINE
  5
261
330
1E
100
AcDbEntity
  8
0
100
AcDbLine
 10
77.0
 20
9.285709999999991
 30
0.0
 11
77.0
 21
8.57142999999999
 31
0.0
  0
LINE
  5
262
330
1E
100
AcDbEntity
  8
0
100
AcDbLine
 10
76.6422
 20
9.285709999999991
 30
0.0
 11
77.0
 21
9.285709999999991
 31
0.0
  0
LINE
  5
264
330
1E
100
AcDbEntity
  8
0
100
AcDbLine
 10
75.54300000000001
 20
9.285709999999991
 30
0.0
 11
76.6422
 21
9.285709999999991
 31
0.0
  0
LINE
  5
265
330
1E
100
AcDbEntity
  8
0
100
AcDbLine
 10
62.1011
 20
9.285709999999991
 30
0.0
 11
64.6239
 21
9.70098999999999
 31
0.0
  0
LINE
  5
268
330
1E
100
AcDbEntity
  8
0
100
AcDbLine
 10
60.0
 20
9.999999999999991
 30
0.0
 11
64.29470000000001
 21
9.999999999999991
 31
0.0
  0
LINE
  5
269
330
1E
100
AcDbEntity
  8
0
100
AcDbLine
 10
60.0
 20
9.999999999999991
 30
0.0
 11
64.09600000000001
 21
9.999999999999991
 31
0.0
  0
LINE
  5
26A
330
1E
100
AcDbEntity
  8
0
100
AcDbLine
 10
64.6239
 20
9.70098999999999
 30
0.0
 11
68.65349999999999
 21
9.855629999999999
 31
0.0
  0
LINE
  5
26B
330
1E
100
AcDbEntity
  8
0
100
AcDbLine
 10
71.328
 20
9.999999999999991
 30
0.0
 11
73.888
 21
9.999999999999991
 31
0.0
  0
LINE
  5
26C
330
1E
100
AcDbEntity
  8
0
100
AcDbLine
 10
67.93600000000001
 20
9.999999999999991
 30
0.0
 11
71.328
 21
9.999999999999991
 31
0.0
  0
LINE
  5
26D
330
1E
100
AcDbEntity
  8
0
100
AcDbLine
 10
64.09600000000001
 20
9.999999999999991
 30
0.0
 11
67.93600000000001
 21
9.999999999999991
 31
0.0
  0
LINE
  5
26E
330
1E
100
AcDbEntity
  8
0
100
AcDbLine
 10
68.2315
 20
9.999999999999991
 30
0.0
 11
71.721
 21
9.999999999999991
 31
0.0
  0
LINE
  5
26F
330
1E
100
AcDbEntity
  8
0
100
AcDbLine
 10
71.721
 20
9.999999999999991
 30
0.0
 11
74.3158
 21
9.999999999999991
 31
0.0
  0
LINE
  5
270
330
1E
100
AcDbEntity
  8
0
100
AcDbLine
 10
68.65349999999999
 20
9.855629999999999
 30
0.0
 11
72.70529999999999
 21
9.74025999999999
 31
0.0
  0
LINE
  5
271
330
1E
100
AcDbEntity
  8
0
100
AcDbLine
 10
73.888
 20
9.999999999999991
 30
0.0
 11
75.42399999999999
 21
9.999999999999991
 31
0.0
  0
LINE
  5
272
330
1E
100
AcDbEntity
  8
0
100
AcDbLine
 10
74.3158
 20
9.999999999999991
 30
0.0
 11
75.92629999999999
 21
9.999999999999991
 31
0.0
  0
LINE
  5
273
330
1E
100
AcDbEntity
  8
0
100
AcDbLine
 10
76.0
 20
9.999999999999991
 30
0.0
 11
76.0
 21
80.0
 31
0.0
  0
LINE
  5
274
330
1E
100
AcDbEntity
  8
0
100
AcDbLine
 10
76.5527
 20
9.999999999999991
 30
0.0
 11
77.0
 21
9.928569999999989
 31
0.0
  0
LINE
  5
275
330
1E
100
AcDbEntity
  8
0
100
AcDbLine
 10
75.92629999999999
 20
9.999999999999991
 30
0.0
 11
76.5527
 21
9.999999999999991
 31
0.0
  0
LINE
  5
276
330
1E
100
AcDbEntity
  8
0
100
AcDbLine
 10
77.0
 20
9.82856999999999
 30
0.0
 11
77.0
 21
9.285709999999991
 31
0.0
  0
LINE
  5
277
330
1E
100
AcDbEntity
  8
0
100
AcDbLine
 10
77.0
 20
9.82856999999999
 30
0.0
 11
77.0
 21
9.928569999999989
 31
0.0
  0
LINE
  5
278
330
1E
100
AcDbEntity
  8
0
100
AcDbLine
 10
77.0
 20
9.928569999999989
 30
0.0
 11
77.0
 21
9.82856999999999
 31
0.0
  0
LINE
  5
27B
330
1E
100
AcDbEntity
  8
0
100
AcDbLine
 10
72.70529999999999
 20
9.74025999999999
 30
0.0
 11
75.54300000000001
 21
9.285709999999991
 31
0.0
  0
LINE
  5
27D
330
1E
100
AcDbEntity
  8
0
100
AcDbLine
 10
64.29470000000001
 20
9.999999999999991
 30
0.0
 11
68.2315
 21
9.999999999999991
 31
0.0
  0
LINE
  5
284
330
1E
100
AcDbEntity
  8
0
100
AcDbLine
 10
60.0
 20
9.285709999999999
 30
0.0
 11
62.1011
 21
9.285709999999991
 31
0.0
  0
LINE
  5
287
330
1E
100
AcDbEntity
  8
0
100
AcDbLine
 10
57.89889999999999
 20
9.285709999999999
 30
0.0
 11
60.0
 21
9.285709999999999
 31
0.0
  0
LINE
  5
289
330
1E
100
AcDbEntity
  8
0
100
AcDbLine
 10
57.89889999999999
 20
0.714289999999995
 30
0.0
 11
60.0
 21
0.714289999999995
 31
0.0
  0
LINE
  5
28A
330
1E
100
AcDbEntity
  8
0
100
AcDbLine
 10
55.7053
 20
10.0
 30
0.0
 11
60.0
 21
9.999999999999991
 31
0.0
  0
LINE
  5
28B
330
1E
100
AcDbEntity
  8
0
100
AcDbLine
 10
55.7053
 20
10.0
 30
0.0
 11
55.90399999999999
 21
10.0
 31
0.0
  0
LINE
  5
28C
330
1E
100
AcDbEntity
  8
0
100
AcDbLine
 10
43.0
 20
9.92857
 30
0.0
 11
43.0
 21
9.828569999999999
 31
0.0
  0
LINE
  5
28D
330
1E
100
AcDbEntity
  8
0
100
AcDbLine
 10
43.0
 20
9.92857
 30
0.0
 11
43.4474
 21
10.0
 31
0.0
  0
LINE
  5
28E
330
1E
100
AcDbEntity
  8
0
100
AcDbLine
 10
43.0
 20
0.171429999999996
 30
0.0
 11
43.0
 21
0.0714299999999957
 31
0.0
  0
LINE
  5
28F
330
1E
100
AcDbEntity
  8
0
100
AcDbLine
 10
43.0
 20
0.171429999999996
 30
0.0
 11
43.0
 21
0.714289999999996
 31
0.0
  0
LINE
  5
296
330
1E
100
AcDbEntity
  8
0
100
AcDbLine
 10
33.9741395757092
 20
62.9212558575236
 30
0.0
 11
43.8675369895036
 21
80.0
 31
0.0
  0
LINE
  5
297
330
1E
100
AcDbEntity
  8
0
100
AcDbLine
 10
33.6
 20
60.624
 30
0.0
 11
33.6
 21
57.74399999999999
 31
0.0
  0
LINE
  5
298
330
1E
100
AcDbEntity
  8
0
100
AcDbLine
 10
33.6
 20
60.624
 30
0.0
 11
33.6
 21
62.35199999999999
 31
0.0
  0
LINE
  5
299
330
1E
100
AcDbEntity
  8
0
100
AcDbLine
 10
43.0
 20
80.07139999999999
 30
0.0
 11
43.0
 21
80.17140000000001
 31
0.0
  0
LINE
  5
29A
330
1E
100
AcDbEntity
  8
0
100
AcDbLine
 10
43.0
 20
80.07139999999999
 30
0.0
 11
43.4474
 21
80.0
 31
0.0
  0
LINE
  5
29B
330
1E
100
AcDbEntity
  8
0
100
AcDbLine
 10
43.0
 20
89.2857
 30
0.0
 11
43.0
 21
88.57139999999999
 31
0.0
  0
LINE
  5
29C
330
1E
100
AcDbEntity
  8
0
100
AcDbLine
 10
43.0
 20
89.2857
 30
0.0
 11
43.0
 21
89.8286
 31
0.0
  0
LINE
  5
29D
330
1E
100
AcDbEntity
  8
0
100
AcDbLine
 10
43.0
 20
89.2857
 30
0.0
 11
43.3579
 21
89.2857
 31
0.0
  0
LINE
  5
29E
330
1E
100
AcDbEntity
  8
0
100
AcDbLine
 10
43.0
 20
88.57139999999999
 30
0.0
 11
43.0
 21
81.4286
 31
0.0
  0
LINE
  5
29F
330
1E
100
AcDbEntity
  8
0
100
AcDbLine
 10
43.0
 20
88.57139999999999
 30
0.0
 11
43.0
 21
89.2857
 31
0.0
  0
LINE
  5
2A0
330
1E
100
AcDbEntity
  8
0
100
AcDbLine
 10
43.0
 20
81.4286
 30
0.0
 11
43.0
 21
80.71429999999999
 31
0.0
  0
LINE
  5
2A1
330
1E
100
AcDbEntity
  8
0
100
AcDbLine
 10
43.0
 20
81.4286
 30
0.0
 11
43.0
 21
88.57139999999999
 31
0.0
  0
LINE
  5
2A4
330
1E
100
AcDbEntity
  8
0
100
AcDbLine
 10
43.0
 20
81.4286
 30
0.0
 11
44.4571
 21
80.71429999999999
 31
0.0
  0
LINE
  5
2A5
330
1E
100
AcDbEntity
  8
0
100
AcDbLine
 10
43.0
 20
89.8286
 30
0.0
 11
43.0
 21
89.2857
 31
0.0
  0
LINE
  5
2A6
330
1E
100
AcDbEntity
  8
0
100
AcDbLine
 10
43.0
 20
89.8286
 30
0.0
 11
43.0
 21
89.9286
 31
0.0
  0
LINE
  5
2A7
330
1E
100
AcDbEntity
  8
0
100
AcDbLine
 10
43.0
 20
80.71429999999999
 30
0.0
 11
43.0
 21
80.17140000000001
 31
0.0
  0
LINE
  5
2A8
330
1E
100
AcDbEntity
  8
0
100
AcDbLine
 10
43.0
 20
80.71429999999999
 30
0.0
 11
43.0
 21
81.4286
 31
0.0
  0
LINE
  5
2AA
330
1E
100
AcDbEntity
  8
0
100
AcDbLine
 10
43.0
 20
89.9286
 30
0.0
 11
43.0
 21
89.8286
 31
0.0
  0
LINE
  5
2AB
330
1E
100
AcDbEntity
  8
0
100
AcDbLine
 10
43.0
 20
89.9286
 30
0.0
 11
43.4474
 21
90.0
 31
0.0
  0
LINE
  5
2AC
330
1E
100
AcDbEntity
  8
0
100
AcDbLine
 10
44.0
 20
80.0
 30
0.0
 11
44.576
 21
80.0
 31
0.0
  0
LINE
  5
2AD
330
1E
100
AcDbEntity
  8
0
100
AcDbLine
 10
44.576
 20
80.0
 30
0.0
 11
46.11199999999999
 21
80.0
 31
0.0
  0
LINE
  5
2AE
330
1E
100
AcDbEntity
  8
0
100
AcDbLine
 10
46.11199999999999
 20
80.0
 30
0.0
 11
48.672
 21
80.0
 31
0.0
  0
LINE
  5
2AF
330
1E
100
AcDbEntity
  8
0
100
AcDbLine
 10
48.672
 20
80.0
 30
0.0
 11
52.06399999999999
 21
80.0
 31
0.0
  0
LINE
  5
2B0
330
1E
100
AcDbEntity
  8
0
100
AcDbLine
 10
52.06399999999999
 20
80.0
 30
0.0
 11
55.90399999999999
 21
80.0
 31
0.0
  0
LINE
  5
2B1
330
1E
100
AcDbEntity
  8
0
100
AcDbLine
 10
71.328
 20
80.0
 30
0.0
 11
73.888
 21
80.0
 31
0.0
  0
LINE
  5
2B2
330
1E
100
AcDbEntity
  8
0
100
AcDbLine
 10
67.93600000000001
 20
80.0
 30
0.0
 11
71.328
 21
80.0
 31
0.0
  0
LINE
  5
2B3
330
1E
100
AcDbEntity
  8
0
100
AcDbLine
 10
64.09600000000001
 20
80.0
 30
0.0
 11
67.93600000000001
 21
80.0
 31
0.0
  0
LINE
  5
2B4
330
1E
100
AcDbEntity
  8
0
100
AcDbLine
 10
60.0
 20
80.0
 30
0.0
 11
64.09600000000001
 21
80.0
 31
0.0
  0
LINE
  5
2B5
330
1E
100
AcDbEntity
  8
0
100
AcDbLine
 10
55.90399999999999
 20
80.0
 30
0.0
 11
60.0
 21
80.0
 31
0.0
  0
LINE
  5
2B7
330
1E
100
AcDbEntity
  8
0
100
AcDbLine
 10
73.888
 20
80.0
 30
0.0
 11
75.42399999999999
 21
80.0
 31
0.0
  0
LINE
  5
2B8
330
1E
100
AcDbEntity
  8
0
100
AcDbLine
 10
75.42399999999999
 20
80.0
 30
0.0
 11
75.92629999999999
 21
80.0
 31
0.0
  0
LINE
  5
2B9
330
1E
100
AcDbEntity
  8
0
100
AcDbLine
 10
75.42399999999999
 20
80.0
 30
0.0
 11
76.0
 21
80.0
 31
0.0
  0
LINE
  5
2BA
330
1E
100
AcDbEntity
  8
0
100
AcDbLine
 10
76.0
 20
80.0
 30
0.0
 11
76.5527
 21
80.0
 31
0.0
  0
LINE
  5
2BB
330
1E
100
AcDbEntity
  8
0
100
AcDbLine
 10
76.0
 20
80.0
 30
0.0
 11
76.0
 21
9.999999999999991
 31
0.0
  0
LINE
  5
2BC
330
1E
100
AcDbEntity
  8
0
100
AcDbLine
 10
76.5527
 20
80.0
 30
0.0
 11
77.0
 21
80.07139999999999
 31
0.0
  0
LINE
  5
2BE
330
1E
100
AcDbEntity
  8
0
100
AcDbLine
 10
75.92629999999999
 20
80.0
 30
0.0
 11
76.5527
 21
80.0
 31
0.0
  0
LINE
  5
2C4
330
1E
100
AcDbEntity
  8
0
100
AcDbLine
 10
44.0737
 20
80.0
 30
0.0
 11
44.576
 21
80.0
 31
0.0
  0
LINE
  5
2CA
330
1E
100
AcDbEntity
  8
0
100
AcDbLine
 10
51.3465
 20
80.1444
 30
0.0
 11
55.3761
 21
80.29899999999999
 31
0.0
  0
LINE
  5
2CC
330
1E
100
AcDbEntity
  8
0
100
AcDbLine
 10
55.3761
 20
80.29899999999999
 30
0.0
 11
57.89889999999999
 21
80.71429999999999
 31
0.0
  0
LINE
  5
2D0
330
1E
100
AcDbEntity
  8
0
100
AcDbLine
 10
47.2947
 20
80.25969999999999
 30
0.0
 11
51.3465
 21
80.1444
 31
0.0
  0
LINE
  5
2D2
330
1E
100
AcDbEntity
  8
0
100
AcDbLine
 10
44.4571
 20
80.71429999999999
 30
0.0
 11
47.2947
 21
80.25969999999999
 31
0.0
  0
LINE
  5
2D4
330
1E
100
AcDbEntity
  8
0
100
AcDbLine
 10
43.3579
 20
89.2857
 30
0.0
 11
44.4571
 21
89.2857
 31
0.0
  0
LINE
  5
2D5
330
1E
100
AcDbEntity
  8
0
100
AcDbLine
 10
43.4474
 20
90.0
 30
0.0
 11
44.0737
 21
90.0
 31
0.0
  0
LINE
  5
2D6
330
1E
100
AcDbEntity
  8
0
100
AcDbLine
 10
45.68419999999999
 20
90.0
 30
0.0
 11
48.2789
 21
90.0
 31
0.0
  0
LINE
  5
2D7
330
1E
100
AcDbEntity
  8
0
100
AcDbLine
 10
44.0737
 20
90.0
 30
0.0
 11
45.68419999999999
 21
90.0
 31
0.0
  0
LINE
  5
2D8
330
1E
100
AcDbEntity
  8
0
100
AcDbLine
 10
55.3761
 20
89.701
 30
0.0
 11
57.89889999999999
 21
89.2857
 31
0.0
  0
LINE
  5
2DB
330
1E
100
AcDbEntity
  8
0
100
AcDbLine
 10
48.2789
 20
90.0
 30
0.0
 11
51.7684
 21
90.0
 31
0.0
  0
LINE
  5
2DD
330
1E
100
AcDbEntity
  8
0
100
AcDbLine
 10
51.7684
 20
90.0
 30
0.0
 11
55.7053
 21
90.0
 31
0.0
  0
LINE
  5
2DE
330
1E
100
AcDbEntity
  8
0
100
AcDbLine
 10
51.3465
 20
89.85559999999999
 30
0.0
 11
55.3761
 21
89.701
 31
0.0
  0
LINE
  5
2E1
330
1E
100
AcDbEntity
  8
0
100
AcDbLine
 10
47.2947
 20
89.7403
 30
0.0
 11
51.3465
 21
89.85559999999999
 31
0.0
  0
LINE
  5
2E2
330
1E
100
AcDbEntity
  8
0
100
AcDbLine
 10
44.4571
 20
89.2857
 30
0.0
 11
47.2947
 21
89.7403
 31
0.0
  0
LINE
  5
2E6
330
1E
100
AcDbEntity
  8
0
100
AcDbLine
 10
60.0
 20
80.71429999999999
 30
0.0
 11
62.1011
 21
80.71429999999999
 31
0.0
  0
LINE
  5
2EA
330
1E
100
AcDbEntity
  8
0
100
AcDbLine
 10
68.65349999999999
 20
80.1444
 30
0.0
 11
72.70529999999999
 21
80.25969999999999
 31
0.0
  0
LINE
  5
2EC
330
1E
100
AcDbEntity
  8
0
100
AcDbLine
 10
64.6239
 20
80.29899999999999
 30
0.0
 11
68.65349999999999
 21
80.1444
 31
0.0
  0
LINE
  5
2EE
330
1E
100
AcDbEntity
  8
0
100
AcDbLine
 10
72.70529999999999
 20
80.25969999999999
 30
0.0
 11
75.54300000000001
 21
80.71429999999999
 31
0.0
  0
LINE
  5
2F1
330
1E
100
AcDbEntity
  8
0
100
AcDbLine
 10
77.0
 20
80.07139999999999
 30
0.0
 11
77.0
 21
80.17140000000001
 31
0.0
  0
LINE
  5
2F2
330
1E
100
AcDbEntity
  8
0
100
AcDbLine
 10
77.0
 20
80.71429999999999
 30
0.0
 11
77.0
 21
80.17140000000001
 31
0.0
  0
LINE
  5
2F3
330
1E
100
AcDbEntity
  8
0
100
AcDbLine
 10
77.0
 20
80.71429999999999
 30
0.0
 11
77.0
 21
81.4286
 31
0.0
  0
LINE
  5
2F4
330
1E
100
AcDbEntity
  8
0
100
AcDbLine
 10
77.0
 20
80.17140000000001
 30
0.0
 11
77.0
 21
80.71429999999999
 31
0.0
  0
LINE
  5
2F5
330
1E
100
AcDbEntity
  8
0
100
AcDbLine
 10
77.0
 20
80.17140000000001
 30
0.0
 11
77.0
 21
80.07139999999999
 31
0.0
  0
LINE
  5
2F6
330
1E
100
AcDbEntity
  8
0
100
AcDbLine
 10
76.6422
 20
80.71429999999999
 30
0.0
 11
77.0
 21
80.71429999999999
 31
0.0
  0
LINE
  5
2F9
330
1E
100
AcDbEntity
  8
0
100
AcDbLine
 10
75.54300000000001
 20
80.71429999999999
 30
0.0
 11
76.6422
 21
80.71429999999999
 31
0.0
  0
LINE
  5
2FB
330
1E
100
AcDbEntity
  8
0
100
AcDbLine
 10
62.1011
 20
80.71429999999999
 30
0.0
 11
64.6239
 21
80.29899999999999
 31
0.0
  0
LINE
  5
300
330
1E
100
AcDbEntity
  8
0
100
AcDbLine
 10
77.0
 20
88.57139999999999
 30
0.0
 11
77.0
 21
81.4286
 31
0.0
  0
LINE
  5
301
330
1E
100
AcDbEntity
  8
0
100
AcDbLine
 10
77.0
 20
88.57139999999999
 30
0.0
 11
77.0
 21
89.2857
 31
0.0
  0
LINE
  5
302
330
1E
100
AcDbEntity
  8
0
100
AcDbLine
 10
77.0
 20
81.4286
 30
0.0
 11
77.0
 21
80.71429999999999
 31
0.0
  0
LINE
  5
303
330
1E
100
AcDbEntity
  8
0
100
AcDbLine
 10
77.0
 20
81.4286
 30
0.0
 11
77.0
 21
88.57139999999999
 31
0.0
  0
LINE
  5
304
330
1E
100
AcDbEntity
  8
0
100
AcDbLine
 10
77.0
 20
89.2857
 30
0.0
 11
77.0
 21
89.8286
 31
0.0
  0
LINE
  5
305
330
1E
100
AcDbEntity
  8
0
100
AcDbLine
 10
77.0
 20
89.2857
 30
0.0
 11
77.0
 21
88.57139999999999
 31
0.0
  0
LINE
  5
306
330
1E
100
AcDbEntity
  8
0
100
AcDbLine
 10
76.6422
 20
89.2857
 30
0.0
 11
77.0
 21
89.2857
 31
0.0
  0
LINE
  5
308
330
1E
100
AcDbEntity
  8
0
100
AcDbLine
 10
75.54300000000001
 20
89.2857
 30
0.0
 11
76.6422
 21
89.2857
 31
0.0
  0
LINE
  5
309
330
1E
100
AcDbEntity
  8
0
100
AcDbLine
 10
62.1011
 20
89.2857
 30
0.0
 11
64.6239
 21
89.701
 31
0.0
  0
LINE
  5
30C
330
1E
100
AcDbEntity
  8
0
100
AcDbLine
 10
60.0
 20
90.0
 30
0.0
 11
64.29470000000001
 21
90.0
 31
0.0
  0
LINE
  5
30D
330
1E
100
AcDbEntity
  8
0
100
AcDbLine
 10
64.6239
 20
89.701
 30
0.0
 11
68.65349999999999
 21
89.85559999999999
 31
0.0
  0
LINE
  5
30E
330
1E
100
AcDbEntity
  8
0
100
AcDbLine
 10
68.2315
 20
90.0
 30
0.0
 11
71.721
 21
90.0
 31
0.0
  0
LINE
  5
30F
330
1E
100
AcDbEntity
  8
0
100
AcDbLine
 10
71.721
 20
90.0
 30
0.0
 11
74.3158
 21
90.0
 31
0.0
  0
LINE
  5
310
330
1E
100
AcDbEntity
  8
0
100
AcDbLine
 10
68.65349999999999
 20
89.85559999999999
 30
0.0
 11
72.70529999999999
 21
89.7403
 31
0.0
  0
LINE
  5
311
330
1E
100
AcDbEntity
  8
0
100
AcDbLine
 10
74.3158
 20
90.0
 30
0.0
 11
75.92629999999999
 21
90.0
 31
0.0
  0
LINE
  5
312
330
1E
100
AcDbEntity
  8
0
100
AcDbLine
 10
76.5527
 20
90.0
 30
0.0
 11
77.0
 21
89.9286
 31
0.0
  0
LINE
  5
313
330
1E
100
AcDbEntity
  8
0
100
AcDbLine
 10
75.92629999999999
 20
90.0
 30
0.0
 11
76.5527
 21
90.0
 31
0.0
  0
LINE
  5
314
330
1E
100
AcDbEntity
  8
0
100
AcDbLine
 10
77.0
 20
89.8286
 30
0.0
 11
77.0
 21
89.2857
 31
0.0
  0
LINE
  5
315
330
1E
100
AcDbEntity
  8
0
100
AcDbLine
 10
77.0
 20
89.8286
 30
0.0
 11
77.0
 21
89.9286
 31
0.0
  0
LINE
  5
316
330
1E
100
AcDbEntity
  8
0
100
AcDbLine
 10
77.0
 20
89.9286
 30
0.0
 11
77.0
 21
89.8286
 31
0.0
  0
LINE
  5
319
330
1E
100
AcDbEntity
  8
0
100
AcDbLine
 10
72.70529999999999
 20
89.7403
 30
0.0
 11
75.54300000000001
 21
89.2857
 31
0.0
  0
LINE
  5
31B
330
1E
100
AcDbEntity
  8
0
100
AcDbLine
 10
64.29470000000001
 20
90.0
 30
0.0
 11
68.2315
 21
90.0
 31
0.0
  0
LINE
  5
322
330
1E
100
AcDbEntity
  8
0
100
AcDbLine
 10
60.0
 20
89.2857
 30
0.0
 11
62.1011
 21
89.2857
 31
0.0
  0
LINE
  5
325
330
1E
100
AcDbEntity
  8
0
100
AcDbLine
 10
57.89889999999999
 20
89.2857
 30
0.0
 11
60.0
 21
89.2857
 31
0.0
  0
LINE
  5
327
330
1E
100
AcDbEntity
  8
0
100
AcDbLine
 10
57.89889999999999
 20
80.71429999999999
 30
0.0
 11
60.0
 21
80.71429999999999
 31
0.0
  0
LINE
  5
328
330
1E
100
AcDbEntity
  8
0
100
AcDbLine
 10
55.7053
 20
90.0
 30
0.0
 11
60.0
 21
90.0
 31
0.0
  0
LINE
  5
329
330
1E
100
AcDbEntity
  8
0
100
AcDbLine
 10
43.4474
 20
80.0
 30
0.0
 11
43.8675369895036
 21
80.0
 31
0.0
  0
LINE
  5
32A
330
1E
100
AcDbEntity
  8
0
100
AcDbLine
 10
43.4474
 20
80.0
 30
0.0
 11
44.0737
 21
80.0
 31
0.0
  0
LINE
  5
32B
330
1E
100
AcDbEntity
  8
0
100
AcDbLine
 10
43.0
 20
80.17140000000001
 30
0.0
 11
43.0
 21
80.07139999999999
 31
0.0
  0
LINE
  5
32C
330
1E
100
AcDbEntity
  8
0
100
AcDbLine
 10
43.0
 20
80.17140000000001
 30
0.0
 11
43.0
 21
80.71429999999999
 31
0.0
  0
LINE
  5
330
330
1E
100
AcDbEntity
  8
0
100
AcDbLine
 10
33.6
 20
63.0
 30
0.0
 11
33.9863765801572
 21
62.92778007847529
 31
0.0
  0
LINE
  5
331
330
1E
100
AcDbEntity
  8
0
100
AcDbLine
 10
33.6
 20
63.0
 30
0.0
 11
33.6
 21
62.35199999999999
 31
0.0
  0
LINE
  5
332
330
1E
100
AcDbEntity
  8
0
100
AcDbLine
 10
33.6
 20
27.0
 30
0.0
 11
44.0
 21
28.9439252336449
 31
0.0
  0
LINE
  5
333
330
1E
100
AcDbEntity
  8
0
100
AcDbLine
 10
33.6
 20
27.0
 30
0.0
 11
33.6
 21
27.648
 31
0.0
  0
ENDSEC
  0
SECTION
  2
OBJECTS
  0
DICTIONARY
  5
C
330
0
100
AcDbDictionary
281
     1
  3
ACAD_GROUP
350
D
  3
ACAD_LAYOUT
350
19
  3
ACAD_MLINESTYLE
350
16
  3
ACAD_PLOTSETTINGS
350
18
  3
ACAD_PLOTSTYLENAME
350
E
  3
AcDbVariableDictionary
350
338
  0
DICTIONARY
  5
D
102
{ACAD_REACTORS
330
C
102
}
330
C
100
AcDbDictionary
281
     1
  0
DICTIONARY
  5
19
102
{ACAD_REACTORS
330
C
102
}
330
C
100
AcDbDictionary
281
     1
  3
Layout1
350
1D
  3
Model
350
21
  0
DICTIONARY
  5
16
102
{ACAD_REACTORS
330
C
102
}
330
C
100
AcDbDictionary
281
     1
  3
Standard
350
17
  0
DICTIONARY
  5
18
102
{ACAD_REACTORS
330
C
102
}
330
C
100
AcDbDictionary
281
     1
  0
ACDBDICTIONARYWDFLT
  5
E
102
{ACAD_REACTORS
330
C
102
}
330
C
100
AcDbDictionary
281
     1
  3
Normal
350
F
100
AcDbDictionaryWithDefault
340
F
  0
DICTIONARY
  5
338
102
{ACAD_REACTORS
330
C
102
}
330
C
100
AcDbDictionary
281
     1
  3
DIMASSOC
350
339
  0
LAYOUT
  5
1D
102
{ACAD_REACTORS
330
19
102
}
330
19
100
AcDbPlotSettings
  1

  2
hp deskjet 980c series
  4

  6

 40
0.0
 41
0.0
 42
0.0
 43
0.0
 44
0.0
 45
0.0
 46
0.0
 47
0.0
 48
0.0
 49
0.0
140
0.0
141
0.0
142
1.0
143
1.0
 70
   688
 72
     0
 73
     0
 74
     5
  7

 75
    16
147
1.0
148
0.0
149
0.0
100
AcDbLayout
  1
Layout1
 70
     1
 71
     1
 10
0.0
 20
0.0
 11
12.0
 21
9.0
 12
0.0
 22
0.0
 32
0.0
 14
1.000000000000000E+20
 24
1.000000000000000E+20
 34
1.000000000000000E+20
 15
-1.000000000000000E+20
 25
-1.000000000000000E+20
 35
-1.000000000000000E+20
146
0.0
 13
0.0
 23
0.0
 33
0.0
 16
1.0
 26
0.0
 36
0.0
 17
0.0
 27
1.0
 37
0.0
 76
     0
330
1A
  0
LAYOUT
  5
21
102
{ACAD_REACTORS
330
19
102
}
330
19
100
AcDbPlotSettings
  1

  2
hp deskjet 980c series
  4

  6

 40
0.0
 41
0.0
 42
0.0
 43
0.0
 44
0.0
 45
0.0
 46
0.0
 47
0.0
 48
0.0
 49
0.0
140
0.0
141
0.0
142
1.0
143
1.0
 70
  1712
 72
     0
 73
     0
 74
     0
  7

 75
     0
147
1.0
148
0.0
149
0.0
100
AcDbLayout
  1
Model
 70
     1
 71
     0
 10
0.0
 20
0.0
 11
12.0
 21
9.0
 12
0.0
 22
0.0
 32
0.0
 14
0.0
 24
0.0
 34
0.0
 15
0.0
 25
0.0
 35
0.0
146
0.0
 13
0.0
 23
0.0
 33
0.0
 16
1.0
 26
0.0
 36
0.0
 17
0.0
 27
1.0
 37
0.0
 76
     0
330
1E
  0
MLINESTYLE
  5
17
102
{ACAD_REACTORS
330
16
102
}
330
16
100
AcDbMlineStyle
  2
STANDARD
 70
     0
  3

 62
   256
 51
90.0
 52
90.0
 71
     2
 49
0.5
 62
   256
  6
BYLAYER
 49
-0.5
 62
   256
  6
BYLAYER
  0
ACDBPLACEHOLDER
  5
F
102
{ACAD_REACTORS
330
E
102
}
330
E
  0
DICTIONARYVAR
  5
339
102
{ACAD_REACTORS
330
338
102
}
330
338
100
DictionaryVariables
280
     0
  1
1
  0
ENDSEC
  0
EOF
