  0
SECTION
  2
HEADER
  9
$ACADVER
  1
AC1015
  9
$ACADMAINTVER
 70
    13
  9
$DWGCODEPAGE
  3
ANSI_1252
  9
$INSBASE
 10
0.0
 20
0.0
 30
0.0
  9
$EXTMIN
 10
0.0
 20
-0.0000000000000009
 30
0.0
  9
$EXTMAX
 10
700.0
 20
200.0
 30
0.0
  9
$LIMMIN
 10
0.0
 20
0.0
  9
$LIMMAX
 10
12.0
 20
9.0
  9
$ORTHOMODE
 70
     0
  9
$REGENMODE
 70
     1
  9
$FILLMODE
 70
     1
  9
$QTEXTMODE
 70
     0
  9
$MIRRTEXT
 70
     1
  9
$LTSCALE
 40
1.0
  9
$ATTMODE
 70
     1
  9
$TEXTSIZE
 40
0.2
  9
$TRACEWID
 40
0.05
  9
$TEXTSTYLE
  7
Standard
  9
$CLAYER
  8
0
  9
$CELTYPE
  6
Continuous
  9
$CECOLOR
 62
   256
  9
$CELTSCALE
 40
1.0
  9
$DISPSILH
 70
     0
  9
$DIMSCALE
 40
1.0
  9
$DIMASZ
 40
0.18
  9
$DIMEXO
 40
0.0625
  9
$DIMDLI
 40
0.38
  9
$DIMRND
 40
0.0
  9
$DIMDLE
 40
0.0
  9
$DIMEXE
 40
0.18
  9
$DIMTP
 40
0.0
  9
$DIMTM
 40
0.0
  9
$DIMTXT
 40
0.18
  9
$DIMCEN
 40
0.09
  9
$DIMTSZ
 40
0.0
  9
$DIMTOL
 70
     0
  9
$DIMLIM
 70
     0
  9
$DIMTIH
 70
     1
  9
$DIMTOH
 70
     1
  9
$DIMSE1
 70
     0
  9
$DIMSE2
 70
     0
  9
$DIMTAD
 70
     0
  9
$DIMZIN
 70
     0
  9
$DIMBLK
  1

  9
$DIMASO
 70
     1
  9
$DIMSHO
 70
     1
  9
$DIMPOST
  1

  9
$DIMAPOST
  1

  9
$DIMALT
 70
     0
  9
$DIMALTD
 70
     2
  9
$DIMALTF
 40
25.4
  9
$DIMLFAC
 40
1.0
  9
$DIMTOFL
 70
     0
  9
$DIMTVP
 40
0.0
  9
$DIMTIX
 70
     0
  9
$DIMSOXD
 70
     0
  9
$DIMSAH
 70
     0
  9
$DIMBLK1
  1

  9
$DIMBLK2
  1

  9
$DIMSTYLE
  2
Standard
  9
$DIMCLRD
 70
     0
  9
$DIMCLRE
 70
     0
  9
$DIMCLRT
 70
     0
  9
$DIMTFAC
 40
1.0
  9
$DIMGAP
 40
0.09
  9
$DIMJUST
 70
     0
  9
$DIMSD1
 70
     0
  9
$DIMSD2
 70
     0
  9
$DIMTOLJ
 70
     1
  9
$DIMTZIN
 70
     0
  9
$DIMALTZ
 70
     0
  9
$DIMALTTZ
 70
     0
  9
$DIMUPT
 70
     0
  9
$DIMDEC
 70
     4
  9
$DIMTDEC
 70
     4
  9
$DIMALTU
 70
     2
  9
$DIMALTTD
 70
     2
  9
$DIMTXSTY
  7
Standard
  9
$DIMAUNIT
 70
     0
  9
$DIMADEC
 70
     0
  9
$DIMALTRND
 40
0.0
  9
$DIMAZIN
 70
     0
  9
$DIMDSEP
 70
    46
  9
$DIMATFIT
 70
     3
  9
$DIMFRAC
 70
     0
  9
$DIMLDRBLK
  1

  9
$DIMLUNIT
 70
     2
  9
$DIMLWD
 70
    -2
  9
$DIMLWE
 70
    -2
  9
$DIMTMOVE
 70
     0
  9
$LUNITS
 70
     2
  9
$LUPREC
 70
     4
  9
$SKETCHINC
 40
0.1
  9
$FILLETRAD
 40
0.0
  9
$AUNITS
 70
     0
  9
$AUPREC
 70
     0
  9
$MENU
  1
.
  9
$ELEVATION
 40
0.0
  9
$PELEVATION
 40
0.0
  9
$THICKNESS
 40
0.0
  9
$LIMCHECK
 70
     0
  9
$CHAMFERA
 40
0.0
  9
$CHAMFERB
 40
0.0
  9
$CHAMFERC
 40
0.0
  9
$CHAMFERD
 40
0.0
  9
$SKPOLY
 70
     0
  9
$TDCREATE
 40
2454780.718552870
  9
$TDUCREATE
 40
2454780.676886203
  9
$TDUPDATE
 40
2454780.720380312
  9
$TDUUPDATE
 40
2454780.678713646
  9
$TDINDWG
 40
0.0018276273
  9
$TDUSRTIMER
 40
0.0018276273
  9
$USRTIMER
 70
     1
  9
$ANGBASE
 50
0.0
  9
$ANGDIR
 70
     0
  9
$PDMODE
 70
     0
  9
$PDSIZE
 40
0.0
  9
$PLINEWID
 40
0.0
  9
$SPLFRAME
 70
     0
  9
$SPLINETYPE
 70
     6
  9
$SPLINESEGS
 70
     8
  9
$HANDSEED
  5
391
  9
$SURFTAB1
 70
     6
  9
$SURFTAB2
 70
     6
  9
$SURFTYPE
 70
     6
  9
$SURFU
 70
     6
  9
$SURFV
 70
     6
  9
$UCSBASE
  2

  9
$UCSNAME
  2

  9
$UCSORG
 10
0.0
 20
0.0
 30
0.0
  9
$UCSXDIR
 10
1.0
 20
0.0
 30
0.0
  9
$UCSYDIR
 10
0.0
 20
1.0
 30
0.0
  9
$UCSORTHOREF
  2

  9
$UCSORTHOVIEW
 70
     1
  9
$UCSORGTOP
 10
0.0
 20
0.0
 30
0.0
  9
$UCSORGBOTTOM
 10
0.0
 20
0.0
 30
0.0
  9
$UCSORGLEFT
 10
0.0
 20
0.0
 30
0.0
  9
$UCSORGRIGHT
 10
0.0
 20
0.0
 30
0.0
  9
$UCSORGFRONT
 10
0.0
 20
0.0
 30
0.0
  9
$UCSORGBACK
 10
0.0
 20
0.0
 30
0.0
  9
$PUCSBASE
  2

  9
$PUCSNAME
  2

  9
$PUCSORG
 10
0.0
 20
0.0
 30
0.0
  9
$PUCSXDIR
 10
1.0
 20
0.0
 30
0.0
  9
$PUCSYDIR
 10
0.0
 20
1.0
 30
0.0
  9
$PUCSORTHOREF
  2

  9
$PUCSORTHOVIEW
 70
     0
  9
$PUCSORGTOP
 10
0.0
 20
0.0
 30
0.0
  9
$PUCSORGBOTTOM
 10
0.0
 20
0.0
 30
0.0
  9
$PUCSORGLEFT
 10
0.0
 20
0.0
 30
0.0
  9
$PUCSORGRIGHT
 10
0.0
 20
0.0
 30
0.0
  9
$PUCSORGFRONT
 10
0.0
 20
0.0
 30
0.0
  9
$PUCSORGBACK
 10
0.0
 20
0.0
 30
0.0
  9
$USERI1
 70
     0
  9
$USERI2
 70
     0
  9
$USERI3
 70
     0
  9
$USERI4
 70
     0
  9
$USERI5
 70
     0
  9
$USERR1
 40
0.0
  9
$USERR2
 40
0.0
  9
$USERR3
 40
0.0
  9
$USERR4
 40
0.0
  9
$USERR5
 40
0.0
  9
$WORLDVIEW
 70
     1
  9
$SHADEDGE
 70
     3
  9
$SHADEDIF
 70
    70
  9
$TILEMODE
 70
     1
  9
$MAXACTVP
 70
    64
  9
$PINSBASE
 10
0.0
 20
0.0
 30
0.0
  9
$PLIMCHECK
 70
     0
  9
$PEXTMIN
 10
1.000000000000000E+20
 20
1.000000000000000E+20
 30
1.000000000000000E+20
  9
$PEXTMAX
 10
-1.000000000000000E+20
 20
-1.000000000000000E+20
 30
-1.000000000000000E+20
  9
$PLIMMIN
 10
0.0
 20
0.0
  9
$PLIMMAX
 10
12.0
 20
9.0
  9
$UNITMODE
 70
     0
  9
$VISRETAIN
 70
     1
  9
$PLINEGEN
 70
     0
  9
$PSLTSCALE
 70
     1
  9
$TREEDEPTH
 70
  3020
  9
$CMLSTYLE
  2
Standard
  9
$CMLJUST
 70
     0
  9
$CMLSCALE
 40
1.0
  9
$PROXYGRAPHICS
 70
     1
  9
$MEASUREMENT
 70
     0
  9
$CELWEIGHT
370
    -1
  9
$ENDCAPS
280
     0
  9
$JOINSTYLE
280
     0
  9
$LWDISPLAY
290
     0
  9
$INSUNITS
 70
     0
  9
$HYPERLINKBASE
  1

  9
$STYLESHEET
  1

  9
$XEDIT
290
     1
  9
$CEPSNTYPE
380
     0
  9
$PSTYLEMODE
290
     1
  9
$FINGERPRINTGUID
  2
{A4257E06-51CD-4E3E-82A7-68058C94C0AE}
  9
$VERSIONGUID
  2
{AF2C0E83-B945-4748-9F11-3E2E1A304F6C}
  9
$EXTNAMES
290
     1
  9
$PSVPSCALE
 40
0.0
  9
$OLESTARTUP
290
     0
  0
ENDSEC
  0
SECTION
  2
CLASSES
  0
CLASS
  1
ACDBDICTIONARYWDFLT
  2
AcDbDictionaryWithDefault
  3
AutoCAD 2000
 90
        0
280
     0
281
     0
  0
CLASS
  1
ACDBPLACEHOLDER
  2
AcDbPlaceHolder
  3
AutoCAD 2000
 90
        0
280
     0
281
     0
  0
CLASS
  1
LAYOUT
  2
AcDbLayout
  3
AutoCAD 2000
 90
        0
280
     0
281
     0
  0
CLASS
  1
DICTIONARYVAR
  2
AcDbDictionaryVar
  3
AutoCAD 2000
 90
        0
280
     0
281
     0
  0
ENDSEC
  0
SECTION
  2
TABLES
  0
TABLE
  2
VPORT
  5
8
330
0
100
AcDbSymbolTable
 70
     2
  0
VPORT
  5
390
330
8
100
AcDbSymbolTableRecord
100
AcDbViewportTableRecord
  2
*Active
 70
     0
 10
0.0
 20
0.0
 11
1.0
 21
1.0
 12
350.0
 22
100.0
 13
0.0
 23
0.0
 14
1.0
 24
1.0
 15
0.0
 25
0.0
 16
0.0
 26
0.0
 36
1.0
 17
0.0
 27
0.0
 37
0.0
 40
338.0898506384515
 41
2.078104993597951
 42
50.0
 43
0.0
 44
0.0
 50
0.0
 51
0.0
 71
     0
 72
   100
 73
     1
 74
     3
 75
     0
 76
     0
 77
     0
 78
     0
281
     0
 65
     1
110
0.0
120
0.0
130
0.0
111
1.0
121
0.0
131
0.0
112
0.0
122
1.0
132
0.0
 79
     1
146
0.0
  0
ENDTAB
  0
TABLE
  2
LTYPE
  5
5
330
0
100
AcDbSymbolTable
 70
     1
  0
LTYPE
  5
13
330
5
100
AcDbSymbolTableRecord
100
AcDbLinetypeTableRecord
  2
ByBlock
 70
     0
  3

 72
    65
 73
     0
 40
0.0
  0
LTYPE
  5
14
330
5
100
AcDbSymbolTableRecord
100
AcDbLinetypeTableRecord
  2
ByLayer
 70
     0
  3

 72
    65
 73
     0
 40
0.0
  0
LTYPE
  5
15
330
5
100
AcDbSymbolTableRecord
100
AcDbLinetypeTableRecord
  2
Continuous
 70
     0
  3
Solid line
 72
    65
 73
     0
 40
0.0
  0
ENDTAB
  0
TABLE
  2
LAYER
  5
2
330
0
100
AcDbSymbolTable
 70
     1
  0
LAYER
  5
10
330
2
100
AcDbSymbolTableRecord
100
AcDbLayerTableRecord
  2
0
 70
     0
 62
     7
  6
Continuous
370
    -3
390
F
  0
ENDTAB
  0
TABLE
  2
STYLE
  5
3
330
0
100
AcDbSymbolTable
 70
     1
  0
STYLE
  5
11
330
3
100
AcDbSymbolTableRecord
100
AcDbTextStyleTableRecord
  2
Standard
 70
     0
 40
0.0
 41
1.0
 50
0.0
 71
     0
 42
0.2
  3
txt
  4

  0
ENDTAB
  0
TABLE
  2
VIEW
  5
6
330
0
100
AcDbSymbolTable
 70
     0
  0
ENDTAB
  0
TABLE
  2
UCS
  5
7
330
0
100
AcDbSymbolTable
 70
     0
  0
ENDTAB
  0
TABLE
  2
APPID
  5
9
330
0
100
AcDbSymbolTable
 70
     1
  0
APPID
  5
12
330
9
100
AcDbSymbolTableRecord
100
AcDbRegAppTableRecord
  2
ACAD
 70
     0
  0
ENDTAB
  0
TABLE
  2
DIMSTYLE
  5
A
330
0
100
AcDbSymbolTable
 70
     1
100
AcDbDimStyleTable
 71
     0
  0
DIMSTYLE
105
389
330
A
100
AcDbSymbolTableRecord
100
AcDbDimStyleTableRecord
  2
Standard
 70
     0
340
11
  0
ENDTAB
  0
TABLE
  2
BLOCK_RECORD
  5
1
330
0
100
AcDbSymbolTable
 70
     0
  0
BLOCK_RECORD
  5
1E
330
1
100
AcDbSymbolTableRecord
100
AcDbBlockTableRecord
  2
*Model_Space
340
21
  0
BLOCK_RECORD
  5
1A
330
1
100
AcDbSymbolTableRecord
100
AcDbBlockTableRecord
  2
*Paper_Space
340
1D
  0
ENDTAB
  0
ENDSEC
  0
SECTION
  2
BLOCKS
  0
BLOCK
  5
1F
330
1E
100
AcDbEntity
  8
0
100
AcDbBlockBegin
  2
*Model_Space
 70
     0
 10
0.0
 20
0.0
 30
0.0
  3
*Model_Space
  1

  0
ENDBLK
  5
20
330
1E
100
AcDbEntity
  8
0
100
AcDbBlockEnd
  0
BLOCK
  5
1B
330
1A
100
AcDbEntity
 67
     1
  8
0
100
AcDbBlockBegin
  2
*Paper_Space
 70
     0
 10
0.0
 20
0.0
 30
0.0
  3
*Paper_Space
  1

  0
ENDBLK
  5
1C
330
1A
100
AcDbEntity
 67
     1
  8
0
100
AcDbBlockEnd
  0
ENDSEC
  0
SECTION
  2
ENTITIES
  0
LINE
  5
22
330
1E
100
AcDbEntity
  8
0
100
AcDbLine
 10
0.0
 20
200.0
 30
0.0
 11
700.0
 21
200.0
 31
0.0
  0
LINE
  5
23
330
1E
100
AcDbEntity
  8
0
100
AcDbLine
 10
0.0
 20
200.0
 30
0.0
 11
149.0
 21
150.0
 31
0.0
  0
LINE
  5
24
330
1E
100
AcDbEntity
  8
0
100
AcDbLine
 10
0.0
 20
0.0
 30
0.0
 11
149.0
 21
50.0
 31
0.0
  0
LINE
  5
25
330
1E
100
AcDbEntity
  8
0
100
AcDbLine
 10
0.0000000000000003
 20
200.0
 30
0.0
 11
700.0
 21
200.0
 31
0.0
  0
LINE
  5
26
330
1E
100
AcDbEntity
  8
0
100
AcDbLine
 10
0.0000000000000003
 20
200.0
 30
0.0
 11
0.0000000000000003
 21
0.0
 31
0.0
  0
LINE
  5
27
330
1E
100
AcDbEntity
  8
0
100
AcDbLine
 10
0.0000000000000003
 20
200.0
 30
0.0
 11
149.0
 21
150.0
 31
0.0
  0
LINE
  5
28
330
1E
100
AcDbEntity
  8
0
100
AcDbLine
 10
0.0000000000000003
 20
0.0000000000000022
 30
0.0
 11
0.0000000000000003
 21
200.0
 31
0.0
  0
LINE
  5
29
330
1E
100
AcDbEntity
  8
0
100
AcDbLine
 10
0.0000000000000003
 20
0.0000000000000022
 30
0.0
 11
149.0
 21
50.0
 31
0.0
  0
LINE
  5
2A
330
1E
100
AcDbEntity
  8
0
100
AcDbLine
 10
0.0
 20
-0.0000000000000009
 30
0.0
 11
700.0
 21
-0.0000000000000009
 31
0.0
  0
LINE
  5
2B
330
1E
100
AcDbEntity
  8
0
100
AcDbLine
 10
148.5039999999999
 20
106.5039999999999
 30
0.0
 11
151.048
 21
104.584
 31
0.0
  0
LINE
  5
2C
330
1E
100
AcDbEntity
  8
0
100
AcDbLine
 10
148.927
 20
114.5499999999999
 30
0.0
 11
149.126
 21
114.057
 31
0.0
  0
LINE
  5
2D
330
1E
100
AcDbEntity
  8
0
100
AcDbLine
 10
146.584
 20
109.0479999999999
 30
0.0
 11
148.5039999999999
 21
106.5039999999999
 31
0.0
  0
LINE
  5
2E
330
1E
100
AcDbEntity
  8
0
100
AcDbLine
 10
145.432
 20
111.928
 30
0.0
 11
146.584
 21
109.0479999999999
 31
0.0
  0
LINE
  5
2F
330
1E
100
AcDbEntity
  8
0
100
AcDbLine
 10
145.432
 20
118.0719999999999
 30
0.0
 11
146.584
 21
120.952
 31
0.0
  0
LINE
  5
30
330
1E
100
AcDbEntity
  8
0
100
AcDbLine
 10
148.9279999999999
 20
115.576
 30
0.0
 11
149.131
 21
116.0519999999999
 31
0.0
  0
LINE
  5
31
330
1E
100
AcDbEntity
  8
0
100
AcDbLine
 10
148.866
 20
115.0629999999999
 30
0.0
 11
148.9279999999999
 21
115.576
 31
0.0
  0
LINE
  5
32
330
1E
100
AcDbEntity
  8
0
100
AcDbLine
 10
148.866
 20
115.0629999999999
 30
0.0
 11
148.927
 21
114.5499999999999
 31
0.0
  0
LINE
  5
33
330
1E
100
AcDbEntity
  8
0
100
AcDbLine
 10
148.5039999999999
 20
123.496
 30
0.0
 11
151.048
 21
125.4159999999999
 31
0.0
  0
LINE
  5
34
330
1E
100
AcDbEntity
  8
0
100
AcDbLine
 10
146.584
 20
120.952
 30
0.0
 11
148.5039999999999
 21
123.496
 31
0.0
  0
LINE
  5
35
330
1E
100
AcDbEntity
  8
0
100
AcDbLine
 10
145.0
 20
115.0
 30
0.0
 11
145.432
 21
111.928
 31
0.0
  0
LINE
  5
36
330
1E
100
AcDbEntity
  8
0
100
AcDbLine
 10
145.0
 20
115.0
 30
0.0
 11
145.432
 21
118.0719999999999
 31
0.0
  0
LINE
  5
37
330
1E
100
AcDbEntity
  8
0
100
AcDbLine
 10
149.0
 20
123.870339622642
 30
0.0
 11
149.0
 21
150.0
 31
0.0
  0
LINE
  5
38
330
1E
100
AcDbEntity
  8
0
100
AcDbLine
 10
149.0
 20
123.870339622642
 30
0.0
 11
149.0
 21
150.0
 31
0.0
  0
LINE
  5
39
330
1E
100
AcDbEntity
  8
0
100
AcDbLine
 10
149.0
 20
50.0
 30
0.0
 11
149.0
 21
106.129660377359
 31
0.0
  0
LINE
  5
3A
330
1E
100
AcDbEntity
  8
0
100
AcDbLine
 10
149.0
 20
106.129660377359
 30
0.0
 11
149.0
 21
50.0
 31
0.0
  0
LINE
  5
3B
330
1E
100
AcDbEntity
  8
0
100
AcDbLine
 10
149.0
 20
50.0
 30
0.0
 11
149.0
 21
106.129660377359
 31
0.0
  0
LINE
  5
3C
330
1E
100
AcDbEntity
  8
0
100
AcDbLine
 10
149.0
 20
150.0
 30
0.0
 11
551.0
 21
150.0
 31
0.0
  0
LINE
  5
3D
330
1E
100
AcDbEntity
  8
0
100
AcDbLine
 10
149.0
 20
150.0
 30
0.0
 11
149.0
 21
123.870339622642
 31
0.0
  0
LINE
  5
3E
330
1E
100
AcDbEntity
  8
0
100
AcDbLine
 10
149.0
 20
150.0
 30
0.0
 11
551.0
 21
150.0
 31
0.0
  0
LINE
  5
3F
330
1E
100
AcDbEntity
  8
0
100
AcDbLine
 10
153.9279999999999
 20
103.432
 30
0.0
 11
157.2239999999999
 21
99.12799999999998
 31
0.0
  0
LINE
  5
40
330
1E
100
AcDbEntity
  8
0
100
AcDbLine
 10
150.3429999999999
 20
113.127
 30
0.0
 11
150.8559999999999
 21
113.0639999999999
 31
0.0
  0
LINE
  5
41
330
1E
100
AcDbEntity
  8
0
100
AcDbLine
 10
150.8559999999999
 20
113.0639999999999
 30
0.0
 11
151.3689999999999
 21
113.125
 31
0.0
  0
LINE
  5
42
330
1E
100
AcDbEntity
  8
0
100
AcDbLine
 10
151.3689999999999
 20
113.125
 30
0.0
 11
151.862
 21
113.325
 31
0.0
  0
LINE
  5
43
330
1E
100
AcDbEntity
  8
0
100
AcDbLine
 10
151.862
 20
113.325
 30
0.0
 11
152.28
 21
113.651
 31
0.0
  0
LINE
  5
44
330
1E
100
AcDbEntity
  8
0
100
AcDbLine
 10
149.867
 20
113.3289999999999
 30
0.0
 11
150.3429999999999
 21
113.127
 31
0.0
  0
LINE
  5
45
330
1E
100
AcDbEntity
  8
0
100
AcDbLine
 10
152.28
 20
113.651
 30
0.0
 11
152.59
 21
114.0649999999999
 31
0.0
  0
LINE
  5
46
330
1E
100
AcDbEntity
  8
0
100
AcDbLine
 10
152.7919999999999
 20
114.541
 30
0.0
 11
152.8549999999999
 21
115.054
 31
0.0
  0
LINE
  5
47
330
1E
100
AcDbEntity
  8
0
100
AcDbLine
 10
152.59
 20
114.0649999999999
 30
0.0
 11
152.7919999999999
 21
114.541
 31
0.0
  0
LINE
  5
48
330
1E
100
AcDbEntity
  8
0
100
AcDbLine
 10
149.453
 20
113.639
 30
0.0
 11
149.867
 21
113.3289999999999
 31
0.0
  0
LINE
  5
49
330
1E
100
AcDbEntity
  8
0
100
AcDbLine
 10
149.126
 20
114.057
 30
0.0
 11
149.453
 21
113.639
 31
0.0
  0
LINE
  5
4A
330
1E
100
AcDbEntity
  8
0
100
AcDbLine
 10
151.048
 20
104.584
 30
0.0
 11
153.9279999999999
 21
103.432
 31
0.0
  0
LINE
  5
4B
330
1E
100
AcDbEntity
  8
0
100
AcDbLine
 10
154.152
 20
106.8079999999999
 30
0.0
 11
157.2239999999999
 21
99.12799999999998
 31
0.0
  0
LINE
  5
4C
330
1E
100
AcDbEntity
  8
0
100
AcDbLine
 10
149.131
 20
116.0519999999999
 30
0.0
 11
149.4399999999999
 21
116.466
 31
0.0
  0
LINE
  5
4D
330
1E
100
AcDbEntity
  8
0
100
AcDbLine
 10
149.4399999999999
 20
116.466
 30
0.0
 11
149.859
 21
116.7929999999999
 31
0.0
  0
LINE
  5
4E
330
1E
100
AcDbEntity
  8
0
100
AcDbLine
 10
150.865
 20
117.054
 30
0.0
 11
151.3779999999999
 21
116.991
 31
0.0
  0
LINE
  5
4F
330
1E
100
AcDbEntity
  8
0
100
AcDbLine
 10
150.351
 20
116.992
 30
0.0
 11
150.865
 21
117.054
 31
0.0
  0
LINE
  5
50
330
1E
100
AcDbEntity
  8
0
100
AcDbLine
 10
149.859
 20
116.7929999999999
 30
0.0
 11
150.351
 21
116.992
 31
0.0
  0
LINE
  5
51
330
1E
100
AcDbEntity
  8
0
100
AcDbLine
 10
151.3779999999999
 20
116.991
 30
0.0
 11
151.8539999999999
 21
116.789
 31
0.0
  0
LINE
  5
52
330
1E
100
AcDbEntity
  8
0
100
AcDbLine
 10
151.8539999999999
 20
116.789
 30
0.0
 11
152.268
 21
116.4789999999999
 31
0.0
  0
LINE
  5
53
330
1E
100
AcDbEntity
  8
0
100
AcDbLine
 10
152.268
 20
116.4789999999999
 30
0.0
 11
152.5949999999999
 21
116.06
 31
0.0
  0
LINE
  5
54
330
1E
100
AcDbEntity
  8
0
100
AcDbLine
 10
152.5949999999999
 20
116.06
 30
0.0
 11
152.7939999999999
 21
115.568
 31
0.0
  0
LINE
  5
55
330
1E
100
AcDbEntity
  8
0
100
AcDbLine
 10
152.7939999999999
 20
115.568
 30
0.0
 11
152.8549999999999
 21
115.054
 31
0.0
  0
LINE
  5
56
330
1E
100
AcDbEntity
  8
0
100
AcDbLine
 10
153.0
 20
115.0
 30
0.0
 11
154.152
 21
123.192
 31
0.0
  0
LINE
  5
57
330
1E
100
AcDbEntity
  8
0
100
AcDbLine
 10
153.0
 20
115.0
 30
0.0
 11
154.152
 21
106.8079999999999
 31
0.0
  0
LINE
  5
58
330
1E
100
AcDbEntity
  8
0
100
AcDbLine
 10
405.0
 20
83.0
 30
0.0
 11
413.1919999999999
 21
84.152
 31
0.0
  0
LINE
  5
59
330
1E
100
AcDbEntity
  8
0
100
AcDbLine
 10
515.0
 20
83.0
 30
0.0
 11
523.192
 21
84.152
 31
0.0
  0
LINE
  5
5A
330
1E
100
AcDbEntity
  8
0
100
AcDbLine
 10
295.0
 20
83.0
 30
0.0
 11
303.1919999999999
 21
84.152
 31
0.0
  0
LINE
  5
5B
330
1E
100
AcDbEntity
  8
0
100
AcDbLine
 10
157.2239999999999
 20
99.12799999999998
 30
0.0
 11
162.3439999999999
 21
92.34400000000009
 31
0.0
  0
LINE
  5
5C
330
1E
100
AcDbEntity
  8
0
100
AcDbLine
 10
162.3439999999999
 20
92.34400000000009
 30
0.0
 11
169.1279999999999
 21
87.22399999999998
 31
0.0
  0
LINE
  5
5D
330
1E
100
AcDbEntity
  8
0
100
AcDbLine
 10
169.1279999999999
 20
87.22399999999998
 30
0.0
 11
176.8079999999999
 21
84.152
 31
0.0
  0
LINE
  5
5E
330
1E
100
AcDbEntity
  8
0
100
AcDbLine
 10
176.8079999999999
 20
84.152
 30
0.0
 11
185.0
 21
83.0
 31
0.0
  0
LINE
  5
5F
330
1E
100
AcDbEntity
  8
0
100
AcDbLine
 10
279.1279999999999
 20
87.22399999999998
 30
0.0
 11
286.8079999999999
 21
84.152
 31
0.0
  0
LINE
  5
60
330
1E
100
AcDbEntity
  8
0
100
AcDbLine
 10
286.8079999999999
 20
84.152
 30
0.0
 11
295.0
 21
83.0
 31
0.0
  0
LINE
  5
61
330
1E
100
AcDbEntity
  8
0
100
AcDbLine
 10
396.808
 20
84.152
 30
0.0
 11
405.0
 21
83.0
 31
0.0
  0
LINE
  5
62
330
1E
100
AcDbEntity
  8
0
100
AcDbLine
 10
413.1919999999999
 20
84.152
 30
0.0
 11
420.8719999999999
 21
87.22399999999998
 31
0.0
  0
LINE
  5
63
330
1E
100
AcDbEntity
  8
0
100
AcDbLine
 10
389.128
 20
87.22399999999998
 30
0.0
 11
396.808
 21
84.152
 31
0.0
  0
LINE
  5
64
330
1E
100
AcDbEntity
  8
0
100
AcDbLine
 10
420.8719999999999
 20
87.22399999999998
 30
0.0
 11
427.6559999999999
 21
92.34400000000009
 31
0.0
  0
LINE
  5
65
330
1E
100
AcDbEntity
  8
0
100
AcDbLine
 10
499.128
 20
87.22399999999998
 30
0.0
 11
506.8080000000001
 21
84.152
 31
0.0
  0
LINE
  5
66
330
1E
100
AcDbEntity
  8
0
100
AcDbLine
 10
506.8080000000001
 20
84.152
 30
0.0
 11
515.0
 21
83.0
 31
0.0
  0
LINE
  5
67
330
1E
100
AcDbEntity
  8
0
100
AcDbLine
 10
530.872
 20
87.22399999999998
 30
0.0
 11
537.6559999999999
 21
92.34400000000009
 31
0.0
  0
LINE
  5
68
330
1E
100
AcDbEntity
  8
0
100
AcDbLine
 10
523.192
 20
84.152
 30
0.0
 11
530.872
 21
87.22399999999998
 31
0.0
  0
LINE
  5
69
330
1E
100
AcDbEntity
  8
0
100
AcDbLine
 10
310.872
 20
87.22399999999998
 30
0.0
 11
317.656
 21
92.34400000000009
 31
0.0
  0
LINE
  5
6A
330
1E
100
AcDbEntity
  8
0
100
AcDbLine
 10
303.1919999999999
 20
84.152
 30
0.0
 11
310.872
 21
87.22399999999998
 31
0.0
  0
LINE
  5
6B
330
1E
100
AcDbEntity
  8
0
100
AcDbLine
 10
288.0879999999999
 20
88.97200000000001
 30
0.0
 11
295.0
 21
88.0
 31
0.0
  0
LINE
  5
6C
330
1E
100
AcDbEntity
  8
0
100
AcDbLine
 10
295.0
 20
88.0
 30
0.0
 11
301.912
 21
88.97200000000001
 31
0.0
  0
LINE
  5
6D
330
1E
100
AcDbEntity
  8
0
100
AcDbLine
 10
288.856
 20
91.86399999999999
 30
0.0
 11
295.0
 21
91.0
 31
0.0
  0
LINE
  5
6E
330
1E
100
AcDbEntity
  8
0
100
AcDbLine
 10
295.0
 20
91.0
 30
0.0
 11
301.144
 21
91.86399999999999
 31
0.0
  0
LINE
  5
6F
330
1E
100
AcDbEntity
  8
0
100
AcDbLine
 10
301.144
 20
91.86399999999999
 30
0.0
 11
306.904
 21
94.168
 31
0.0
  0
LINE
  5
70
330
1E
100
AcDbEntity
  8
0
100
AcDbLine
 10
281.6079999999999
 20
91.5640000000001
 30
0.0
 11
288.0879999999999
 21
88.97200000000001
 31
0.0
  0
LINE
  5
71
330
1E
100
AcDbEntity
  8
0
100
AcDbLine
 10
301.912
 20
88.97200000000001
 30
0.0
 11
308.3919999999999
 21
91.5640000000001
 31
0.0
  0
LINE
  5
72
330
1E
100
AcDbEntity
  8
0
100
AcDbLine
 10
308.3919999999999
 20
91.5640000000001
 30
0.0
 11
314.1159999999999
 21
95.884
 31
0.0
  0
LINE
  5
73
330
1E
100
AcDbEntity
  8
0
100
AcDbLine
 10
283.096
 20
94.168
 30
0.0
 11
288.856
 21
91.86399999999999
 31
0.0
  0
LINE
  5
74
330
1E
100
AcDbEntity
  8
0
100
AcDbLine
 10
306.904
 20
94.168
 30
0.0
 11
311.992
 21
98.008
 31
0.0
  0
LINE
  5
75
330
1E
100
AcDbEntity
  8
0
100
AcDbLine
 10
275.884
 20
95.884
 30
0.0
 11
281.6079999999999
 21
91.5640000000001
 31
0.0
  0
LINE
  5
76
330
1E
100
AcDbEntity
  8
0
100
AcDbLine
 10
278.0079999999999
 20
98.008
 30
0.0
 11
283.096
 21
94.168
 31
0.0
  0
LINE
  5
77
330
1E
100
AcDbEntity
  8
0
100
AcDbLine
 10
278.0079999999999
 20
98.008
 30
0.0
 11
283.096
 21
94.168
 31
0.0
  0
LINE
  5
78
330
1E
100
AcDbEntity
  8
0
100
AcDbLine
 10
311.992
 20
98.008
 30
0.0
 11
315.8319999999999
 21
103.096
 31
0.0
  0
LINE
  5
79
330
1E
100
AcDbEntity
  8
0
100
AcDbLine
 10
314.1159999999999
 20
95.884
 30
0.0
 11
318.4359999999999
 21
101.6079999999999
 31
0.0
  0
LINE
  5
7A
330
1E
100
AcDbEntity
  8
0
100
AcDbLine
 10
267.2239999999999
 20
99.12799999999998
 30
0.0
 11
272.344
 21
92.34400000000009
 31
0.0
  0
LINE
  5
7B
330
1E
100
AcDbEntity
  8
0
100
AcDbLine
 10
272.344
 20
92.34400000000009
 30
0.0
 11
279.1279999999999
 21
87.22399999999998
 31
0.0
  0
LINE
  5
7C
330
1E
100
AcDbEntity
  8
0
100
AcDbLine
 10
382.344
 20
92.34400000000009
 30
0.0
 11
389.128
 21
87.22399999999998
 31
0.0
  0
LINE
  5
7D
330
1E
100
AcDbEntity
  8
0
100
AcDbLine
 10
427.6559999999999
 20
92.34400000000009
 30
0.0
 11
432.776
 21
99.12799999999998
 31
0.0
  0
LINE
  5
7E
330
1E
100
AcDbEntity
  8
0
100
AcDbLine
 10
395.0
 20
97.76839999999999
 30
0.0
 11
399.7459999999999
 21
95.73449999999999
 31
0.0
  0
LINE
  5
7F
330
1E
100
AcDbEntity
  8
0
100
AcDbLine
 10
399.7459999999999
 20
95.73449999999999
 30
0.0
 11
405.0
 21
95.0
 31
0.0
  0
LINE
  5
80
330
1E
100
AcDbEntity
  8
0
100
AcDbLine
 10
405.0
 20
95.0
 30
0.0
 11
410.254
 21
95.73449999999999
 31
0.0
  0
LINE
  5
81
330
1E
100
AcDbEntity
  8
0
100
AcDbLine
 10
410.254
 20
95.73449999999999
 30
0.0
 11
415.0
 21
97.76839999999999
 31
0.0
  0
LINE
  5
82
330
1E
100
AcDbEntity
  8
0
100
AcDbLine
 10
415.0
 20
97.76839999999999
 30
0.0
 11
419.124
 21
100.8756999999999
 31
0.0
  0
LINE
  5
83
330
1E
100
AcDbEntity
  8
0
100
AcDbLine
 10
377.224
 20
99.12799999999998
 30
0.0
 11
382.344
 21
92.34400000000009
 31
0.0
  0
LINE
  5
84
330
1E
100
AcDbEntity
  8
0
100
AcDbLine
 10
432.776
 20
99.12799999999998
 30
0.0
 11
435.848
 21
106.8079999999999
 31
0.0
  0
LINE
  5
85
330
1E
100
AcDbEntity
  8
0
100
AcDbLine
 10
432.776
 20
99.12799999999998
 30
0.0
 11
436.0719999999999
 21
103.432
 31
0.0
  0
LINE
  5
86
330
1E
100
AcDbEntity
  8
0
100
AcDbLine
 10
487.2239999999999
 20
99.12799999999998
 30
0.0
 11
492.344
 21
92.34400000000009
 31
0.0
  0
LINE
  5
87
330
1E
100
AcDbEntity
  8
0
100
AcDbLine
 10
492.344
 20
92.34400000000009
 30
0.0
 11
499.128
 21
87.22399999999998
 31
0.0
  0
LINE
  5
88
330
1E
100
AcDbEntity
  8
0
100
AcDbLine
 10
542.7759999999999
 20
99.12799999999998
 30
0.0
 11
545.848
 21
106.8079999999999
 31
0.0
  0
LINE
  5
89
330
1E
100
AcDbEntity
  8
0
100
AcDbLine
 10
542.7759999999999
 20
99.12799999999998
 30
0.0
 11
546.072
 21
103.432
 31
0.0
  0
LINE
  5
8A
330
1E
100
AcDbEntity
  8
0
100
AcDbLine
 10
537.6559999999999
 20
92.34400000000009
 30
0.0
 11
542.7759999999999
 21
99.12799999999998
 31
0.0
  0
LINE
  5
8B
330
1E
100
AcDbEntity
  8
0
100
AcDbLine
 10
322.7759999999999
 20
99.12799999999998
 30
0.0
 11
325.848
 21
106.8079999999999
 31
0.0
  0
LINE
  5
8C
330
1E
100
AcDbEntity
  8
0
100
AcDbLine
 10
322.7759999999999
 20
99.12799999999998
 30
0.0
 11
326.072
 21
103.432
 31
0.0
  0
LINE
  5
8D
330
1E
100
AcDbEntity
  8
0
100
AcDbLine
 10
317.656
 20
92.34400000000009
 30
0.0
 11
322.7759999999999
 21
99.12799999999998
 31
0.0
  0
LINE
  5
8E
330
1E
100
AcDbEntity
  8
0
100
AcDbLine
 10
216.0719999999999
 20
103.432
 30
0.0
 11
218.9519999999999
 21
104.584
 31
0.0
  0
LINE
  5
97
330
1E
100
AcDbEntity
  8
0
100
AcDbLine
 10
218.9519999999999
 20
104.584
 30
0.0
 11
221.496
 21
106.5039999999999
 31
0.0
  0
LINE
  5
98
330
1E
100
AcDbEntity
  8
0
100
AcDbLine
 10
221.496
 20
106.5039999999999
 30
0.0
 11
223.416
 21
109.0479999999999
 31
0.0
  0
LINE
  5
A7
330
1E
100
AcDbEntity
  8
0
100
AcDbLine
 10
260.5709999999999
 20
102.459
 30
0.0
 11
260.5709999999999
 21
102.2726999999999
 31
0.0
  0
LINE
  5
A8
330
1E
100
AcDbEntity
  8
0
100
AcDbLine
 10
260.5709999999999
 20
102.2726999999999
 30
0.0
 11
261.1429999999999
 21
102.0
 31
0.0
  0
LINE
  5
A9
330
1E
100
AcDbEntity
  8
0
100
AcDbLine
 10
260.5709999999999
 20
102.2726999999999
 30
0.0
 11
260.5709999999999
 21
102.459
 31
0.0
  0
LINE
  5
BE
330
1E
100
AcDbEntity
  8
0
100
AcDbLine
 10
225.409
 20
105.0
 30
0.0
 11
226.608
 21
105.0
 31
0.0
  0
LINE
  5
BF
330
1E
100
AcDbEntity
  8
0
100
AcDbLine
 10
219.5031999999999
 20
105.0
 30
0.0
 11
225.409
 21
105.0
 31
0.0
  0
LINE
  5
C0
330
1E
100
AcDbEntity
  8
0
100
AcDbLine
 10
231.0
 20
105.0
 30
0.0
 11
233.894
 21
105.0
 31
0.0
  0
LINE
  5
C1
330
1E
100
AcDbEntity
  8
0
100
AcDbLine
 10
228.5149999999999
 20
105.0
 30
0.0
 11
231.0
 21
105.0
 31
0.0
  0
LINE
  5
C2
330
1E
100
AcDbEntity
  8
0
100
AcDbLine
 10
237.0
 20
105.0
 30
0.0
 11
260.0
 21
105.0
 31
0.0
  0
LINE
  5
C3
330
1E
100
AcDbEntity
  8
0
100
AcDbLine
 10
233.894
 20
105.0
 30
0.0
 11
237.0
 21
105.0
 31
0.0
  0
LINE
  5
C5
330
1E
100
AcDbEntity
  8
0
100
AcDbLine
 10
226.608
 20
105.0
 30
0.0
 11
228.5149999999999
 21
105.0
 31
0.0
  0
LINE
  5
CD
330
1E
100
AcDbEntity
  8
0
100
AcDbLine
 10
260.0
 20
105.0
 30
0.0
 11
260.0
 21
105.36
 31
0.0
  0
LINE
  5
D3
330
1E
100
AcDbEntity
  8
0
100
AcDbLine
 10
260.0
 20
105.3749433962259
 30
0.0
 11
260.0
 21
105.2726999999999
 31
0.0
  0
LINE
  5
D4
330
1E
100
AcDbEntity
  8
0
100
AcDbLine
 10
260.0
 20
105.2726999999999
 30
0.0
 11
260.0
 21
105.3749433962259
 31
0.0
  0
LINE
  5
D6
330
1E
100
AcDbEntity
  8
0
100
AcDbLine
 10
260.0
 20
105.2726999999999
 30
0.0
 11
260.0
 21
104.2908999999999
 31
0.0
  0
LINE
  5
D7
330
1E
100
AcDbEntity
  8
0
100
AcDbLine
 10
260.0
 20
104.2908999999999
 30
0.0
 11
260.0
 21
103.9090999999999
 31
0.0
  0
LINE
  5
D9
330
1E
100
AcDbEntity
  8
0
100
AcDbLine
 10
260.0
 20
104.2908999999999
 30
0.0
 11
260.0
 21
105.2726999999999
 31
0.0
  0
LINE
  5
DB
330
1E
100
AcDbEntity
  8
0
100
AcDbLine
 10
260.239
 20
103.3433999999999
 30
0.0
 11
260.5709999999999
 21
102.459
 31
0.0
  0
LINE
  5
DD
330
1E
100
AcDbEntity
  8
0
100
AcDbLine
 10
260.1159999999999
 20
104.7949999999999
 30
0.0
 11
260.145626845412
 21
105.2650363430849
 31
0.0
  0
LINE
  5
DE
330
1E
100
AcDbEntity
  8
0
100
AcDbLine
 10
260.1159999999999
 20
104.7949999999999
 30
0.0
 11
260.239
 21
103.3433999999999
 31
0.0
  0
LINE
  5
DF
330
1E
100
AcDbEntity
  8
0
100
AcDbLine
 10
260.0
 20
103.9090999999999
 30
0.0
 11
260.171
 21
103.0909
 31
0.0
  0
LINE
  5
E0
330
1E
100
AcDbEntity
  8
0
100
AcDbLine
 10
260.0
 20
103.9090999999999
 30
0.0
 11
260.0
 21
104.2908999999999
 31
0.0
  0
LINE
  5
E1
330
1E
100
AcDbEntity
  8
0
100
AcDbLine
 10
260.171
 20
103.0909
 30
0.0
 11
260.5709999999999
 21
102.2726999999999
 31
0.0
  0
LINE
  5
E3
330
1E
100
AcDbEntity
  8
0
100
AcDbLine
 10
261.1429999999999
 20
102.0
 30
0.0
 11
265.024624535316
 21
102.0
 31
0.0
  0
LINE
  5
E4
330
1E
100
AcDbEntity
  8
0
100
AcDbLine
 10
263.9279999999999
 20
103.432
 30
0.0
 11
267.2239999999999
 21
99.12799999999998
 31
0.0
  0
LINE
  5
E5
330
1E
100
AcDbEntity
  8
0
100
AcDbLine
 10
261.0479999999999
 20
104.584
 30
0.0
 11
263.9279999999999
 21
103.432
 31
0.0
  0
LINE
  5
E6
330
1E
100
AcDbEntity
  8
0
100
AcDbLine
 10
256.584
 20
109.0479999999999
 30
0.0
 11
258.504
 21
106.5039999999999
 31
0.0
  0
LINE
  5
E7
330
1E
100
AcDbEntity
  8
0
100
AcDbLine
 10
255.432
 20
111.928
 30
0.0
 11
256.584
 21
109.0479999999999
 31
0.0
  0
LINE
  5
E8
330
1E
100
AcDbEntity
  8
0
100
AcDbLine
 10
258.504
 20
106.5039999999999
 30
0.0
 11
261.0479999999999
 21
104.584
 31
0.0
  0
LINE
  5
E9
330
1E
100
AcDbEntity
  8
0
100
AcDbLine
 10
223.416
 20
109.0479999999999
 30
0.0
 11
224.5679999999999
 21
111.928
 31
0.0
  0
LINE
  5
EA
330
1E
100
AcDbEntity
  8
0
100
AcDbLine
 10
219.144
 20
113.0639999999999
 30
0.0
 11
219.657
 21
113.127
 31
0.0
  0
LINE
  5
EB
330
1E
100
AcDbEntity
  8
0
100
AcDbLine
 10
218.6309999999999
 20
113.125
 30
0.0
 11
219.144
 21
113.0639999999999
 31
0.0
  0
LINE
  5
EC
330
1E
100
AcDbEntity
  8
0
100
AcDbLine
 10
218.138
 20
113.325
 30
0.0
 11
218.6309999999999
 21
113.125
 31
0.0
  0
LINE
  5
ED
330
1E
100
AcDbEntity
  8
0
100
AcDbLine
 10
219.657
 20
113.127
 30
0.0
 11
220.133
 21
113.3289999999999
 31
0.0
  0
LINE
  5
EE
330
1E
100
AcDbEntity
  8
0
100
AcDbLine
 10
217.72
 20
113.651
 30
0.0
 11
218.138
 21
113.325
 31
0.0
  0
LINE
  5
EF
330
1E
100
AcDbEntity
  8
0
100
AcDbLine
 10
220.133
 20
113.3289999999999
 30
0.0
 11
220.547
 21
113.639
 31
0.0
  0
LINE
  5
F0
330
1E
100
AcDbEntity
  8
0
100
AcDbLine
 10
220.547
 20
113.639
 30
0.0
 11
220.874
 21
114.057
 31
0.0
  0
LINE
  5
F1
330
1E
100
AcDbEntity
  8
0
100
AcDbLine
 10
217.41
 20
114.0649999999999
 30
0.0
 11
217.72
 21
113.651
 31
0.0
  0
LINE
  5
F2
330
1E
100
AcDbEntity
  8
0
100
AcDbLine
 10
217.208
 20
114.541
 30
0.0
 11
217.41
 21
114.0649999999999
 31
0.0
  0
LINE
  5
F3
330
1E
100
AcDbEntity
  8
0
100
AcDbLine
 10
220.874
 20
114.057
 30
0.0
 11
221.0729999999999
 21
114.5499999999999
 31
0.0
  0
LINE
  5
F4
330
1E
100
AcDbEntity
  8
0
100
AcDbLine
 10
260.856
 20
113.0639999999999
 30
0.0
 11
261.369
 21
113.125
 31
0.0
  0
LINE
  5
F5
330
1E
100
AcDbEntity
  8
0
100
AcDbLine
 10
260.343
 20
113.127
 30
0.0
 11
260.856
 21
113.0639999999999
 31
0.0
  0
LINE
  5
F6
330
1E
100
AcDbEntity
  8
0
100
AcDbLine
 10
261.369
 20
113.125
 30
0.0
 11
261.862
 21
113.325
 31
0.0
  0
LINE
  5
F7
330
1E
100
AcDbEntity
  8
0
100
AcDbLine
 10
261.862
 20
113.325
 30
0.0
 11
262.2799999999999
 21
113.651
 31
0.0
  0
LINE
  5
F8
330
1E
100
AcDbEntity
  8
0
100
AcDbLine
 10
262.2799999999999
 20
113.651
 30
0.0
 11
262.5899999999999
 21
114.0649999999999
 31
0.0
  0
LINE
  5
F9
330
1E
100
AcDbEntity
  8
0
100
AcDbLine
 10
259.867
 20
113.3289999999999
 30
0.0
 11
260.343
 21
113.127
 31
0.0
  0
LINE
  5
FA
330
1E
100
AcDbEntity
  8
0
100
AcDbLine
 10
259.4529999999999
 20
113.639
 30
0.0
 11
259.867
 21
113.3289999999999
 31
0.0
  0
LINE
  5
FB
330
1E
100
AcDbEntity
  8
0
100
AcDbLine
 10
262.792
 20
114.541
 30
0.0
 11
262.855
 21
115.054
 31
0.0
  0
LINE
  5
FC
330
1E
100
AcDbEntity
  8
0
100
AcDbLine
 10
262.5899999999999
 20
114.0649999999999
 30
0.0
 11
262.792
 21
114.541
 31
0.0
  0
LINE
  5
FD
330
1E
100
AcDbEntity
  8
0
100
AcDbLine
 10
259.1259999999999
 20
114.057
 30
0.0
 11
259.4529999999999
 21
113.639
 31
0.0
  0
LINE
  5
FE
330
1E
100
AcDbEntity
  8
0
100
AcDbLine
 10
258.927
 20
114.5499999999999
 30
0.0
 11
259.1259999999999
 21
114.057
 31
0.0
  0
LINE
  5
FF
330
1E
100
AcDbEntity
  8
0
100
AcDbLine
 10
255.0
 20
115.0
 30
0.0
 11
255.432
 21
111.928
 31
0.0
  0
LINE
  5
100
330
1E
100
AcDbEntity
  8
0
100
AcDbLine
 10
255.0
 20
115.0
 30
0.0
 11
255.432
 21
118.0719999999999
 31
0.0
  0
LINE
  5
101
330
1E
100
AcDbEntity
  8
0
100
AcDbLine
 10
221.0729999999999
 20
114.5499999999999
 30
0.0
 11
221.134
 21
115.0629999999999
 31
0.0
  0
LINE
  5
102
330
1E
100
AcDbEntity
  8
0
100
AcDbLine
 10
224.5679999999999
 20
111.928
 30
0.0
 11
225.0
 21
115.0
 31
0.0
  0
LINE
  5
103
330
1E
100
AcDbEntity
  8
0
100
AcDbLine
 10
264.1519999999999
 20
106.8079999999999
 30
0.0
 11
267.2239999999999
 21
99.12799999999998
 31
0.0
  0
LINE
  5
104
330
1E
100
AcDbEntity
  8
0
100
AcDbLine
 10
220.869
 20
116.0519999999999
 30
0.0
 11
221.072
 21
115.576
 31
0.0
  0
LINE
  5
105
330
1E
100
AcDbEntity
  8
0
100
AcDbLine
 10
220.56
 20
116.466
 30
0.0
 11
220.869
 21
116.0519999999999
 31
0.0
  0
LINE
  5
106
330
1E
100
AcDbEntity
  8
0
100
AcDbLine
 10
218.622
 20
116.991
 30
0.0
 11
219.1349999999999
 21
117.054
 31
0.0
  0
LINE
  5
107
330
1E
100
AcDbEntity
  8
0
100
AcDbLine
 10
219.1349999999999
 20
117.054
 30
0.0
 11
219.649
 21
116.992
 31
0.0
  0
LINE
  5
108
330
1E
100
AcDbEntity
  8
0
100
AcDbLine
 10
219.649
 20
116.992
 30
0.0
 11
220.141
 21
116.7929999999999
 31
0.0
  0
LINE
  5
109
330
1E
100
AcDbEntity
  8
0
100
AcDbLine
 10
220.141
 20
116.7929999999999
 30
0.0
 11
220.56
 21
116.466
 31
0.0
  0
LINE
  5
10A
330
1E
100
AcDbEntity
  8
0
100
AcDbLine
 10
218.1459999999999
 20
116.789
 30
0.0
 11
218.622
 21
116.991
 31
0.0
  0
LINE
  5
10B
330
1E
100
AcDbEntity
  8
0
100
AcDbLine
 10
217.7319999999999
 20
116.4789999999999
 30
0.0
 11
218.1459999999999
 21
116.789
 31
0.0
  0
LINE
  5
10C
330
1E
100
AcDbEntity
  8
0
100
AcDbLine
 10
217.405
 20
116.06
 30
0.0
 11
217.7319999999999
 21
116.4789999999999
 31
0.0
  0
LINE
  5
10D
330
1E
100
AcDbEntity
  8
0
100
AcDbLine
 10
217.206
 20
115.568
 30
0.0
 11
217.405
 21
116.06
 31
0.0
  0
LINE
  5
10E
330
1E
100
AcDbEntity
  8
0
100
AcDbLine
 10
217.145
 20
115.054
 30
0.0
 11
217.208
 21
114.541
 31
0.0
  0
LINE
  5
10F
330
1E
100
AcDbEntity
  8
0
100
AcDbLine
 10
217.145
 20
115.054
 30
0.0
 11
217.206
 21
115.568
 31
0.0
  0
LINE
  5
110
330
1E
100
AcDbEntity
  8
0
100
AcDbLine
 10
221.072
 20
115.576
 30
0.0
 11
221.134
 21
115.0629999999999
 31
0.0
  0
LINE
  5
111
330
1E
100
AcDbEntity
  8
0
100
AcDbLine
 10
223.416
 20
120.952
 30
0.0
 11
224.5679999999999
 21
118.0719999999999
 31
0.0
  0
LINE
  5
112
330
1E
100
AcDbEntity
  8
0
100
AcDbLine
 10
259.1309999999999
 20
116.0519999999999
 30
0.0
 11
259.4399999999999
 21
116.466
 31
0.0
  0
LINE
  5
113
330
1E
100
AcDbEntity
  8
0
100
AcDbLine
 10
258.928
 20
115.576
 30
0.0
 11
259.1309999999999
 21
116.0519999999999
 31
0.0
  0
LINE
  5
114
330
1E
100
AcDbEntity
  8
0
100
AcDbLine
 10
259.4399999999999
 20
116.466
 30
0.0
 11
259.859
 21
116.7929999999999
 31
0.0
  0
LINE
  5
115
330
1E
100
AcDbEntity
  8
0
100
AcDbLine
 10
255.432
 20
118.0719999999999
 30
0.0
 11
256.584
 21
120.952
 31
0.0
  0
LINE
  5
116
330
1E
100
AcDbEntity
  8
0
100
AcDbLine
 10
256.584
 20
120.952
 30
0.0
 11
258.504
 21
123.496
 31
0.0
  0
LINE
  5
117
330
1E
100
AcDbEntity
  8
0
100
AcDbLine
 10
260.865
 20
117.054
 30
0.0
 11
261.3779999999999
 21
116.991
 31
0.0
  0
LINE
  5
118
330
1E
100
AcDbEntity
  8
0
100
AcDbLine
 10
260.3509999999999
 20
116.992
 30
0.0
 11
260.865
 21
117.054
 31
0.0
  0
LINE
  5
119
330
1E
100
AcDbEntity
  8
0
100
AcDbLine
 10
259.859
 20
116.7929999999999
 30
0.0
 11
260.3509999999999
 21
116.992
 31
0.0
  0
LINE
  5
11A
330
1E
100
AcDbEntity
  8
0
100
AcDbLine
 10
261.3779999999999
 20
116.991
 30
0.0
 11
261.854
 21
116.789
 31
0.0
  0
LINE
  5
11B
330
1E
100
AcDbEntity
  8
0
100
AcDbLine
 10
261.854
 20
116.789
 30
0.0
 11
262.2679999999999
 21
116.4789999999999
 31
0.0
  0
LINE
  5
11C
330
1E
100
AcDbEntity
  8
0
100
AcDbLine
 10
262.2679999999999
 20
116.4789999999999
 30
0.0
 11
262.595
 21
116.06
 31
0.0
  0
LINE
  5
11D
330
1E
100
AcDbEntity
  8
0
100
AcDbLine
 10
262.595
 20
116.06
 30
0.0
 11
262.794
 21
115.568
 31
0.0
  0
LINE
  5
11E
330
1E
100
AcDbEntity
  8
0
100
AcDbLine
 10
262.794
 20
115.568
 30
0.0
 11
262.855
 21
115.054
 31
0.0
  0
LINE
  5
11F
330
1E
100
AcDbEntity
  8
0
100
AcDbLine
 10
258.8659999999999
 20
115.0629999999999
 30
0.0
 11
258.928
 21
115.576
 31
0.0
  0
LINE
  5
120
330
1E
100
AcDbEntity
  8
0
100
AcDbLine
 10
258.8659999999999
 20
115.0629999999999
 30
0.0
 11
258.927
 21
114.5499999999999
 31
0.0
  0
LINE
  5
121
330
1E
100
AcDbEntity
  8
0
100
AcDbLine
 10
224.5679999999999
 20
118.0719999999999
 30
0.0
 11
225.0
 21
115.0
 31
0.0
  0
LINE
  5
122
330
1E
100
AcDbEntity
  8
0
100
AcDbLine
 10
263.0
 20
115.0
 30
0.0
 11
264.1519999999999
 21
123.192
 31
0.0
  0
LINE
  5
123
330
1E
100
AcDbEntity
  8
0
100
AcDbLine
 10
263.0
 20
115.0
 30
0.0
 11
264.1519999999999
 21
106.8079999999999
 31
0.0
  0
LINE
  5
124
330
1E
100
AcDbEntity
  8
0
100
AcDbLine
 10
291.4159999999999
 20
101.5039999999999
 30
0.0
 11
295.0
 21
101.0
 31
0.0
  0
LINE
  5
125
330
1E
100
AcDbEntity
  8
0
100
AcDbLine
 10
295.0
 20
101.0
 30
0.0
 11
298.5839999999999
 21
101.5039999999999
 31
0.0
  0
LINE
  5
126
330
1E
100
AcDbEntity
  8
0
100
AcDbLine
 10
274.168
 20
103.096
 30
0.0
 11
278.0079999999999
 21
98.008
 31
0.0
  0
LINE
  5
127
330
1E
100
AcDbEntity
  8
0
100
AcDbLine
 10
274.168
 20
103.096
 30
0.0
 11
278.0079999999999
 21
98.008
 31
0.0
  0
LINE
  5
128
330
1E
100
AcDbEntity
  8
0
100
AcDbLine
 10
271.564
 20
101.6079999999999
 30
0.0
 11
275.884
 21
95.884
 31
0.0
  0
LINE
  5
129
330
1E
100
AcDbEntity
  8
0
100
AcDbLine
 10
288.056
 20
102.848
 30
0.0
 11
291.4159999999999
 21
101.5039999999999
 31
0.0
  0
LINE
  5
12A
330
1E
100
AcDbEntity
  8
0
100
AcDbLine
 10
285.0879999999999
 20
105.088
 30
0.0
 11
288.056
 21
102.848
 31
0.0
  0
LINE
  5
12B
330
1E
100
AcDbEntity
  8
0
100
AcDbLine
 10
298.5839999999999
 20
101.5039999999999
 30
0.0
 11
301.944
 21
102.848
 31
0.0
  0
LINE
  5
12C
330
1E
100
AcDbEntity
  8
0
100
AcDbLine
 10
362.0
 20
100.0
 30
0.0
 11
376.556223048327
 21
100.0
 31
0.0
  0
LINE
  5
12D
330
1E
100
AcDbEntity
  8
0
100
AcDbLine
 10
352.0
 20
100.0
 30
0.0
 11
362.0
 21
100.0
 31
0.0
  0
LINE
  5
12E
330
1E
100
AcDbEntity
  8
0
100
AcDbLine
 10
323.443776951673
 20
100.0
 30
0.0
 11
352.0
 21
100.0
 31
0.0
  0
LINE
  5
12F
330
1E
100
AcDbEntity
  8
0
100
AcDbLine
 10
373.928
 20
103.432
 30
0.0
 11
377.224
 21
99.12799999999998
 31
0.0
  0
LINE
  5
130
330
1E
100
AcDbEntity
  8
0
100
AcDbLine
 10
371.048
 20
104.584
 30
0.0
 11
373.928
 21
103.432
 31
0.0
  0
LINE
  5
131
330
1E
100
AcDbEntity
  8
0
100
AcDbLine
 10
326.072
 20
103.432
 30
0.0
 11
328.9519999999999
 21
104.584
 31
0.0
  0
LINE
  5
132
330
1E
100
AcDbEntity
  8
0
100
AcDbLine
 10
328.9519999999999
 20
104.584
 30
0.0
 11
331.4959999999999
 21
106.5039999999999
 31
0.0
  0
LINE
  5
133
330
1E
100
AcDbEntity
  8
0
100
AcDbLine
 10
315.8319999999999
 20
103.096
 30
0.0
 11
318.1359999999999
 21
108.856
 31
0.0
  0
LINE
  5
134
330
1E
100
AcDbEntity
  8
0
100
AcDbLine
 10
318.4359999999999
 20
101.6079999999999
 30
0.0
 11
321.028
 21
108.088
 31
0.0
  0
LINE
  5
135
330
1E
100
AcDbEntity
  8
0
100
AcDbLine
 10
301.944
 20
102.848
 30
0.0
 11
304.912
 21
105.088
 31
0.0
  0
LINE
  5
136
330
1E
100
AcDbEntity
  8
0
100
AcDbLine
 10
368.504
 20
106.5039999999999
 30
0.0
 11
371.048
 21
104.584
 31
0.0
  0
LINE
  5
137
330
1E
100
AcDbEntity
  8
0
100
AcDbLine
 10
331.4959999999999
 20
106.5039999999999
 30
0.0
 11
333.416
 21
109.0479999999999
 31
0.0
  0
LINE
  5
138
330
1E
100
AcDbEntity
  8
0
100
AcDbLine
 10
304.912
 20
105.088
 30
0.0
 11
307.152
 21
108.0559999999999
 31
0.0
  0
LINE
  5
139
330
1E
100
AcDbEntity
  8
0
100
AcDbLine
 10
419.124
 20
100.8756999999999
 30
0.0
 11
422.2319999999999
 21
105.0
 31
0.0
  0
LINE
  5
13A
330
1E
100
AcDbEntity
  8
0
100
AcDbLine
 10
422.2319999999999
 20
105.0
 30
0.0
 11
424.2659999999999
 21
109.7458
 31
0.0
  0
LINE
  5
13B
330
1E
100
AcDbEntity
  8
0
100
AcDbLine
 10
390.876
 20
100.8756999999999
 30
0.0
 11
395.0
 21
97.76839999999999
 31
0.0
  0
LINE
  5
13C
330
1E
100
AcDbEntity
  8
0
100
AcDbLine
 10
387.768
 20
105.0
 30
0.0
 11
390.876
 21
100.8756999999999
 31
0.0
  0
LINE
  5
13D
330
1E
100
AcDbEntity
  8
0
100
AcDbLine
 10
374.1519999999999
 20
106.8079999999999
 30
0.0
 11
377.224
 21
99.12799999999998
 31
0.0
  0
LINE
  5
13E
330
1E
100
AcDbEntity
  8
0
100
AcDbLine
 10
437.5709999999999
 20
102.459
 30
0.0
 11
437.5709999999999
 21
102.2726999999999
 31
0.0
  0
LINE
  5
13F
330
1E
100
AcDbEntity
  8
0
100
AcDbLine
 10
437.5709999999999
 20
102.2726999999999
 30
0.0
 11
438.143
 21
102.0
 31
0.0
  0
LINE
  5
140
330
1E
100
AcDbEntity
  8
0
100
AcDbLine
 10
437.5709999999999
 20
102.2726999999999
 30
0.0
 11
437.5709999999999
 21
102.459
 31
0.0
  0
LINE
  5
141
330
1E
100
AcDbEntity
  8
0
100
AcDbLine
 10
437.239
 20
103.3433999999999
 30
0.0
 11
437.5709999999999
 21
102.459
 31
0.0
  0
LINE
  5
143
330
1E
100
AcDbEntity
  8
0
100
AcDbLine
 10
437.171
 20
103.0909
 30
0.0
 11
437.5709999999999
 21
102.2726999999999
 31
0.0
  0
LINE
  5
145
330
1E
100
AcDbEntity
  8
0
100
AcDbLine
 10
438.143
 20
102.0
 30
0.0
 11
443.8569999999999
 21
102.0
 31
0.0
  0
LINE
  5
148
330
1E
100
AcDbEntity
  8
0
100
AcDbLine
 10
437.1931236344259
 20
103.8804494537699
 30
0.0
 11
437.239
 21
103.3433999999999
 31
0.0
  0
LINE
  5
149
330
1E
100
AcDbEntity
  8
0
100
AcDbLine
 10
437.020425107151
 20
103.8113700428599
 30
0.0
 11
437.171
 21
103.0909
 31
0.0
  0
LINE
  5
14A
330
1E
100
AcDbEntity
  8
0
100
AcDbLine
 10
436.0719999999999
 20
103.432
 30
0.0
 11
438.952
 21
104.584
 31
0.0
  0
LINE
  5
14B
330
1E
100
AcDbEntity
  8
0
100
AcDbLine
 10
443.8569999999999
 20
102.0
 30
0.0
 11
444.429
 21
102.2726999999999
 31
0.0
  0
LINE
  5
14C
330
1E
100
AcDbEntity
  8
0
100
AcDbLine
 10
444.429
 20
102.459
 30
0.0
 11
444.761
 21
103.3433999999999
 31
0.0
  0
LINE
  5
14E
330
1E
100
AcDbEntity
  8
0
100
AcDbLine
 10
444.429
 20
102.459
 30
0.0
 11
444.429
 21
102.2726999999999
 31
0.0
  0
LINE
  5
14F
330
1E
100
AcDbEntity
  8
0
100
AcDbLine
 10
444.761
 20
103.3433999999999
 30
0.0
 11
444.884
 21
104.7949999999999
 31
0.0
  0
LINE
  5
151
330
1E
100
AcDbEntity
  8
0
100
AcDbLine
 10
444.7919999999999
 20
106.2545999999999
 30
0.0
 11
444.884
 21
104.7949999999999
 31
0.0
  0
LINE
  5
155
330
1E
100
AcDbEntity
  8
0
100
AcDbLine
 10
445.0
 20
106.0
 30
0.0
 11
479.1718
 21
106.0
 31
0.0
  0
LINE
  5
156
330
1E
100
AcDbEntity
  8
0
100
AcDbLine
 10
445.0
 20
105.2726999999999
 30
0.0
 11
445.0
 21
119.0179999999999
 31
0.0
  0
LINE
  5
157
330
1E
100
AcDbEntity
  8
0
100
AcDbLine
 10
445.0
 20
105.2726999999999
 30
0.0
 11
445.0
 21
104.2908999999999
 31
0.0
  0
LINE
  5
158
330
1E
100
AcDbEntity
  8
0
100
AcDbLine
 10
445.0
 20
104.2908999999999
 30
0.0
 11
445.0
 21
103.9090999999999
 31
0.0
  0
LINE
  5
159
330
1E
100
AcDbEntity
  8
0
100
AcDbLine
 10
445.0
 20
104.2908999999999
 30
0.0
 11
445.0
 21
105.2726999999999
 31
0.0
  0
LINE
  5
15A
330
1E
100
AcDbEntity
  8
0
100
AcDbLine
 10
445.0
 20
103.9090999999999
 30
0.0
 11
445.0
 21
104.2908999999999
 31
0.0
  0
LINE
  5
15B
330
1E
100
AcDbEntity
  8
0
100
AcDbLine
 10
444.829
 20
103.0909
 30
0.0
 11
445.0
 21
103.9090999999999
 31
0.0
  0
LINE
  5
15C
330
1E
100
AcDbEntity
  8
0
100
AcDbLine
 10
444.429
 20
102.2726999999999
 30
0.0
 11
444.829
 21
103.0909
 31
0.0
  0
LINE
  5
15D
330
1E
100
AcDbEntity
  8
0
100
AcDbLine
 10
444.429
 20
102.2726999999999
 30
0.0
 11
444.429
 21
102.459
 31
0.0
  0
LINE
  5
15E
330
1E
100
AcDbEntity
  8
0
100
AcDbLine
 10
483.928
 20
103.432
 30
0.0
 11
487.2239999999999
 21
99.12799999999998
 31
0.0
  0
LINE
  5
15F
330
1E
100
AcDbEntity
  8
0
100
AcDbLine
 10
481.048
 20
104.584
 30
0.0
 11
483.928
 21
103.432
 31
0.0
  0
LINE
  5
160
330
1E
100
AcDbEntity
  8
0
100
AcDbLine
 10
478.504
 20
106.5039999999999
 30
0.0
 11
481.048
 21
104.584
 31
0.0
  0
LINE
  5
161
330
1E
100
AcDbEntity
  8
0
100
AcDbLine
 10
438.952
 20
104.584
 30
0.0
 11
441.4959999999999
 21
106.5039999999999
 31
0.0
  0
LINE
  5
162
330
1E
100
AcDbEntity
  8
0
100
AcDbLine
 10
441.4959999999999
 20
106.5039999999999
 30
0.0
 11
443.416
 21
109.0479999999999
 31
0.0
  0
LINE
  5
163
330
1E
100
AcDbEntity
  8
0
100
AcDbLine
 10
435.848
 20
106.8079999999999
 30
0.0
 11
437.0
 21
115.0
 31
0.0
  0
LINE
  5
164
330
1E
100
AcDbEntity
  8
0
100
AcDbLine
 10
484.152
 20
106.8079999999999
 30
0.0
 11
487.2239999999999
 21
99.12799999999998
 31
0.0
  0
LINE
  5
165
330
1E
100
AcDbEntity
  8
0
100
AcDbLine
 10
546.072
 20
103.432
 30
0.0
 11
548.9519999999999
 21
104.584
 31
0.0
  0
LINE
  5
166
330
1E
100
AcDbEntity
  8
0
100
AcDbLine
 10
548.9519999999999
 20
104.584
 30
0.0
 11
551.496
 21
106.5039999999999
 31
0.0
  0
LINE
  5
167
330
1E
100
AcDbEntity
  8
0
100
AcDbLine
 10
545.848
 20
106.8079999999999
 30
0.0
 11
547.0
 21
115.0
 31
0.0
  0
LINE
  5
168
330
1E
100
AcDbEntity
  8
0
100
AcDbLine
 10
271.864
 20
108.856
 30
0.0
 11
274.168
 21
103.096
 31
0.0
  0
LINE
  5
169
330
1E
100
AcDbEntity
  8
0
100
AcDbLine
 10
271.0
 20
115.0
 30
0.0
 11
271.864
 21
121.1439999999999
 31
0.0
  0
LINE
  5
16A
330
1E
100
AcDbEntity
  8
0
100
AcDbLine
 10
271.0
 20
115.0
 30
0.0
 11
271.864
 21
108.856
 31
0.0
  0
LINE
  5
16B
330
1E
100
AcDbEntity
  8
0
100
AcDbLine
 10
268.9719999999999
 20
108.088
 30
0.0
 11
271.564
 21
101.6079999999999
 31
0.0
  0
LINE
  5
16C
330
1E
100
AcDbEntity
  8
0
100
AcDbLine
 10
268.0
 20
115.0
 30
0.0
 11
268.9719999999999
 21
121.9119999999999
 31
0.0
  0
LINE
  5
16D
330
1E
100
AcDbEntity
  8
0
100
AcDbLine
 10
268.0
 20
115.0
 30
0.0
 11
268.9719999999999
 21
108.088
 31
0.0
  0
LINE
  5
16E
330
1E
100
AcDbEntity
  8
0
100
AcDbLine
 10
295.0
 20
107.192
 30
0.0
 11
297.0159999999999
 21
107.4799999999999
 31
0.0
  0
LINE
  5
16F
330
1E
100
AcDbEntity
  8
0
100
AcDbLine
 10
289.4959999999999
 20
109.496
 30
0.0
 11
291.128
 21
108.2479999999999
 31
0.0
  0
LINE
  5
170
330
1E
100
AcDbEntity
  8
0
100
AcDbLine
 10
289.336
 20
109.336
 30
0.0
 11
291.032
 21
108.0559999999999
 31
0.0
  0
LINE
  5
171
330
1E
100
AcDbEntity
  8
0
100
AcDbLine
 10
291.128
 20
108.2479999999999
 30
0.0
 11
292.984
 21
107.4799999999999
 31
0.0
  0
LINE
  5
172
330
1E
100
AcDbEntity
  8
0
100
AcDbLine
 10
292.984
 20
107.4799999999999
 30
0.0
 11
295.0
 21
107.192
 31
0.0
  0
LINE
  5
173
330
1E
100
AcDbEntity
  8
0
100
AcDbLine
 10
291.032
 20
108.0559999999999
 30
0.0
 11
292.952
 21
107.288
 31
0.0
  0
LINE
  5
174
330
1E
100
AcDbEntity
  8
0
100
AcDbLine
 10
292.952
 20
107.288
 30
0.0
 11
295.0
 21
107.0
 31
0.0
  0
LINE
  5
175
330
1E
100
AcDbEntity
  8
0
100
AcDbLine
 10
298.872
 20
108.2479999999999
 30
0.0
 11
300.504
 21
109.496
 31
0.0
  0
LINE
  5
176
330
1E
100
AcDbEntity
  8
0
100
AcDbLine
 10
297.0159999999999
 20
107.4799999999999
 30
0.0
 11
298.872
 21
108.2479999999999
 31
0.0
  0
LINE
  5
177
330
1E
100
AcDbEntity
  8
0
100
AcDbLine
 10
300.504
 20
109.496
 30
0.0
 11
301.752
 21
111.1279999999999
 31
0.0
  0
LINE
  5
178
330
1E
100
AcDbEntity
  8
0
100
AcDbLine
 10
300.6639999999999
 20
109.336
 30
0.0
 11
301.944
 21
111.032
 31
0.0
  0
LINE
  5
179
330
1E
100
AcDbEntity
  8
0
100
AcDbLine
 10
298.968
 20
108.0559999999999
 30
0.0
 11
300.6639999999999
 21
109.336
 31
0.0
  0
LINE
  5
17A
330
1E
100
AcDbEntity
  8
0
100
AcDbLine
 10
297.048
 20
107.288
 30
0.0
 11
298.968
 21
108.0559999999999
 31
0.0
  0
LINE
  5
17B
330
1E
100
AcDbEntity
  8
0
100
AcDbLine
 10
295.0
 20
107.0
 30
0.0
 11
297.048
 21
107.288
 31
0.0
  0
LINE
  5
17C
330
1E
100
AcDbEntity
  8
0
100
AcDbLine
 10
295.0
 20
110.12
 30
0.0
 11
296.26
 21
110.2999999999999
 31
0.0
  0
LINE
  5
17D
330
1E
100
AcDbEntity
  8
0
100
AcDbLine
 10
288.248
 20
111.1279999999999
 30
0.0
 11
289.4959999999999
 21
109.496
 31
0.0
  0
LINE
  5
17E
330
1E
100
AcDbEntity
  8
0
100
AcDbLine
 10
288.056
 20
111.032
 30
0.0
 11
289.336
 21
109.336
 31
0.0
  0
LINE
  5
17F
330
1E
100
AcDbEntity
  8
0
100
AcDbLine
 10
293.74
 20
110.2999999999999
 30
0.0
 11
295.0
 21
110.12
 31
0.0
  0
LINE
  5
180
330
1E
100
AcDbEntity
  8
0
100
AcDbLine
 10
292.5799999999999
 20
110.78
 30
0.0
 11
293.74
 21
110.2999999999999
 31
0.0
  0
LINE
  5
181
330
1E
100
AcDbEntity
  8
0
100
AcDbLine
 10
296.26
 20
110.2999999999999
 30
0.0
 11
297.42
 21
110.78
 31
0.0
  0
LINE
  5
184
330
1E
100
AcDbEntity
  8
0
100
AcDbLine
 10
301.752
 20
111.1279999999999
 30
0.0
 11
302.5199999999999
 21
112.9839999999999
 31
0.0
  0
LINE
  5
185
330
1E
100
AcDbEntity
  8
0
100
AcDbLine
 10
301.944
 20
111.032
 30
0.0
 11
302.712
 21
112.952
 31
0.0
  0
LINE
  5
186
330
1E
100
AcDbEntity
  8
0
100
AcDbLine
 10
297.42
 20
110.78
 30
0.0
 11
298.4399999999999
 21
111.56
 31
0.0
  0
LINE
  5
18A
330
1E
100
AcDbEntity
  8
0
100
AcDbLine
 10
282.848
 20
108.0559999999999
 30
0.0
 11
285.0879999999999
 21
105.088
 31
0.0
  0
LINE
  5
18B
330
1E
100
AcDbEntity
  8
0
100
AcDbLine
 10
281.504
 20
111.416
 30
0.0
 11
282.848
 21
108.0559999999999
 31
0.0
  0
LINE
  5
18C
330
1E
100
AcDbEntity
  8
0
100
AcDbLine
 10
366.584
 20
109.0479999999999
 30
0.0
 11
368.504
 21
106.5039999999999
 31
0.0
  0
LINE
  5
18D
330
1E
100
AcDbEntity
  8
0
100
AcDbLine
 10
333.416
 20
109.0479999999999
 30
0.0
 11
334.568
 21
111.928
 31
0.0
  0
LINE
  5
18E
330
1E
100
AcDbEntity
  8
0
100
AcDbLine
 10
318.1359999999999
 20
108.856
 30
0.0
 11
319.0
 21
115.0
 31
0.0
  0
LINE
  5
18F
330
1E
100
AcDbEntity
  8
0
100
AcDbLine
 10
321.028
 20
108.088
 30
0.0
 11
322.0
 21
115.0
 31
0.0
  0
LINE
  5
190
330
1E
100
AcDbEntity
  8
0
100
AcDbLine
 10
307.152
 20
108.0559999999999
 30
0.0
 11
308.4959999999999
 21
111.416
 31
0.0
  0
LINE
  5
192
330
1E
100
AcDbEntity
  8
0
100
AcDbLine
 10
287.48
 20
112.9839999999999
 30
0.0
 11
288.248
 21
111.1279999999999
 31
0.0
  0
LINE
  5
193
330
1E
100
AcDbEntity
  8
0
100
AcDbLine
 10
287.288
 20
112.952
 30
0.0
 11
288.056
 21
111.032
 31
0.0
  0
LINE
  5
194
330
1E
100
AcDbEntity
  8
0
100
AcDbLine
 10
291.5599999999999
 20
111.56
 30
0.0
 11
292.5799999999999
 21
110.78
 31
0.0
  0
LINE
  5
195
330
1E
100
AcDbEntity
  8
0
100
AcDbLine
 10
290.7799999999999
 20
112.5799999999999
 30
0.0
 11
291.5599999999999
 21
111.56
 31
0.0
  0
LINE
  5
196
330
1E
100
AcDbEntity
  8
0
100
AcDbLine
 10
302.5199999999999
 20
112.9839999999999
 30
0.0
 11
302.808
 21
115.0
 31
0.0
  0
LINE
  5
197
330
1E
100
AcDbEntity
  8
0
100
AcDbLine
 10
302.712
 20
112.952
 30
0.0
 11
303.0
 21
115.0
 31
0.0
  0
LINE
  5
198
330
1E
100
AcDbEntity
  8
0
100
AcDbLine
 10
299.22
 20
112.5799999999999
 30
0.0
 11
299.6999999999999
 21
113.7399999999999
 31
0.0
  0
LINE
  5
199
330
1E
100
AcDbEntity
  8
0
100
AcDbLine
 10
298.4399999999999
 20
111.56
 30
0.0
 11
299.22
 21
112.5799999999999
 31
0.0
  0
LINE
  5
19C
330
1E
100
AcDbEntity
  8
0
100
AcDbLine
 10
329.144
 20
113.0639999999999
 30
0.0
 11
329.657
 21
113.127
 31
0.0
  0
LINE
  5
19D
330
1E
100
AcDbEntity
  8
0
100
AcDbLine
 10
328.6309999999999
 20
113.125
 30
0.0
 11
329.144
 21
113.0639999999999
 31
0.0
  0
LINE
  5
19E
330
1E
100
AcDbEntity
  8
0
100
AcDbLine
 10
328.138
 20
113.325
 30
0.0
 11
328.6309999999999
 21
113.125
 31
0.0
  0
LINE
  5
19F
330
1E
100
AcDbEntity
  8
0
100
AcDbLine
 10
329.657
 20
113.127
 30
0.0
 11
330.133
 21
113.3289999999999
 31
0.0
  0
LINE
  5
1A1
330
1E
100
AcDbEntity
  8
0
100
AcDbLine
 10
290.3
 20
113.7399999999999
 30
0.0
 11
290.7799999999999
 21
112.5799999999999
 31
0.0
  0
LINE
  5
1A2
330
1E
100
AcDbEntity
  8
0
100
AcDbLine
 10
299.6999999999999
 20
113.7399999999999
 30
0.0
 11
299.88
 21
115.0
 31
0.0
  0
LINE
  5
1A4
330
1E
100
AcDbEntity
  8
0
100
AcDbLine
 10
327.72
 20
113.651
 30
0.0
 11
328.138
 21
113.325
 31
0.0
  0
LINE
  5
1A5
330
1E
100
AcDbEntity
  8
0
100
AcDbLine
 10
330.133
 20
113.3289999999999
 30
0.0
 11
330.5469999999999
 21
113.639
 31
0.0
  0
LINE
  5
1A6
330
1E
100
AcDbEntity
  8
0
100
AcDbLine
 10
330.5469999999999
 20
113.639
 30
0.0
 11
330.874
 21
114.057
 31
0.0
  0
LINE
  5
1A7
330
1E
100
AcDbEntity
  8
0
100
AcDbLine
 10
287.0
 20
115.0
 30
0.0
 11
287.288
 21
117.0479999999999
 31
0.0
  0
LINE
  5
1A8
330
1E
100
AcDbEntity
  8
0
100
AcDbLine
 10
287.0
 20
115.0
 30
0.0
 11
287.288
 21
112.952
 31
0.0
  0
LINE
  5
1A9
330
1E
100
AcDbEntity
  8
0
100
AcDbLine
 10
287.192
 20
115.0
 30
0.0
 11
287.48
 21
117.016
 31
0.0
  0
LINE
  5
1AA
330
1E
100
AcDbEntity
  8
0
100
AcDbLine
 10
287.192
 20
115.0
 30
0.0
 11
287.48
 21
112.9839999999999
 31
0.0
  0
LINE
  5
1AD
330
1E
100
AcDbEntity
  8
0
100
AcDbLine
 10
290.12
 20
115.0
 30
0.0
 11
290.3
 21
116.26
 31
0.0
  0
LINE
  5
1AE
330
1E
100
AcDbEntity
  8
0
100
AcDbLine
 10
290.12
 20
115.0
 30
0.0
 11
290.3
 21
113.7399999999999
 31
0.0
  0
LINE
  5
1AF
330
1E
100
AcDbEntity
  8
0
100
AcDbLine
 10
327.41
 20
114.0649999999999
 30
0.0
 11
327.72
 21
113.651
 31
0.0
  0
LINE
  5
1B0
330
1E
100
AcDbEntity
  8
0
100
AcDbLine
 10
327.2079999999999
 20
114.541
 30
0.0
 11
327.41
 21
114.0649999999999
 31
0.0
  0
LINE
  5
1B1
330
1E
100
AcDbEntity
  8
0
100
AcDbLine
 10
330.874
 20
114.057
 30
0.0
 11
331.073
 21
114.5499999999999
 31
0.0
  0
LINE
  5
1B2
330
1E
100
AcDbEntity
  8
0
100
AcDbLine
 10
365.4319999999999
 20
111.928
 30
0.0
 11
366.584
 21
109.0479999999999
 31
0.0
  0
LINE
  5
1B3
330
1E
100
AcDbEntity
  8
0
100
AcDbLine
 10
370.343
 20
113.127
 30
0.0
 11
370.8559999999999
 21
113.0639999999999
 31
0.0
  0
LINE
  5
1B4
330
1E
100
AcDbEntity
  8
0
100
AcDbLine
 10
370.8559999999999
 20
113.0639999999999
 30
0.0
 11
371.369
 21
113.125
 31
0.0
  0
LINE
  5
1B5
330
1E
100
AcDbEntity
  8
0
100
AcDbLine
 10
371.369
 20
113.125
 30
0.0
 11
371.8619999999999
 21
113.325
 31
0.0
  0
LINE
  5
1B6
330
1E
100
AcDbEntity
  8
0
100
AcDbLine
 10
371.8619999999999
 20
113.325
 30
0.0
 11
372.2799999999999
 21
113.651
 31
0.0
  0
LINE
  5
1B7
330
1E
100
AcDbEntity
  8
0
100
AcDbLine
 10
369.8669999999999
 20
113.3289999999999
 30
0.0
 11
370.343
 21
113.127
 31
0.0
  0
LINE
  5
1B8
330
1E
100
AcDbEntity
  8
0
100
AcDbLine
 10
372.2799999999999
 20
113.651
 30
0.0
 11
372.5899999999999
 21
114.0649999999999
 31
0.0
  0
LINE
  5
1B9
330
1E
100
AcDbEntity
  8
0
100
AcDbLine
 10
372.7919999999999
 20
114.541
 30
0.0
 11
372.855
 21
115.054
 31
0.0
  0
LINE
  5
1BA
330
1E
100
AcDbEntity
  8
0
100
AcDbLine
 10
372.5899999999999
 20
114.0649999999999
 30
0.0
 11
372.7919999999999
 21
114.541
 31
0.0
  0
LINE
  5
1BB
330
1E
100
AcDbEntity
  8
0
100
AcDbLine
 10
369.453
 20
113.639
 30
0.0
 11
369.8669999999999
 21
113.3289999999999
 31
0.0
  0
LINE
  5
1BC
330
1E
100
AcDbEntity
  8
0
100
AcDbLine
 10
369.1259999999999
 20
114.057
 30
0.0
 11
369.453
 21
113.639
 31
0.0
  0
LINE
  5
1BD
330
1E
100
AcDbEntity
  8
0
100
AcDbLine
 10
368.9269999999999
 20
114.5499999999999
 30
0.0
 11
369.1259999999999
 21
114.057
 31
0.0
  0
LINE
  5
1BE
330
1E
100
AcDbEntity
  8
0
100
AcDbLine
 10
365.0
 20
115.0
 30
0.0
 11
365.4319999999999
 21
111.928
 31
0.0
  0
LINE
  5
1BF
330
1E
100
AcDbEntity
  8
0
100
AcDbLine
 10
365.0
 20
115.0
 30
0.0
 11
365.4319999999999
 21
118.0719999999999
 31
0.0
  0
LINE
  5
1C0
330
1E
100
AcDbEntity
  8
0
100
AcDbLine
 10
334.568
 20
111.928
 30
0.0
 11
335.0
 21
115.0
 31
0.0
  0
LINE
  5
1C1
330
1E
100
AcDbEntity
  8
0
100
AcDbLine
 10
331.073
 20
114.5499999999999
 30
0.0
 11
331.134
 21
115.0629999999999
 31
0.0
  0
LINE
  5
1C2
330
1E
100
AcDbEntity
  8
0
100
AcDbLine
 10
308.4959999999999
 20
111.416
 30
0.0
 11
309.0
 21
115.0
 31
0.0
  0
LINE
  5
1C3
330
1E
100
AcDbEntity
  8
0
100
AcDbLine
 10
281.0
 20
115.0
 30
0.0
 11
281.504
 21
118.5839999999999
 31
0.0
  0
LINE
  5
1C4
330
1E
100
AcDbEntity
  8
0
100
AcDbLine
 10
281.0
 20
115.0
 30
0.0
 11
281.504
 21
111.416
 31
0.0
  0
LINE
  5
1C5
330
1E
100
AcDbEntity
  8
0
100
AcDbLine
 10
271.864
 20
121.1439999999999
 30
0.0
 11
274.168
 21
126.9039999999999
 31
0.0
  0
LINE
  5
1C6
330
1E
100
AcDbEntity
  8
0
100
AcDbLine
 10
268.9719999999999
 20
121.9119999999999
 30
0.0
 11
271.564
 21
128.3919999999999
 31
0.0
  0
LINE
  5
1C7
330
1E
100
AcDbEntity
  8
0
100
AcDbLine
 10
287.48
 20
117.016
 30
0.0
 11
288.248
 21
118.872
 31
0.0
  0
LINE
  5
1C8
330
1E
100
AcDbEntity
  8
0
100
AcDbLine
 10
287.288
 20
117.0479999999999
 30
0.0
 11
288.056
 21
118.9679999999999
 31
0.0
  0
LINE
  5
1CA
330
1E
100
AcDbEntity
  8
0
100
AcDbLine
 10
290.3
 20
116.26
 30
0.0
 11
290.7799999999999
 21
117.42
 31
0.0
  0
LINE
  5
1CB
330
1E
100
AcDbEntity
  8
0
100
AcDbLine
 10
288.248
 20
118.872
 30
0.0
 11
289.4959999999999
 21
120.5039999999999
 31
0.0
  0
LINE
  5
1CC
330
1E
100
AcDbEntity
  8
0
100
AcDbLine
 10
288.056
 20
118.9679999999999
 30
0.0
 11
289.336
 21
120.6639999999999
 31
0.0
  0
LINE
  5
1CE
330
1E
100
AcDbEntity
  8
0
100
AcDbLine
 10
290.7799999999999
 20
117.42
 30
0.0
 11
291.5599999999999
 21
118.4399999999999
 31
0.0
  0
LINE
  5
1CF
330
1E
100
AcDbEntity
  8
0
100
AcDbLine
 10
291.5599999999999
 20
118.4399999999999
 30
0.0
 11
292.5799999999999
 21
119.2199999999999
 31
0.0
  0
LINE
  5
1D1
330
1E
100
AcDbEntity
  8
0
100
AcDbLine
 10
292.5799999999999
 20
119.2199999999999
 30
0.0
 11
293.74
 21
119.7
 31
0.0
  0
LINE
  5
1D3
330
1E
100
AcDbEntity
  8
0
100
AcDbLine
 10
293.74
 20
119.7
 30
0.0
 11
295.0
 21
119.88
 31
0.0
  0
LINE
  5
1D4
330
1E
100
AcDbEntity
  8
0
100
AcDbLine
 10
289.4959999999999
 20
120.5039999999999
 30
0.0
 11
291.128
 21
121.752
 31
0.0
  0
LINE
  5
1D5
330
1E
100
AcDbEntity
  8
0
100
AcDbLine
 10
289.336
 20
120.6639999999999
 30
0.0
 11
291.032
 21
121.944
 31
0.0
  0
LINE
  5
1D6
330
1E
100
AcDbEntity
  8
0
100
AcDbLine
 10
291.128
 20
121.752
 30
0.0
 11
292.984
 21
122.52
 31
0.0
  0
LINE
  5
1D7
330
1E
100
AcDbEntity
  8
0
100
AcDbLine
 10
291.032
 20
121.944
 30
0.0
 11
292.952
 21
122.7119999999999
 31
0.0
  0
LINE
  5
1D9
330
1E
100
AcDbEntity
  8
0
100
AcDbLine
 10
299.6999999999999
 20
116.26
 30
0.0
 11
299.88
 21
115.0
 31
0.0
  0
LINE
  5
1DA
330
1E
100
AcDbEntity
  8
0
100
AcDbLine
 10
302.5199999999999
 20
117.016
 30
0.0
 11
302.808
 21
115.0
 31
0.0
  0
LINE
  5
1DB
330
1E
100
AcDbEntity
  8
0
100
AcDbLine
 10
302.712
 20
117.0479999999999
 30
0.0
 11
303.0
 21
115.0
 31
0.0
  0
LINE
  5
1DD
330
1E
100
AcDbEntity
  8
0
100
AcDbLine
 10
301.944
 20
118.9679999999999
 30
0.0
 11
302.712
 21
117.0479999999999
 31
0.0
  0
LINE
  5
1DE
330
1E
100
AcDbEntity
  8
0
100
AcDbLine
 10
301.752
 20
118.872
 30
0.0
 11
302.5199999999999
 21
117.016
 31
0.0
  0
LINE
  5
1E0
330
1E
100
AcDbEntity
  8
0
100
AcDbLine
 10
299.22
 20
117.42
 30
0.0
 11
299.6999999999999
 21
116.26
 31
0.0
  0
LINE
  5
1E1
330
1E
100
AcDbEntity
  8
0
100
AcDbLine
 10
298.4399999999999
 20
118.4399999999999
 30
0.0
 11
299.22
 21
117.42
 31
0.0
  0
LINE
  5
1E3
330
1E
100
AcDbEntity
  8
0
100
AcDbLine
 10
297.42
 20
119.2199999999999
 30
0.0
 11
298.4399999999999
 21
118.4399999999999
 31
0.0
  0
LINE
  5
1E4
330
1E
100
AcDbEntity
  8
0
100
AcDbLine
 10
300.6639999999999
 20
120.6639999999999
 30
0.0
 11
301.944
 21
118.9679999999999
 31
0.0
  0
LINE
  5
1E5
330
1E
100
AcDbEntity
  8
0
100
AcDbLine
 10
300.504
 20
120.5039999999999
 30
0.0
 11
301.752
 21
118.872
 31
0.0
  0
LINE
  5
1E6
330
1E
100
AcDbEntity
  8
0
100
AcDbLine
 10
298.968
 20
121.944
 30
0.0
 11
300.6639999999999
 21
120.6639999999999
 31
0.0
  0
LINE
  5
1E7
330
1E
100
AcDbEntity
  8
0
100
AcDbLine
 10
298.872
 20
121.752
 30
0.0
 11
300.504
 21
120.5039999999999
 31
0.0
  0
LINE
  5
1E8
330
1E
100
AcDbEntity
  8
0
100
AcDbLine
 10
296.26
 20
119.7
 30
0.0
 11
297.42
 21
119.2199999999999
 31
0.0
  0
LINE
  5
1E9
330
1E
100
AcDbEntity
  8
0
100
AcDbLine
 10
295.0
 20
119.88
 30
0.0
 11
296.26
 21
119.7
 31
0.0
  0
LINE
  5
1EA
330
1E
100
AcDbEntity
  8
0
100
AcDbLine
 10
307.152
 20
121.944
 30
0.0
 11
308.4959999999999
 21
118.5839999999999
 31
0.0
  0
LINE
  5
1EB
330
1E
100
AcDbEntity
  8
0
100
AcDbLine
 10
372.794
 20
115.568
 30
0.0
 11
372.855
 21
115.054
 31
0.0
  0
LINE
  5
1EC
330
1E
100
AcDbEntity
  8
0
100
AcDbLine
 10
368.866
 20
115.0629999999999
 30
0.0
 11
368.928
 21
115.576
 31
0.0
  0
LINE
  5
1ED
330
1E
100
AcDbEntity
  8
0
100
AcDbLine
 10
368.866
 20
115.0629999999999
 30
0.0
 11
368.9269999999999
 21
114.5499999999999
 31
0.0
  0
LINE
  5
1EE
330
1E
100
AcDbEntity
  8
0
100
AcDbLine
 10
368.928
 20
115.576
 30
0.0
 11
369.1309999999999
 21
116.0519999999999
 31
0.0
  0
LINE
  5
1EF
330
1E
100
AcDbEntity
  8
0
100
AcDbLine
 10
327.2059999999999
 20
115.568
 30
0.0
 11
327.4049999999999
 21
116.06
 31
0.0
  0
LINE
  5
1F0
330
1E
100
AcDbEntity
  8
0
100
AcDbLine
 10
327.1449999999999
 20
115.054
 30
0.0
 11
327.2079999999999
 21
114.541
 31
0.0
  0
LINE
  5
1F1
330
1E
100
AcDbEntity
  8
0
100
AcDbLine
 10
327.1449999999999
 20
115.054
 30
0.0
 11
327.2059999999999
 21
115.568
 31
0.0
  0
LINE
  5
1F2
330
1E
100
AcDbEntity
  8
0
100
AcDbLine
 10
330.56
 20
116.466
 30
0.0
 11
330.869
 21
116.0519999999999
 31
0.0
  0
LINE
  5
1F3
330
1E
100
AcDbEntity
  8
0
100
AcDbLine
 10
369.1309999999999
 20
116.0519999999999
 30
0.0
 11
369.4399999999999
 21
116.466
 31
0.0
  0
LINE
  5
1F4
330
1E
100
AcDbEntity
  8
0
100
AcDbLine
 10
369.4399999999999
 20
116.466
 30
0.0
 11
369.859
 21
116.7929999999999
 31
0.0
  0
LINE
  5
1F5
330
1E
100
AcDbEntity
  8
0
100
AcDbLine
 10
372.268
 20
116.4789999999999
 30
0.0
 11
372.595
 21
116.06
 31
0.0
  0
LINE
  5
1F6
330
1E
100
AcDbEntity
  8
0
100
AcDbLine
 10
372.595
 20
116.06
 30
0.0
 11
372.794
 21
115.568
 31
0.0
  0
LINE
  5
1F7
330
1E
100
AcDbEntity
  8
0
100
AcDbLine
 10
330.869
 20
116.0519999999999
 30
0.0
 11
331.0719999999999
 21
115.576
 31
0.0
  0
LINE
  5
1F8
330
1E
100
AcDbEntity
  8
0
100
AcDbLine
 10
369.859
 20
116.7929999999999
 30
0.0
 11
370.351
 21
116.992
 31
0.0
  0
LINE
  5
1F9
330
1E
100
AcDbEntity
  8
0
100
AcDbLine
 10
371.854
 20
116.789
 30
0.0
 11
372.268
 21
116.4789999999999
 31
0.0
  0
LINE
  5
1FA
330
1E
100
AcDbEntity
  8
0
100
AcDbLine
 10
328.6219999999999
 20
116.991
 30
0.0
 11
329.1349999999999
 21
117.054
 31
0.0
  0
LINE
  5
1FB
330
1E
100
AcDbEntity
  8
0
100
AcDbLine
 10
329.1349999999999
 20
117.054
 30
0.0
 11
329.6489999999999
 21
116.992
 31
0.0
  0
LINE
  5
1FC
330
1E
100
AcDbEntity
  8
0
100
AcDbLine
 10
365.4319999999999
 20
118.0719999999999
 30
0.0
 11
366.584
 21
120.952
 31
0.0
  0
LINE
  5
1FD
330
1E
100
AcDbEntity
  8
0
100
AcDbLine
 10
366.584
 20
120.952
 30
0.0
 11
368.504
 21
123.496
 31
0.0
  0
LINE
  5
1FE
330
1E
100
AcDbEntity
  8
0
100
AcDbLine
 10
370.865
 20
117.054
 30
0.0
 11
371.378
 21
116.991
 31
0.0
  0
LINE
  5
1FF
330
1E
100
AcDbEntity
  8
0
100
AcDbLine
 10
370.351
 20
116.992
 30
0.0
 11
370.865
 21
117.054
 31
0.0
  0
LINE
  5
200
330
1E
100
AcDbEntity
  8
0
100
AcDbLine
 10
371.378
 20
116.991
 30
0.0
 11
371.854
 21
116.789
 31
0.0
  0
LINE
  5
201
330
1E
100
AcDbEntity
  8
0
100
AcDbLine
 10
334.568
 20
118.0719999999999
 30
0.0
 11
335.0
 21
115.0
 31
0.0
  0
LINE
  5
202
330
1E
100
AcDbEntity
  8
0
100
AcDbLine
 10
333.416
 20
120.952
 30
0.0
 11
334.568
 21
118.0719999999999
 31
0.0
  0
LINE
  5
203
330
1E
100
AcDbEntity
  8
0
100
AcDbLine
 10
329.6489999999999
 20
116.992
 30
0.0
 11
330.1409999999999
 21
116.7929999999999
 31
0.0
  0
LINE
  5
204
330
1E
100
AcDbEntity
  8
0
100
AcDbLine
 10
330.1409999999999
 20
116.7929999999999
 30
0.0
 11
330.56
 21
116.466
 31
0.0
  0
LINE
  5
205
330
1E
100
AcDbEntity
  8
0
100
AcDbLine
 10
328.1459999999999
 20
116.789
 30
0.0
 11
328.6219999999999
 21
116.991
 31
0.0
  0
LINE
  5
206
330
1E
100
AcDbEntity
  8
0
100
AcDbLine
 10
327.7319999999999
 20
116.4789999999999
 30
0.0
 11
328.1459999999999
 21
116.789
 31
0.0
  0
LINE
  5
207
330
1E
100
AcDbEntity
  8
0
100
AcDbLine
 10
327.4049999999999
 20
116.06
 30
0.0
 11
327.7319999999999
 21
116.4789999999999
 31
0.0
  0
LINE
  5
208
330
1E
100
AcDbEntity
  8
0
100
AcDbLine
 10
331.0719999999999
 20
115.576
 30
0.0
 11
331.134
 21
115.0629999999999
 31
0.0
  0
LINE
  5
209
330
1E
100
AcDbEntity
  8
0
100
AcDbLine
 10
318.1359999999999
 20
121.1439999999999
 30
0.0
 11
319.0
 21
115.0
 31
0.0
  0
LINE
  5
20A
330
1E
100
AcDbEntity
  8
0
100
AcDbLine
 10
321.028
 20
121.9119999999999
 30
0.0
 11
322.0
 21
115.0
 31
0.0
  0
LINE
  5
20B
330
1E
100
AcDbEntity
  8
0
100
AcDbLine
 10
308.4959999999999
 20
118.5839999999999
 30
0.0
 11
309.0
 21
115.0
 31
0.0
  0
LINE
  5
20C
330
1E
100
AcDbEntity
  8
0
100
AcDbLine
 10
292.984
 20
122.52
 30
0.0
 11
295.0
 21
122.808
 31
0.0
  0
LINE
  5
20D
330
1E
100
AcDbEntity
  8
0
100
AcDbLine
 10
292.952
 20
122.7119999999999
 30
0.0
 11
295.0
 21
123.0
 31
0.0
  0
LINE
  5
20E
330
1E
100
AcDbEntity
  8
0
100
AcDbLine
 10
295.0
 20
123.0
 30
0.0
 11
297.048
 21
122.7119999999999
 31
0.0
  0
LINE
  5
20F
330
1E
100
AcDbEntity
  8
0
100
AcDbLine
 10
297.048
 20
122.7119999999999
 30
0.0
 11
298.968
 21
121.944
 31
0.0
  0
LINE
  5
210
330
1E
100
AcDbEntity
  8
0
100
AcDbLine
 10
297.0159999999999
 20
122.52
 30
0.0
 11
298.872
 21
121.752
 31
0.0
  0
LINE
  5
211
330
1E
100
AcDbEntity
  8
0
100
AcDbLine
 10
295.0
 20
122.808
 30
0.0
 11
297.0159999999999
 21
122.52
 31
0.0
  0
LINE
  5
212
330
1E
100
AcDbEntity
  8
0
100
AcDbLine
 10
282.848
 20
121.944
 30
0.0
 11
285.0879999999999
 21
124.912
 31
0.0
  0
LINE
  5
213
330
1E
100
AcDbEntity
  8
0
100
AcDbLine
 10
281.504
 20
118.5839999999999
 30
0.0
 11
282.848
 21
121.944
 31
0.0
  0
LINE
  5
214
330
1E
100
AcDbEntity
  8
0
100
AcDbLine
 10
373.0
 20
115.0
 30
0.0
 11
374.1519999999999
 21
123.192
 31
0.0
  0
LINE
  5
215
330
1E
100
AcDbEntity
  8
0
100
AcDbLine
 10
373.0
 20
115.0
 30
0.0
 11
374.1519999999999
 21
106.8079999999999
 31
0.0
  0
LINE
  5
216
330
1E
100
AcDbEntity
  8
0
100
AcDbLine
 10
385.734
 20
109.7458
 30
0.0
 11
387.768
 21
105.0
 31
0.0
  0
LINE
  5
217
330
1E
100
AcDbEntity
  8
0
100
AcDbLine
 10
385.0
 20
115.0
 30
0.0
 11
385.734
 21
120.2539999999999
 31
0.0
  0
LINE
  5
218
330
1E
100
AcDbEntity
  8
0
100
AcDbLine
 10
385.0
 20
115.0
 30
0.0
 11
385.734
 21
109.7458
 31
0.0
  0
LINE
  5
21A
330
1E
100
AcDbEntity
  8
0
100
AcDbLine
 10
399.949
 20
112.0846999999999
 30
0.0
 11
400.864
 21
110.8643999999999
 31
0.0
  0
LINE
  5
21C
330
1E
100
AcDbEntity
  8
0
100
AcDbLine
 10
399.373
 20
113.4746
 30
0.0
 11
399.949
 21
112.0846999999999
 31
0.0
  0
LINE
  5
21E
330
1E
100
AcDbEntity
  8
0
100
AcDbLine
 10
399.169
 20
115.0
 30
0.0
 11
399.373
 21
116.525
 31
0.0
  0
LINE
  5
21F
330
1E
100
AcDbEntity
  8
0
100
AcDbLine
 10
399.169
 20
115.0
 30
0.0
 11
399.373
 21
113.4746
 31
0.0
  0
LINE
  5
221
330
1E
100
AcDbEntity
  8
0
100
AcDbLine
 10
399.373
 20
116.525
 30
0.0
 11
399.949
 21
117.915
 31
0.0
  0
LINE
  5
223
330
1E
100
AcDbEntity
  8
0
100
AcDbLine
 10
403.475
 20
109.3728999999999
 30
0.0
 11
405.0
 21
109.1695
 31
0.0
  0
LINE
  5
224
330
1E
100
AcDbEntity
  8
0
100
AcDbLine
 10
405.0
 20
109.1695
 30
0.0
 11
406.5249999999999
 21
109.3728999999999
 31
0.0
  0
LINE
  5
225
330
1E
100
AcDbEntity
  8
0
100
AcDbLine
 10
406.5249999999999
 20
109.3728999999999
 30
0.0
 11
407.915
 21
109.9492
 31
0.0
  0
LINE
  5
229
330
1E
100
AcDbEntity
  8
0
100
AcDbLine
 10
402.085
 20
109.9492
 30
0.0
 11
403.475
 21
109.3728999999999
 31
0.0
  0
LINE
  5
22A
330
1E
100
AcDbEntity
  8
0
100
AcDbLine
 10
407.915
 20
109.9492
 30
0.0
 11
409.1359999999999
 21
110.8643999999999
 31
0.0
  0
LINE
  5
22D
330
1E
100
AcDbEntity
  8
0
100
AcDbLine
 10
444.429
 20
108.1636
 30
0.0
 11
444.429
 21
108.7039
 31
0.0
  0
LINE
  5
22F
330
1E
100
AcDbEntity
  8
0
100
AcDbLine
 10
444.429
 20
108.1636
 30
0.0
 11
444.429
 21
107.2767999999999
 31
0.0
  0
LINE
  5
231
330
1E
100
AcDbEntity
  8
0
100
AcDbLine
 10
444.429
 20
108.7039
 30
0.0
 11
444.863
 21
111.2508999999999
 31
0.0
  0
LINE
  5
232
330
1E
100
AcDbEntity
  8
0
100
AcDbLine
 10
444.429
 20
108.7039
 30
0.0
 11
444.429
 21
108.1636
 31
0.0
  0
LINE
  5
233
330
1E
100
AcDbEntity
  8
0
100
AcDbLine
 10
445.0
 20
119.0179999999999
 30
0.0
 11
445.0
 21
105.2726999999999
 31
0.0
  0
LINE
  5
234
330
1E
100
AcDbEntity
  8
0
100
AcDbLine
 10
444.429
 20
107.2767999999999
 30
0.0
 11
444.7919999999999
 21
106.2545999999999
 31
0.0
  0
LINE
  5
236
330
1E
100
AcDbEntity
  8
0
100
AcDbLine
 10
444.429
 20
107.2767999999999
 30
0.0
 11
444.429
 21
108.1636
 31
0.0
  0
LINE
  5
237
330
1E
100
AcDbEntity
  8
0
100
AcDbLine
 10
476.5839999999999
 20
109.0479999999999
 30
0.0
 11
478.504
 21
106.5039999999999
 31
0.0
  0
LINE
  5
238
330
1E
100
AcDbEntity
  8
0
100
AcDbLine
 10
443.416
 20
109.0479999999999
 30
0.0
 11
444.568
 21
111.928
 31
0.0
  0
LINE
  5
239
330
1E
100
AcDbEntity
  8
0
100
AcDbLine
 10
424.2659999999999
 20
109.7458
 30
0.0
 11
425.0
 21
115.0
 31
0.0
  0
LINE
  5
23B
330
1E
100
AcDbEntity
  8
0
100
AcDbLine
 10
400.864
 20
110.8643999999999
 30
0.0
 11
402.085
 21
109.9492
 31
0.0
  0
LINE
  5
23C
330
1E
100
AcDbEntity
  8
0
100
AcDbLine
 10
410.0509999999999
 20
117.915
 30
0.0
 11
410.6269999999999
 21
116.525
 31
0.0
  0
LINE
  5
23D
330
1E
100
AcDbEntity
  8
0
100
AcDbLine
 10
410.0509999999999
 20
112.0846999999999
 30
0.0
 11
410.6269999999999
 21
113.4746
 31
0.0
  0
LINE
  5
23E
330
1E
100
AcDbEntity
  8
0
100
AcDbLine
 10
409.1359999999999
 20
110.8643999999999
 30
0.0
 11
410.0509999999999
 21
112.0846999999999
 31
0.0
  0
LINE
  5
23F
330
1E
100
AcDbEntity
  8
0
100
AcDbLine
 10
409.1359999999999
 20
119.136
 30
0.0
 11
410.0509999999999
 21
117.915
 31
0.0
  0
LINE
  5
241
330
1E
100
AcDbEntity
  8
0
100
AcDbLine
 10
410.6269999999999
 20
116.525
 30
0.0
 11
410.8309999999999
 21
115.0
 31
0.0
  0
LINE
  5
242
330
1E
100
AcDbEntity
  8
0
100
AcDbLine
 10
439.144
 20
113.0639999999999
 30
0.0
 11
439.6569999999999
 21
113.127
 31
0.0
  0
LINE
  5
243
330
1E
100
AcDbEntity
  8
0
100
AcDbLine
 10
438.6309999999999
 20
113.125
 30
0.0
 11
439.144
 21
113.0639999999999
 31
0.0
  0
LINE
  5
244
330
1E
100
AcDbEntity
  8
0
100
AcDbLine
 10
438.138
 20
113.325
 30
0.0
 11
438.6309999999999
 21
113.125
 31
0.0
  0
LINE
  5
245
330
1E
100
AcDbEntity
  8
0
100
AcDbLine
 10
439.6569999999999
 20
113.127
 30
0.0
 11
440.133
 21
113.3289999999999
 31
0.0
  0
LINE
  5
246
330
1E
100
AcDbEntity
  8
0
100
AcDbLine
 10
437.72
 20
113.651
 30
0.0
 11
438.138
 21
113.325
 31
0.0
  0
LINE
  5
247
330
1E
100
AcDbEntity
  8
0
100
AcDbLine
 10
440.133
 20
113.3289999999999
 30
0.0
 11
440.547
 21
113.639
 31
0.0
  0
LINE
  5
248
330
1E
100
AcDbEntity
  8
0
100
AcDbLine
 10
440.547
 20
113.639
 30
0.0
 11
440.874
 21
114.057
 31
0.0
  0
LINE
  5
249
330
1E
100
AcDbEntity
  8
0
100
AcDbLine
 10
437.2059999999999
 20
115.568
 30
0.0
 11
437.4049999999999
 21
116.06
 31
0.0
  0
LINE
  5
24A
330
1E
100
AcDbEntity
  8
0
100
AcDbLine
 10
437.145
 20
115.054
 30
0.0
 11
437.208
 21
114.541
 31
0.0
  0
LINE
  5
24B
330
1E
100
AcDbEntity
  8
0
100
AcDbLine
 10
437.145
 20
115.054
 30
0.0
 11
437.2059999999999
 21
115.568
 31
0.0
  0
LINE
  5
24C
330
1E
100
AcDbEntity
  8
0
100
AcDbLine
 10
437.41
 20
114.0649999999999
 30
0.0
 11
437.72
 21
113.651
 31
0.0
  0
LINE
  5
24D
330
1E
100
AcDbEntity
  8
0
100
AcDbLine
 10
437.208
 20
114.541
 30
0.0
 11
437.41
 21
114.0649999999999
 31
0.0
  0
LINE
  5
24E
330
1E
100
AcDbEntity
  8
0
100
AcDbLine
 10
440.874
 20
114.057
 30
0.0
 11
441.073
 21
114.5499999999999
 31
0.0
  0
LINE
  5
24F
330
1E
100
AcDbEntity
  8
0
100
AcDbLine
 10
444.863
 20
111.2508999999999
 30
0.0
 11
444.943
 21
114.0
 31
0.0
  0
LINE
  5
250
330
1E
100
AcDbEntity
  8
0
100
AcDbLine
 10
475.4319999999999
 20
111.928
 30
0.0
 11
476.5839999999999
 21
109.0479999999999
 31
0.0
  0
LINE
  5
251
330
1E
100
AcDbEntity
  8
0
100
AcDbLine
 10
444.9286615652519
 20
114.492704464017
 30
0.0
 11
444.943
 21
114.0
 31
0.0
  0
LINE
  5
252
330
1E
100
AcDbEntity
  8
0
100
AcDbLine
 10
475.0
 20
115.0
 30
0.0
 11
475.4319999999999
 21
111.928
 31
0.0
  0
LINE
  5
253
330
1E
100
AcDbEntity
  8
0
100
AcDbLine
 10
475.0
 20
115.0
 30
0.0
 11
475.4319999999999
 21
118.0719999999999
 31
0.0
  0
LINE
  5
254
330
1E
100
AcDbEntity
  8
0
100
AcDbLine
 10
480.343
 20
113.127
 30
0.0
 11
480.8559999999999
 21
113.0639999999999
 31
0.0
  0
LINE
  5
255
330
1E
100
AcDbEntity
  8
0
100
AcDbLine
 10
480.8559999999999
 20
113.0639999999999
 30
0.0
 11
481.369
 21
113.125
 31
0.0
  0
LINE
  5
256
330
1E
100
AcDbEntity
  8
0
100
AcDbLine
 10
481.369
 20
113.125
 30
0.0
 11
481.862
 21
113.325
 31
0.0
  0
LINE
  5
257
330
1E
100
AcDbEntity
  8
0
100
AcDbLine
 10
481.862
 20
113.325
 30
0.0
 11
482.2799999999999
 21
113.651
 31
0.0
  0
LINE
  5
258
330
1E
100
AcDbEntity
  8
0
100
AcDbLine
 10
479.8669999999999
 20
113.3289999999999
 30
0.0
 11
480.343
 21
113.127
 31
0.0
  0
LINE
  5
259
330
1E
100
AcDbEntity
  8
0
100
AcDbLine
 10
482.2799999999999
 20
113.651
 30
0.0
 11
482.5899999999999
 21
114.0649999999999
 31
0.0
  0
LINE
  5
25A
330
1E
100
AcDbEntity
  8
0
100
AcDbLine
 10
482.7919999999999
 20
114.541
 30
0.0
 11
482.8549999999999
 21
115.054
 31
0.0
  0
LINE
  5
25B
330
1E
100
AcDbEntity
  8
0
100
AcDbLine
 10
482.5899999999999
 20
114.0649999999999
 30
0.0
 11
482.7919999999999
 21
114.541
 31
0.0
  0
LINE
  5
25C
330
1E
100
AcDbEntity
  8
0
100
AcDbLine
 10
479.453
 20
113.639
 30
0.0
 11
479.8669999999999
 21
113.3289999999999
 31
0.0
  0
LINE
  5
25D
330
1E
100
AcDbEntity
  8
0
100
AcDbLine
 10
479.126
 20
114.057
 30
0.0
 11
479.453
 21
113.639
 31
0.0
  0
LINE
  5
25E
330
1E
100
AcDbEntity
  8
0
100
AcDbLine
 10
478.928
 20
115.576
 30
0.0
 11
479.131
 21
116.0519999999999
 31
0.0
  0
LINE
  5
25F
330
1E
100
AcDbEntity
  8
0
100
AcDbLine
 10
482.794
 20
115.568
 30
0.0
 11
482.8549999999999
 21
115.054
 31
0.0
  0
LINE
  5
260
330
1E
100
AcDbEntity
  8
0
100
AcDbLine
 10
478.927
 20
114.5499999999999
 30
0.0
 11
479.126
 21
114.057
 31
0.0
  0
LINE
  5
261
330
1E
100
AcDbEntity
  8
0
100
AcDbLine
 10
478.866
 20
115.0629999999999
 30
0.0
 11
478.928
 21
115.576
 31
0.0
  0
LINE
  5
262
330
1E
100
AcDbEntity
  8
0
100
AcDbLine
 10
478.866
 20
115.0629999999999
 30
0.0
 11
478.927
 21
114.5499999999999
 31
0.0
  0
LINE
  5
263
330
1E
100
AcDbEntity
  8
0
100
AcDbLine
 10
444.568
 20
111.928
 30
0.0
 11
445.0
 21
115.0
 31
0.0
  0
LINE
  5
264
330
1E
100
AcDbEntity
  8
0
100
AcDbLine
 10
441.073
 20
114.5499999999999
 30
0.0
 11
441.134
 21
115.0629999999999
 31
0.0
  0
LINE
  5
265
330
1E
100
AcDbEntity
  8
0
100
AcDbLine
 10
440.5599999999999
 20
116.466
 30
0.0
 11
440.8689999999999
 21
116.0519999999999
 31
0.0
  0
LINE
  5
266
330
1E
100
AcDbEntity
  8
0
100
AcDbLine
 10
479.131
 20
116.0519999999999
 30
0.0
 11
479.44
 21
116.466
 31
0.0
  0
LINE
  5
267
330
1E
100
AcDbEntity
  8
0
100
AcDbLine
 10
479.44
 20
116.466
 30
0.0
 11
479.859
 21
116.7929999999999
 31
0.0
  0
LINE
  5
268
330
1E
100
AcDbEntity
  8
0
100
AcDbLine
 10
482.268
 20
116.4789999999999
 30
0.0
 11
482.595
 21
116.06
 31
0.0
  0
LINE
  5
269
330
1E
100
AcDbEntity
  8
0
100
AcDbLine
 10
482.595
 20
116.06
 30
0.0
 11
482.794
 21
115.568
 31
0.0
  0
LINE
  5
26A
330
1E
100
AcDbEntity
  8
0
100
AcDbLine
 10
440.8689999999999
 20
116.0519999999999
 30
0.0
 11
441.0719999999999
 21
115.576
 31
0.0
  0
LINE
  5
26B
330
1E
100
AcDbEntity
  8
0
100
AcDbLine
 10
437.732
 20
116.4789999999999
 30
0.0
 11
438.1459999999999
 21
116.789
 31
0.0
  0
LINE
  5
26C
330
1E
100
AcDbEntity
  8
0
100
AcDbLine
 10
437.4049999999999
 20
116.06
 30
0.0
 11
437.732
 21
116.4789999999999
 31
0.0
  0
LINE
  5
26D
330
1E
100
AcDbEntity
  8
0
100
AcDbLine
 10
441.0719999999999
 20
115.576
 30
0.0
 11
441.134
 21
115.0629999999999
 31
0.0
  0
LINE
  5
26E
330
1E
100
AcDbEntity
  8
0
100
AcDbLine
 10
410.6269999999999
 20
113.4746
 30
0.0
 11
410.8309999999999
 21
115.0
 31
0.0
  0
LINE
  5
26F
330
1E
100
AcDbEntity
  8
0
100
AcDbLine
 10
444.863
 20
116.7489999999999
 30
0.0
 11
444.8914307629579
 21
115.772047907854
 31
0.0
  0
LINE
  5
270
330
1E
100
AcDbEntity
  8
0
100
AcDbLine
 10
479.859
 20
116.7929999999999
 30
0.0
 11
480.351
 21
116.992
 31
0.0
  0
LINE
  5
271
330
1E
100
AcDbEntity
  8
0
100
AcDbLine
 10
481.854
 20
116.789
 30
0.0
 11
482.268
 21
116.4789999999999
 31
0.0
  0
LINE
  5
272
330
1E
100
AcDbEntity
  8
0
100
AcDbLine
 10
438.6219999999999
 20
116.991
 30
0.0
 11
439.135
 21
117.054
 31
0.0
  0
LINE
  5
273
330
1E
100
AcDbEntity
  8
0
100
AcDbLine
 10
439.135
 20
117.054
 30
0.0
 11
439.649
 21
116.992
 31
0.0
  0
LINE
  5
274
330
1E
100
AcDbEntity
  8
0
100
AcDbLine
 10
475.4319999999999
 20
118.0719999999999
 30
0.0
 11
476.5839999999999
 21
120.952
 31
0.0
  0
LINE
  5
275
330
1E
100
AcDbEntity
  8
0
100
AcDbLine
 10
480.865
 20
117.054
 30
0.0
 11
481.378
 21
116.991
 31
0.0
  0
LINE
  5
276
330
1E
100
AcDbEntity
  8
0
100
AcDbLine
 10
480.351
 20
116.992
 30
0.0
 11
480.865
 21
117.054
 31
0.0
  0
LINE
  5
277
330
1E
100
AcDbEntity
  8
0
100
AcDbLine
 10
481.378
 20
116.991
 30
0.0
 11
481.854
 21
116.789
 31
0.0
  0
LINE
  5
278
330
1E
100
AcDbEntity
  8
0
100
AcDbLine
 10
445.0
 20
119.0179999999999
 30
0.0
 11
445.0
 21
121.1449999999999
 31
0.0
  0
LINE
  5
279
330
1E
100
AcDbEntity
  8
0
100
AcDbLine
 10
444.568
 20
118.0719999999999
 30
0.0
 11
445.0
 21
115.0
 31
0.0
  0
LINE
  5
27A
330
1E
100
AcDbEntity
  8
0
100
AcDbLine
 10
439.649
 20
116.992
 30
0.0
 11
440.1409999999999
 21
116.7929999999999
 31
0.0
  0
LINE
  5
27B
330
1E
100
AcDbEntity
  8
0
100
AcDbLine
 10
440.1409999999999
 20
116.7929999999999
 30
0.0
 11
440.5599999999999
 21
116.466
 31
0.0
  0
LINE
  5
27C
330
1E
100
AcDbEntity
  8
0
100
AcDbLine
 10
438.1459999999999
 20
116.789
 30
0.0
 11
438.6219999999999
 21
116.991
 31
0.0
  0
LINE
  5
280
330
1E
100
AcDbEntity
  8
0
100
AcDbLine
 10
399.949
 20
117.915
 30
0.0
 11
400.864
 21
119.136
 31
0.0
  0
LINE
  5
281
330
1E
100
AcDbEntity
  8
0
100
AcDbLine
 10
385.734
 20
120.2539999999999
 30
0.0
 11
387.768
 21
125.0
 31
0.0
  0
LINE
  5
287
330
1E
100
AcDbEntity
  8
0
100
AcDbLine
 10
444.429
 20
119.836
 30
0.0
 11
444.429
 21
119.296
 31
0.0
  0
LINE
  5
288
330
1E
100
AcDbEntity
  8
0
100
AcDbLine
 10
444.429
 20
119.836
 30
0.0
 11
444.429
 21
120.723
 31
0.0
  0
LINE
  5
289
330
1E
100
AcDbEntity
  8
0
100
AcDbLine
 10
444.429
 20
119.296
 30
0.0
 11
444.863
 21
116.7489999999999
 31
0.0
  0
LINE
  5
28A
330
1E
100
AcDbEntity
  8
0
100
AcDbLine
 10
444.429
 20
119.296
 30
0.0
 11
444.429
 21
119.836
 31
0.0
  0
LINE
  5
28C
330
1E
100
AcDbEntity
  8
0
100
AcDbLine
 10
424.2659999999999
 20
120.2539999999999
 30
0.0
 11
425.0
 21
115.0
 31
0.0
  0
LINE
  5
28E
330
1E
100
AcDbEntity
  8
0
100
AcDbLine
 10
407.915
 20
120.0509999999999
 30
0.0
 11
409.1359999999999
 21
119.136
 31
0.0
  0
LINE
  5
290
330
1E
100
AcDbEntity
  8
0
100
AcDbLine
 10
444.429
 20
120.723
 30
0.0
 11
444.7919999999999
 21
121.745
 31
0.0
  0
LINE
  5
292
330
1E
100
AcDbEntity
  8
0
100
AcDbLine
 10
444.429
 20
120.723
 30
0.0
 11
444.429
 21
119.836
 31
0.0
  0
LINE
  5
294
330
1E
100
AcDbEntity
  8
0
100
AcDbLine
 10
476.5839999999999
 20
120.952
 30
0.0
 11
478.504
 21
123.496
 31
0.0
  0
LINE
  5
295
330
1E
100
AcDbEntity
  8
0
100
AcDbLine
 10
445.0
 20
122.812
 30
0.0
 11
445.0
 21
122.727
 31
0.0
  0
LINE
  5
296
330
1E
100
AcDbEntity
  8
0
100
AcDbLine
 10
445.0
 20
122.727
 30
0.0
 11
445.0
 21
121.1449999999999
 31
0.0
  0
LINE
  5
297
330
1E
100
AcDbEntity
  8
0
100
AcDbLine
 10
445.0
 20
121.1449999999999
 30
0.0
 11
445.0
 21
119.0179999999999
 31
0.0
  0
LINE
  5
298
330
1E
100
AcDbEntity
  8
0
100
AcDbLine
 10
445.0
 20
121.1449999999999
 30
0.0
 11
445.0
 21
122.727
 31
0.0
  0
LINE
  5
299
330
1E
100
AcDbEntity
  8
0
100
AcDbLine
 10
444.7919999999999
 20
121.745
 30
0.0
 11
444.884
 21
123.205
 31
0.0
  0
LINE
  5
29A
330
1E
100
AcDbEntity
  8
0
100
AcDbLine
 10
443.416
 20
120.952
 30
0.0
 11
444.568
 21
118.0719999999999
 31
0.0
  0
LINE
  5
29B
330
1E
100
AcDbEntity
  8
0
100
AcDbLine
 10
405.0
 20
120.8299999999999
 30
0.0
 11
406.5249999999999
 21
120.627
 31
0.0
  0
LINE
  5
29D
330
1E
100
AcDbEntity
  8
0
100
AcDbLine
 10
403.475
 20
120.627
 30
0.0
 11
405.0
 21
120.8299999999999
 31
0.0
  0
LINE
  5
29E
330
1E
100
AcDbEntity
  8
0
100
AcDbLine
 10
402.085
 20
120.0509999999999
 30
0.0
 11
403.475
 21
120.627
 31
0.0
  0
LINE
  5
29F
330
1E
100
AcDbEntity
  8
0
100
AcDbLine
 10
400.864
 20
119.136
 30
0.0
 11
402.085
 21
120.0509999999999
 31
0.0
  0
LINE
  5
2A0
330
1E
100
AcDbEntity
  8
0
100
AcDbLine
 10
374.1519999999999
 20
123.192
 30
0.0
 11
377.224
 21
130.872
 31
0.0
  0
LINE
  5
2A1
330
1E
100
AcDbEntity
  8
0
100
AcDbLine
 10
435.848
 20
123.192
 30
0.0
 11
437.0
 21
115.0
 31
0.0
  0
LINE
  5
2A2
330
1E
100
AcDbEntity
  8
0
100
AcDbLine
 10
483.0
 20
115.0
 30
0.0
 11
484.152
 21
123.192
 31
0.0
  0
LINE
  5
2A3
330
1E
100
AcDbEntity
  8
0
100
AcDbLine
 10
483.0
 20
115.0
 30
0.0
 11
484.152
 21
106.8079999999999
 31
0.0
  0
LINE
  5
2A4
330
1E
100
AcDbEntity
  8
0
100
AcDbLine
 10
484.152
 20
123.192
 30
0.0
 11
487.2239999999999
 21
130.872
 31
0.0
  0
LINE
  5
2A5
330
1E
100
AcDbEntity
  8
0
100
AcDbLine
 10
549.1439999999999
 20
113.0639999999999
 30
0.0
 11
549.6569999999999
 21
113.127
 31
0.0
  0
LINE
  5
2A6
330
1E
100
AcDbEntity
  8
0
100
AcDbLine
 10
548.6309999999999
 20
113.125
 30
0.0
 11
549.1439999999999
 21
113.0639999999999
 31
0.0
  0
LINE
  5
2A7
330
1E
100
AcDbEntity
  8
0
100
AcDbLine
 10
548.138
 20
113.325
 30
0.0
 11
548.6309999999999
 21
113.125
 31
0.0
  0
LINE
  5
2A8
330
1E
100
AcDbEntity
  8
0
100
AcDbLine
 10
549.6569999999999
 20
113.127
 30
0.0
 11
550.133
 21
113.3289999999999
 31
0.0
  0
LINE
  5
2A9
330
1E
100
AcDbEntity
  8
0
100
AcDbLine
 10
547.72
 20
113.651
 30
0.0
 11
548.138
 21
113.325
 31
0.0
  0
LINE
  5
2AA
330
1E
100
AcDbEntity
  8
0
100
AcDbLine
 10
550.133
 20
113.3289999999999
 30
0.0
 11
550.547
 21
113.639
 31
0.0
  0
LINE
  5
2AB
330
1E
100
AcDbEntity
  8
0
100
AcDbLine
 10
550.547
 20
113.639
 30
0.0
 11
550.874
 21
114.057
 31
0.0
  0
LINE
  5
2AC
330
1E
100
AcDbEntity
  8
0
100
AcDbLine
 10
547.2059999999999
 20
115.568
 30
0.0
 11
547.405
 21
116.06
 31
0.0
  0
LINE
  5
2AD
330
1E
100
AcDbEntity
  8
0
100
AcDbLine
 10
547.1449999999999
 20
115.054
 30
0.0
 11
547.208
 21
114.541
 31
0.0
  0
LINE
  5
2AE
330
1E
100
AcDbEntity
  8
0
100
AcDbLine
 10
547.1449999999999
 20
115.054
 30
0.0
 11
547.2059999999999
 21
115.568
 31
0.0
  0
LINE
  5
2AF
330
1E
100
AcDbEntity
  8
0
100
AcDbLine
 10
550.5599999999999
 20
116.466
 30
0.0
 11
550.869
 21
116.0519999999999
 31
0.0
  0
LINE
  5
2B0
330
1E
100
AcDbEntity
  8
0
100
AcDbLine
 10
550.869
 20
116.0519999999999
 30
0.0
 11
551.072
 21
115.576
 31
0.0
  0
LINE
  5
2B1
330
1E
100
AcDbEntity
  8
0
100
AcDbLine
 10
548.6219999999999
 20
116.991
 30
0.0
 11
549.1349999999999
 21
117.054
 31
0.0
  0
LINE
  5
2B2
330
1E
100
AcDbEntity
  8
0
100
AcDbLine
 10
549.1349999999999
 20
117.054
 30
0.0
 11
549.649
 21
116.992
 31
0.0
  0
LINE
  5
2B3
330
1E
100
AcDbEntity
  8
0
100
AcDbLine
 10
549.649
 20
116.992
 30
0.0
 11
550.1409999999999
 21
116.7929999999999
 31
0.0
  0
LINE
  5
2B4
330
1E
100
AcDbEntity
  8
0
100
AcDbLine
 10
550.1409999999999
 20
116.7929999999999
 30
0.0
 11
550.5599999999999
 21
116.466
 31
0.0
  0
LINE
  5
2B5
330
1E
100
AcDbEntity
  8
0
100
AcDbLine
 10
548.1459999999999
 20
116.789
 30
0.0
 11
548.6219999999999
 21
116.991
 31
0.0
  0
LINE
  5
2B6
330
1E
100
AcDbEntity
  8
0
100
AcDbLine
 10
547.7319999999999
 20
116.4789999999999
 30
0.0
 11
548.1459999999999
 21
116.789
 31
0.0
  0
LINE
  5
2B7
330
1E
100
AcDbEntity
  8
0
100
AcDbLine
 10
547.405
 20
116.06
 30
0.0
 11
547.7319999999999
 21
116.4789999999999
 31
0.0
  0
LINE
  5
2B8
330
1E
100
AcDbEntity
  8
0
100
AcDbLine
 10
547.4099999999999
 20
114.0649999999999
 30
0.0
 11
547.72
 21
113.651
 31
0.0
  0
LINE
  5
2B9
330
1E
100
AcDbEntity
  8
0
100
AcDbLine
 10
547.208
 20
114.541
 30
0.0
 11
547.4099999999999
 21
114.0649999999999
 31
0.0
  0
LINE
  5
2BA
330
1E
100
AcDbEntity
  8
0
100
AcDbLine
 10
550.874
 20
114.057
 30
0.0
 11
551.0729999999999
 21
114.5499999999999
 31
0.0
  0
LINE
  5
2BB
330
1E
100
AcDbEntity
  8
0
100
AcDbLine
 10
545.848
 20
123.192
 30
0.0
 11
547.0
 21
115.0
 31
0.0
  0
LINE
  5
2BC
330
1E
100
AcDbEntity
  8
0
100
AcDbLine
 10
325.848
 20
106.8079999999999
 30
0.0
 11
327.0
 21
115.0
 31
0.0
  0
LINE
  5
2BD
330
1E
100
AcDbEntity
  8
0
100
AcDbLine
 10
264.1519999999999
 20
123.192
 30
0.0
 11
267.2239999999999
 21
130.872
 31
0.0
  0
LINE
  5
2BE
330
1E
100
AcDbEntity
  8
0
100
AcDbLine
 10
325.848
 20
123.192
 30
0.0
 11
327.0
 21
115.0
 31
0.0
  0
LINE
  5
2BF
330
1E
100
AcDbEntity
  8
0
100
AcDbLine
 10
215.8479999999999
 20
106.8079999999999
 30
0.0
 11
217.0
 21
115.0
 31
0.0
  0
LINE
  5
2C0
330
1E
100
AcDbEntity
  8
0
100
AcDbLine
 10
212.7759999999999
 20
99.12799999999998
 30
0.0
 11
215.8479999999999
 21
106.8079999999999
 31
0.0
  0
LINE
  5
2C1
330
1E
100
AcDbEntity
  8
0
100
AcDbLine
 10
212.7759999999999
 20
99.12799999999998
 30
0.0
 11
216.0719999999999
 21
103.432
 31
0.0
  0
LINE
  5
2C2
330
1E
100
AcDbEntity
  8
0
100
AcDbLine
 10
207.6559999999999
 20
92.34400000000009
 30
0.0
 11
212.7759999999999
 21
99.12799999999998
 31
0.0
  0
LINE
  5
2C3
330
1E
100
AcDbEntity
  8
0
100
AcDbLine
 10
200.872
 20
87.22399999999998
 30
0.0
 11
207.6559999999999
 21
92.34400000000009
 31
0.0
  0
LINE
  5
2C4
330
1E
100
AcDbEntity
  8
0
100
AcDbLine
 10
193.192
 20
84.152
 30
0.0
 11
200.872
 21
87.22399999999998
 31
0.0
  0
LINE
  5
2C5
330
1E
100
AcDbEntity
  8
0
100
AcDbLine
 10
185.0
 20
83.0
 30
0.0
 11
193.192
 21
84.152
 31
0.0
  0
LINE
  5
2C6
330
1E
100
AcDbEntity
  8
0
100
AcDbLine
 10
154.152
 20
123.192
 30
0.0
 11
157.2239999999999
 21
130.872
 31
0.0
  0
LINE
  5
2C8
330
1E
100
AcDbEntity
  8
0
100
AcDbLine
 10
478.504
 20
123.496
 30
0.0
 11
481.048
 21
125.4159999999999
 31
0.0
  0
LINE
  5
2C9
330
1E
100
AcDbEntity
  8
0
100
AcDbLine
 10
368.504
 20
123.496
 30
0.0
 11
371.048
 21
125.4159999999999
 31
0.0
  0
LINE
  5
2CA
330
1E
100
AcDbEntity
  8
0
100
AcDbLine
 10
441.4959999999999
 20
123.496
 30
0.0
 11
443.416
 21
120.952
 31
0.0
  0
LINE
  5
2CB
330
1E
100
AcDbEntity
  8
0
100
AcDbLine
 10
258.504
 20
123.496
 30
0.0
 11
261.0479999999999
 21
125.4159999999999
 31
0.0
  0
LINE
  5
2CC
330
1E
100
AcDbEntity
  8
0
100
AcDbLine
 10
445.0
 20
123.676
 30
0.0
 11
445.0
 21
122.812
 31
0.0
  0
LINE
  5
2CD
330
1E
100
AcDbEntity
  8
0
100
AcDbLine
 10
445.0
 20
123.709
 30
0.0
 11
445.0
 21
124.091
 31
0.0
  0
LINE
  5
2CE
330
1E
100
AcDbEntity
  8
0
100
AcDbLine
 10
331.4959999999999
 20
123.496
 30
0.0
 11
333.416
 21
120.952
 31
0.0
  0
LINE
  5
2CF
330
1E
100
AcDbEntity
  8
0
100
AcDbLine
 10
221.496
 20
123.496
 30
0.0
 11
223.416
 21
120.952
 31
0.0
  0
LINE
  5
2D0
330
1E
100
AcDbEntity
  8
0
100
AcDbLine
 10
215.8479999999999
 20
123.192
 30
0.0
 11
217.0
 21
115.0
 31
0.0
  0
LINE
  5
2D1
330
1E
100
AcDbEntity
  8
0
100
AcDbLine
 10
153.9279999999999
 20
126.5679999999999
 30
0.0
 11
157.2239999999999
 21
130.872
 31
0.0
  0
LINE
  5
2D2
330
1E
100
AcDbEntity
  8
0
100
AcDbLine
 10
151.048
 20
125.4159999999999
 30
0.0
 11
153.9279999999999
 21
126.5679999999999
 31
0.0
  0
LINE
  5
2D3
330
1E
100
AcDbEntity
  8
0
100
AcDbLine
 10
157.2239999999999
 20
130.872
 30
0.0
 11
162.3439999999999
 21
137.656
 31
0.0
  0
LINE
  5
2D4
330
1E
100
AcDbEntity
  8
0
100
AcDbLine
 10
162.3439999999999
 20
137.656
 30
0.0
 11
169.1279999999999
 21
142.776
 31
0.0
  0
LINE
  5
2D5
330
1E
100
AcDbEntity
  8
0
100
AcDbLine
 10
169.1279999999999
 20
142.776
 30
0.0
 11
176.8079999999999
 21
145.8479999999999
 31
0.0
  0
LINE
  5
2D6
330
1E
100
AcDbEntity
  8
0
100
AcDbLine
 10
176.8079999999999
 20
145.8479999999999
 30
0.0
 11
185.0
 21
147.0
 31
0.0
  0
LINE
  5
2D8
330
1E
100
AcDbEntity
  8
0
100
AcDbLine
 10
260.0
 20
124.6399999999999
 30
0.0
 11
260.0
 21
125.0
 31
0.0
  0
LINE
  5
2DA
330
1E
100
AcDbEntity
  8
0
100
AcDbLine
 10
260.316798284285
 20
124.8641496485169
 30
0.0
 11
260.5709999999999
 21
125.5409999999999
 31
0.0
  0
LINE
  5
2DB
330
1E
100
AcDbEntity
  8
0
100
AcDbLine
 10
260.132556142849
 20
124.725098975735
 30
0.0
 11
260.171
 21
124.909
 31
0.0
  0
LINE
  5
2DC
330
1E
100
AcDbEntity
  8
0
100
AcDbLine
 10
225.409
 20
125.0
 30
0.0
 11
226.608
 21
125.0
 31
0.0
  0
LINE
  5
2DD
330
1E
100
AcDbEntity
  8
0
100
AcDbLine
 10
226.608
 20
125.0
 30
0.0
 11
228.5149999999999
 21
125.0
 31
0.0
  0
LINE
  5
2DE
330
1E
100
AcDbEntity
  8
0
100
AcDbLine
 10
219.5031999999999
 20
125.0
 30
0.0
 11
225.409
 21
125.0
 31
0.0
  0
LINE
  5
2DF
330
1E
100
AcDbEntity
  8
0
100
AcDbLine
 10
233.894
 20
125.0
 30
0.0
 11
237.0
 21
125.0
 31
0.0
  0
LINE
  5
2E0
330
1E
100
AcDbEntity
  8
0
100
AcDbLine
 10
228.5149999999999
 20
125.0
 30
0.0
 11
231.0
 21
125.0
 31
0.0
  0
LINE
  5
2E1
330
1E
100
AcDbEntity
  8
0
100
AcDbLine
 10
231.0
 20
125.0
 30
0.0
 11
233.894
 21
125.0
 31
0.0
  0
LINE
  5
2E2
330
1E
100
AcDbEntity
  8
0
100
AcDbLine
 10
237.0
 20
125.0
 30
0.0
 11
260.0
 21
125.0
 31
0.0
  0
LINE
  5
2E7
330
1E
100
AcDbEntity
  8
0
100
AcDbLine
 10
260.171
 20
124.909
 30
0.0
 11
260.5709999999999
 21
125.727
 31
0.0
  0
LINE
  5
2EA
330
1E
100
AcDbEntity
  8
0
100
AcDbLine
 10
261.0479999999999
 20
125.4159999999999
 30
0.0
 11
263.9279999999999
 21
126.5679999999999
 31
0.0
  0
LINE
  5
305
330
1E
100
AcDbEntity
  8
0
100
AcDbLine
 10
260.5709999999999
 20
125.5409999999999
 30
0.0
 11
260.5709999999999
 21
125.727
 31
0.0
  0
LINE
  5
306
330
1E
100
AcDbEntity
  8
0
100
AcDbLine
 10
261.1429999999999
 20
126.0
 30
0.0
 11
262.508
 21
126.0
 31
0.0
  0
LINE
  5
307
330
1E
100
AcDbEntity
  8
0
100
AcDbLine
 10
260.5709999999999
 20
125.727
 30
0.0
 11
261.1429999999999
 21
126.0
 31
0.0
  0
LINE
  5
308
330
1E
100
AcDbEntity
  8
0
100
AcDbLine
 10
260.5709999999999
 20
125.727
 30
0.0
 11
260.5709999999999
 21
125.5409999999999
 31
0.0
  0
LINE
  5
30E
330
1E
100
AcDbEntity
  8
0
100
AcDbLine
 10
263.9279999999999
 20
126.5679999999999
 30
0.0
 11
267.2239999999999
 21
130.872
 31
0.0
  0
LINE
  5
30F
330
1E
100
AcDbEntity
  8
0
100
AcDbLine
 10
216.0719999999999
 20
126.5679999999999
 30
0.0
 11
218.9519999999999
 21
125.4159999999999
 31
0.0
  0
LINE
  5
310
330
1E
100
AcDbEntity
  8
0
100
AcDbLine
 10
218.9519999999999
 20
125.4159999999999
 30
0.0
 11
221.496
 21
123.496
 31
0.0
  0
LINE
  5
311
330
1E
100
AcDbEntity
  8
0
100
AcDbLine
 10
304.912
 20
124.912
 30
0.0
 11
307.152
 21
121.944
 31
0.0
  0
LINE
  5
312
330
1E
100
AcDbEntity
  8
0
100
AcDbLine
 10
274.168
 20
126.9039999999999
 30
0.0
 11
278.0079999999999
 21
131.992
 31
0.0
  0
LINE
  5
313
330
1E
100
AcDbEntity
  8
0
100
AcDbLine
 10
283.096
 20
135.8319999999999
 30
0.0
 11
288.856
 21
138.1359999999999
 31
0.0
  0
LINE
  5
314
330
1E
100
AcDbEntity
  8
0
100
AcDbLine
 10
278.0079999999999
 20
131.992
 30
0.0
 11
283.096
 21
135.8319999999999
 31
0.0
  0
LINE
  5
315
330
1E
100
AcDbEntity
  8
0
100
AcDbLine
 10
275.884
 20
134.116
 30
0.0
 11
281.6079999999999
 21
138.436
 31
0.0
  0
LINE
  5
316
330
1E
100
AcDbEntity
  8
0
100
AcDbLine
 10
271.564
 20
128.3919999999999
 30
0.0
 11
275.884
 21
134.116
 31
0.0
  0
LINE
  5
317
330
1E
100
AcDbEntity
  8
0
100
AcDbLine
 10
298.5839999999999
 20
128.496
 30
0.0
 11
301.944
 21
127.1519999999999
 31
0.0
  0
LINE
  5
318
330
1E
100
AcDbEntity
  8
0
100
AcDbLine
 10
315.8319999999999
 20
126.9039999999999
 30
0.0
 11
318.1359999999999
 21
121.1439999999999
 31
0.0
  0
LINE
  5
319
330
1E
100
AcDbEntity
  8
0
100
AcDbLine
 10
318.4359999999999
 20
128.3919999999999
 30
0.0
 11
321.028
 21
121.9119999999999
 31
0.0
  0
LINE
  5
31A
330
1E
100
AcDbEntity
  8
0
100
AcDbLine
 10
301.944
 20
127.1519999999999
 30
0.0
 11
304.912
 21
124.912
 31
0.0
  0
LINE
  5
31B
330
1E
100
AcDbEntity
  8
0
100
AcDbLine
 10
311.992
 20
131.992
 30
0.0
 11
315.8319999999999
 21
126.9039999999999
 31
0.0
  0
LINE
  5
31C
330
1E
100
AcDbEntity
  8
0
100
AcDbLine
 10
306.904
 20
135.8319999999999
 30
0.0
 11
311.992
 21
131.992
 31
0.0
  0
LINE
  5
31D
330
1E
100
AcDbEntity
  8
0
100
AcDbLine
 10
314.1159999999999
 20
134.116
 30
0.0
 11
318.4359999999999
 21
128.3919999999999
 31
0.0
  0
LINE
  5
31E
330
1E
100
AcDbEntity
  8
0
100
AcDbLine
 10
295.0
 20
129.0
 30
0.0
 11
298.5839999999999
 21
128.496
 31
0.0
  0
LINE
  5
31F
330
1E
100
AcDbEntity
  8
0
100
AcDbLine
 10
291.4159999999999
 20
128.496
 30
0.0
 11
295.0
 21
129.0
 31
0.0
  0
LINE
  5
320
330
1E
100
AcDbEntity
  8
0
100
AcDbLine
 10
288.056
 20
127.1519999999999
 30
0.0
 11
291.4159999999999
 21
128.496
 31
0.0
  0
LINE
  5
321
330
1E
100
AcDbEntity
  8
0
100
AcDbLine
 10
285.0879999999999
 20
124.912
 30
0.0
 11
288.056
 21
127.1519999999999
 31
0.0
  0
LINE
  5
322
330
1E
100
AcDbEntity
  8
0
100
AcDbLine
 10
267.2239999999999
 20
130.872
 30
0.0
 11
272.344
 21
137.656
 31
0.0
  0
LINE
  5
323
330
1E
100
AcDbEntity
  8
0
100
AcDbLine
 10
272.344
 20
137.656
 30
0.0
 11
279.1279999999999
 21
142.776
 31
0.0
  0
LINE
  5
324
330
1E
100
AcDbEntity
  8
0
100
AcDbLine
 10
371.048
 20
125.4159999999999
 30
0.0
 11
373.928
 21
126.5679999999999
 31
0.0
  0
LINE
  5
325
330
1E
100
AcDbEntity
  8
0
100
AcDbLine
 10
323.443776951673
 20
130.0
 30
0.0
 11
352.0
 21
130.0
 31
0.0
  0
LINE
  5
326
330
1E
100
AcDbEntity
  8
0
100
AcDbLine
 10
362.0
 20
130.0
 30
0.0
 11
376.556223048327
 21
130.0
 31
0.0
  0
LINE
  5
327
330
1E
100
AcDbEntity
  8
0
100
AcDbLine
 10
352.0
 20
130.0
 30
0.0
 11
362.0
 21
130.0
 31
0.0
  0
LINE
  5
328
330
1E
100
AcDbEntity
  8
0
100
AcDbLine
 10
373.928
 20
126.5679999999999
 30
0.0
 11
377.224
 21
130.872
 31
0.0
  0
LINE
  5
329
330
1E
100
AcDbEntity
  8
0
100
AcDbLine
 10
326.072
 20
126.5679999999999
 30
0.0
 11
328.9519999999999
 21
125.4159999999999
 31
0.0
  0
LINE
  5
32A
330
1E
100
AcDbEntity
  8
0
100
AcDbLine
 10
328.9519999999999
 20
125.4159999999999
 30
0.0
 11
331.4959999999999
 21
123.496
 31
0.0
  0
LINE
  5
32B
330
1E
100
AcDbEntity
  8
0
100
AcDbLine
 10
419.124
 20
129.1239999999999
 30
0.0
 11
422.2319999999999
 21
125.0
 31
0.0
  0
LINE
  5
32C
330
1E
100
AcDbEntity
  8
0
100
AcDbLine
 10
422.2319999999999
 20
125.0
 30
0.0
 11
424.2659999999999
 21
120.2539999999999
 31
0.0
  0
LINE
  5
32D
330
1E
100
AcDbEntity
  8
0
100
AcDbLine
 10
387.768
 20
125.0
 30
0.0
 11
390.876
 21
129.1239999999999
 31
0.0
  0
LINE
  5
32E
330
1E
100
AcDbEntity
  8
0
100
AcDbLine
 10
415.0
 20
132.2319999999999
 30
0.0
 11
419.124
 21
129.1239999999999
 31
0.0
  0
LINE
  5
32F
330
1E
100
AcDbEntity
  8
0
100
AcDbLine
 10
410.254
 20
134.2659999999999
 30
0.0
 11
415.0
 21
132.2319999999999
 31
0.0
  0
LINE
  5
330
330
1E
100
AcDbEntity
  8
0
100
AcDbLine
 10
405.0
 20
135.0
 30
0.0
 11
410.254
 21
134.2659999999999
 31
0.0
  0
LINE
  5
331
330
1E
100
AcDbEntity
  8
0
100
AcDbLine
 10
399.7459999999999
 20
134.2659999999999
 30
0.0
 11
405.0
 21
135.0
 31
0.0
  0
LINE
  5
332
330
1E
100
AcDbEntity
  8
0
100
AcDbLine
 10
395.0
 20
132.2319999999999
 30
0.0
 11
399.7459999999999
 21
134.2659999999999
 31
0.0
  0
LINE
  5
333
330
1E
100
AcDbEntity
  8
0
100
AcDbLine
 10
390.876
 20
129.1239999999999
 30
0.0
 11
395.0
 21
132.2319999999999
 31
0.0
  0
LINE
  5
334
330
1E
100
AcDbEntity
  8
0
100
AcDbLine
 10
377.224
 20
130.872
 30
0.0
 11
382.344
 21
137.656
 31
0.0
  0
LINE
  5
335
330
1E
100
AcDbEntity
  8
0
100
AcDbLine
 10
382.344
 20
137.656
 30
0.0
 11
389.128
 21
142.776
 31
0.0
  0
LINE
  5
336
330
1E
100
AcDbEntity
  8
0
100
AcDbLine
 10
445.0
 20
124.0
 30
0.0
 11
479.1718
 21
124.0
 31
0.0
  0
LINE
  5
337
330
1E
100
AcDbEntity
  8
0
100
AcDbLine
 10
445.0
 20
124.0
 30
0.0
 11
445.0
 21
123.676
 31
0.0
  0
LINE
  5
338
330
1E
100
AcDbEntity
  8
0
100
AcDbLine
 10
445.0
 20
124.091
 30
0.0
 11
445.0
 21
123.709
 31
0.0
  0
LINE
  5
33B
330
1E
100
AcDbEntity
  8
0
100
AcDbLine
 10
444.761
 20
124.657
 30
0.0
 11
444.884
 21
123.205
 31
0.0
  0
LINE
  5
33C
330
1E
100
AcDbEntity
  8
0
100
AcDbLine
 10
444.829
 20
124.909
 30
0.0
 11
445.0
 21
124.091
 31
0.0
  0
LINE
  5
33D
330
1E
100
AcDbEntity
  8
0
100
AcDbLine
 10
481.048
 20
125.4159999999999
 30
0.0
 11
483.928
 21
126.5679999999999
 31
0.0
  0
LINE
  5
33E
330
1E
100
AcDbEntity
  8
0
100
AcDbLine
 10
444.429
 20
125.5409999999999
 30
0.0
 11
444.429
 21
125.727
 31
0.0
  0
LINE
  5
340
330
1E
100
AcDbEntity
  8
0
100
AcDbLine
 10
444.429
 20
125.5409999999999
 30
0.0
 11
444.761
 21
124.657
 31
0.0
  0
LINE
  5
341
330
1E
100
AcDbEntity
  8
0
100
AcDbLine
 10
438.143
 20
126.0
 30
0.0
 11
443.8569999999999
 21
126.0
 31
0.0
  0
LINE
  5
342
330
1E
100
AcDbEntity
  8
0
100
AcDbLine
 10
437.846170984456
 20
125.8583316062179
 30
0.0
 11
438.143
 21
126.0
 31
0.0
  0
LINE
  5
343
330
1E
100
AcDbEntity
  8
0
100
AcDbLine
 10
443.8569999999999
 20
126.0
 30
0.0
 11
444.429
 21
125.727
 31
0.0
  0
LINE
  5
344
330
1E
100
AcDbEntity
  8
0
100
AcDbLine
 10
444.429
 20
125.727
 30
0.0
 11
444.829
 21
124.909
 31
0.0
  0
LINE
  5
345
330
1E
100
AcDbEntity
  8
0
100
AcDbLine
 10
444.429
 20
125.727
 30
0.0
 11
444.429
 21
125.5409999999999
 31
0.0
  0
LINE
  5
346
330
1E
100
AcDbEntity
  8
0
100
AcDbLine
 10
483.928
 20
126.5679999999999
 30
0.0
 11
487.2239999999999
 21
130.872
 31
0.0
  0
LINE
  5
347
330
1E
100
AcDbEntity
  8
0
100
AcDbLine
 10
436.0719999999999
 20
126.5679999999999
 30
0.0
 11
438.952
 21
125.4159999999999
 31
0.0
  0
LINE
  5
348
330
1E
100
AcDbEntity
  8
0
100
AcDbLine
 10
438.952
 20
125.4159999999999
 30
0.0
 11
441.4959999999999
 21
123.496
 31
0.0
  0
LINE
  5
349
330
1E
100
AcDbEntity
  8
0
100
AcDbLine
 10
432.776
 20
130.872
 30
0.0
 11
435.848
 21
123.192
 31
0.0
  0
LINE
  5
34A
330
1E
100
AcDbEntity
  8
0
100
AcDbLine
 10
432.776
 20
130.872
 30
0.0
 11
436.0719999999999
 21
126.5679999999999
 31
0.0
  0
LINE
  5
34B
330
1E
100
AcDbEntity
  8
0
100
AcDbLine
 10
427.6559999999999
 20
137.656
 30
0.0
 11
432.776
 21
130.872
 31
0.0
  0
LINE
  5
34C
330
1E
100
AcDbEntity
  8
0
100
AcDbLine
 10
487.2239999999999
 20
130.872
 30
0.0
 11
492.344
 21
137.656
 31
0.0
  0
LINE
  5
34D
330
1E
100
AcDbEntity
  8
0
100
AcDbLine
 10
492.344
 20
137.656
 30
0.0
 11
499.128
 21
142.776
 31
0.0
  0
LINE
  5
34E
330
1E
100
AcDbEntity
  8
0
100
AcDbLine
 10
546.072
 20
126.5679999999999
 30
0.0
 11
548.9519999999999
 21
125.4159999999999
 31
0.0
  0
LINE
  5
34F
330
1E
100
AcDbEntity
  8
0
100
AcDbLine
 10
548.9519999999999
 20
125.4159999999999
 30
0.0
 11
551.496
 21
123.496
 31
0.0
  0
LINE
  5
350
330
1E
100
AcDbEntity
  8
0
100
AcDbLine
 10
542.7759999999999
 20
130.872
 30
0.0
 11
545.848
 21
123.192
 31
0.0
  0
LINE
  5
351
330
1E
100
AcDbEntity
  8
0
100
AcDbLine
 10
542.7759999999999
 20
130.872
 30
0.0
 11
546.072
 21
126.5679999999999
 31
0.0
  0
LINE
  5
352
330
1E
100
AcDbEntity
  8
0
100
AcDbLine
 10
537.6559999999999
 20
137.656
 30
0.0
 11
542.7759999999999
 21
130.872
 31
0.0
  0
LINE
  5
353
330
1E
100
AcDbEntity
  8
0
100
AcDbLine
 10
322.7759999999999
 20
130.872
 30
0.0
 11
325.848
 21
123.192
 31
0.0
  0
LINE
  5
354
330
1E
100
AcDbEntity
  8
0
100
AcDbLine
 10
322.7759999999999
 20
130.872
 30
0.0
 11
326.072
 21
126.5679999999999
 31
0.0
  0
LINE
  5
355
330
1E
100
AcDbEntity
  8
0
100
AcDbLine
 10
317.656
 20
137.656
 30
0.0
 11
322.7759999999999
 21
130.872
 31
0.0
  0
LINE
  5
356
330
1E
100
AcDbEntity
  8
0
100
AcDbLine
 10
212.7759999999999
 20
130.872
 30
0.0
 11
215.8479999999999
 21
123.192
 31
0.0
  0
LINE
  5
357
330
1E
100
AcDbEntity
  8
0
100
AcDbLine
 10
212.7759999999999
 20
130.872
 30
0.0
 11
216.0719999999999
 21
126.5679999999999
 31
0.0
  0
LINE
  5
358
330
1E
100
AcDbEntity
  8
0
100
AcDbLine
 10
301.144
 20
138.1359999999999
 30
0.0
 11
306.904
 21
135.8319999999999
 31
0.0
  0
LINE
  5
359
330
1E
100
AcDbEntity
  8
0
100
AcDbLine
 10
288.856
 20
138.1359999999999
 30
0.0
 11
295.0
 21
139.0
 31
0.0
  0
LINE
  5
35A
330
1E
100
AcDbEntity
  8
0
100
AcDbLine
 10
295.0
 20
139.0
 30
0.0
 11
301.144
 21
138.1359999999999
 31
0.0
  0
LINE
  5
35B
330
1E
100
AcDbEntity
  8
0
100
AcDbLine
 10
301.912
 20
141.028
 30
0.0
 11
308.3919999999999
 21
138.436
 31
0.0
  0
LINE
  5
35C
330
1E
100
AcDbEntity
  8
0
100
AcDbLine
 10
295.0
 20
142.0
 30
0.0
 11
301.912
 21
141.028
 31
0.0
  0
LINE
  5
35D
330
1E
100
AcDbEntity
  8
0
100
AcDbLine
 10
288.0879999999999
 20
141.028
 30
0.0
 11
295.0
 21
142.0
 31
0.0
  0
LINE
  5
35E
330
1E
100
AcDbEntity
  8
0
100
AcDbLine
 10
281.6079999999999
 20
138.436
 30
0.0
 11
288.0879999999999
 21
141.028
 31
0.0
  0
LINE
  5
35F
330
1E
100
AcDbEntity
  8
0
100
AcDbLine
 10
279.1279999999999
 20
142.776
 30
0.0
 11
286.8079999999999
 21
145.8479999999999
 31
0.0
  0
LINE
  5
360
330
1E
100
AcDbEntity
  8
0
100
AcDbLine
 10
286.8079999999999
 20
145.8479999999999
 30
0.0
 11
295.0
 21
147.0
 31
0.0
  0
LINE
  5
361
330
1E
100
AcDbEntity
  8
0
100
AcDbLine
 10
308.3919999999999
 20
138.436
 30
0.0
 11
314.1159999999999
 21
134.116
 31
0.0
  0
LINE
  5
362
330
1E
100
AcDbEntity
  8
0
100
AcDbLine
 10
389.128
 20
142.776
 30
0.0
 11
396.808
 21
145.8479999999999
 31
0.0
  0
LINE
  5
363
330
1E
100
AcDbEntity
  8
0
100
AcDbLine
 10
420.8719999999999
 20
142.776
 30
0.0
 11
427.6559999999999
 21
137.656
 31
0.0
  0
LINE
  5
364
330
1E
100
AcDbEntity
  8
0
100
AcDbLine
 10
499.128
 20
142.776
 30
0.0
 11
506.8080000000001
 21
145.8479999999999
 31
0.0
  0
LINE
  5
365
330
1E
100
AcDbEntity
  8
0
100
AcDbLine
 10
530.872
 20
142.776
 30
0.0
 11
537.6559999999999
 21
137.656
 31
0.0
  0
LINE
  5
366
330
1E
100
AcDbEntity
  8
0
100
AcDbLine
 10
396.808
 20
145.8479999999999
 30
0.0
 11
405.0
 21
147.0
 31
0.0
  0
LINE
  5
367
330
1E
100
AcDbEntity
  8
0
100
AcDbLine
 10
413.1919999999999
 20
145.8479999999999
 30
0.0
 11
420.8719999999999
 21
142.776
 31
0.0
  0
LINE
  5
368
330
1E
100
AcDbEntity
  8
0
100
AcDbLine
 10
506.8080000000001
 20
145.8479999999999
 30
0.0
 11
515.0
 21
147.0
 31
0.0
  0
LINE
  5
369
330
1E
100
AcDbEntity
  8
0
100
AcDbLine
 10
523.192
 20
145.8479999999999
 30
0.0
 11
530.872
 21
142.776
 31
0.0
  0
LINE
  5
36A
330
1E
100
AcDbEntity
  8
0
100
AcDbLine
 10
310.872
 20
142.776
 30
0.0
 11
317.656
 21
137.656
 31
0.0
  0
LINE
  5
36B
330
1E
100
AcDbEntity
  8
0
100
AcDbLine
 10
303.1919999999999
 20
145.8479999999999
 30
0.0
 11
310.872
 21
142.776
 31
0.0
  0
LINE
  5
36C
330
1E
100
AcDbEntity
  8
0
100
AcDbLine
 10
207.6559999999999
 20
137.656
 30
0.0
 11
212.7759999999999
 21
130.872
 31
0.0
  0
LINE
  5
36D
330
1E
100
AcDbEntity
  8
0
100
AcDbLine
 10
200.872
 20
142.776
 30
0.0
 11
207.6559999999999
 21
137.656
 31
0.0
  0
LINE
  5
36E
330
1E
100
AcDbEntity
  8
0
100
AcDbLine
 10
405.0
 20
147.0
 30
0.0
 11
413.1919999999999
 21
145.8479999999999
 31
0.0
  0
LINE
  5
36F
330
1E
100
AcDbEntity
  8
0
100
AcDbLine
 10
515.0
 20
147.0
 30
0.0
 11
523.192
 21
145.8479999999999
 31
0.0
  0
LINE
  5
370
330
1E
100
AcDbEntity
  8
0
100
AcDbLine
 10
295.0
 20
147.0
 30
0.0
 11
303.1919999999999
 21
145.8479999999999
 31
0.0
  0
LINE
  5
371
330
1E
100
AcDbEntity
  8
0
100
AcDbLine
 10
193.192
 20
145.8479999999999
 30
0.0
 11
200.872
 21
142.776
 31
0.0
  0
LINE
  5
372
330
1E
100
AcDbEntity
  8
0
100
AcDbLine
 10
185.0
 20
147.0
 30
0.0
 11
193.192
 21
145.8479999999999
 31
0.0
  0
LINE
  5
373
330
1E
100
AcDbEntity
  8
0
100
AcDbLine
 10
551.0
 20
123.870339622642
 30
0.0
 11
551.0
 21
150.0
 31
0.0
  0
LINE
  5
374
330
1E
100
AcDbEntity
  8
0
100
AcDbLine
 10
551.0
 20
106.129660377359
 30
0.0
 11
551.0
 21
50.0
 31
0.0
  0
LINE
  5
375
330
1E
100
AcDbEntity
  8
0
100
AcDbLine
 10
551.0
 20
106.129660377359
 30
0.0
 11
551.0
 21
50.0
 31
0.0
  0
LINE
  5
376
330
1E
100
AcDbEntity
  8
0
100
AcDbLine
 10
551.0
 20
150.0
 30
0.0
 11
700.0
 21
200.0
 31
0.0
  0
LINE
  5
377
330
1E
100
AcDbEntity
  8
0
100
AcDbLine
 10
551.0
 20
150.0
 30
0.0
 11
551.0
 21
123.870339622642
 31
0.0
  0
LINE
  5
378
330
1E
100
AcDbEntity
  8
0
100
AcDbLine
 10
551.496
 20
106.5039999999999
 30
0.0
 11
553.4159999999999
 21
109.0479999999999
 31
0.0
  0
LINE
  5
379
330
1E
100
AcDbEntity
  8
0
100
AcDbLine
 10
551.0729999999999
 20
114.5499999999999
 30
0.0
 11
551.134
 21
115.0629999999999
 31
0.0
  0
LINE
  5
37A
330
1E
100
AcDbEntity
  8
0
100
AcDbLine
 10
551.496
 20
123.496
 30
0.0
 11
553.4159999999999
 21
120.952
 31
0.0
  0
LINE
  5
37B
330
1E
100
AcDbEntity
  8
0
100
AcDbLine
 10
554.5679999999999
 20
118.0719999999999
 30
0.0
 11
555.0
 21
115.0
 31
0.0
  0
LINE
  5
37C
330
1E
100
AcDbEntity
  8
0
100
AcDbLine
 10
553.4159999999999
 20
120.952
 30
0.0
 11
554.5679999999999
 21
118.0719999999999
 31
0.0
  0
LINE
  5
37D
330
1E
100
AcDbEntity
  8
0
100
AcDbLine
 10
551.072
 20
115.576
 30
0.0
 11
551.134
 21
115.0629999999999
 31
0.0
  0
LINE
  5
37E
330
1E
100
AcDbEntity
  8
0
100
AcDbLine
 10
554.5679999999999
 20
111.928
 30
0.0
 11
555.0
 21
115.0
 31
0.0
  0
LINE
  5
37F
330
1E
100
AcDbEntity
  8
0
100
AcDbLine
 10
553.4159999999999
 20
109.0479999999999
 30
0.0
 11
554.5679999999999
 21
111.928
 31
0.0
  0
LINE
  5
380
330
1E
100
AcDbEntity
  8
0
100
AcDbLine
 10
551.0
 20
150.0
 30
0.0
 11
551.0
 21
123.870339622642
 31
0.0
  0
LINE
  5
381
330
1E
100
AcDbEntity
  8
0
100
AcDbLine
 10
551.0
 20
50.0
 30
0.0
 11
700.0
 21
0.0000000000000022
 31
0.0
  0
LINE
  5
382
330
1E
100
AcDbEntity
  8
0
100
AcDbLine
 10
551.0
 20
50.0
 30
0.0
 11
700.0
 21
0.0
 31
0.0
  0
LINE
  5
383
330
1E
100
AcDbEntity
  8
0
100
AcDbLine
 10
551.0
 20
50.0
 30
0.0
 11
551.0
 21
106.129660377359
 31
0.0
  0
LINE
  5
384
330
1E
100
AcDbEntity
  8
0
100
AcDbLine
 10
149.0
 20
50.0
 30
0.0
 11
551.0
 21
50.0
 31
0.0
  0
LINE
  5
385
330
1E
100
AcDbEntity
  8
0
100
AcDbLine
 10
700.0
 20
200.0
 30
0.0
 11
700.0
 21
0.0
 31
0.0
  0
LINE
  5
386
330
1E
100
AcDbEntity
  8
0
100
AcDbLine
 10
700.0
 20
0.0000000000000022
 30
0.0
 11
700.0
 21
200.0
 31
0.0
  0
LINE
  5
387
330
1E
100
AcDbEntity
  8
0
100
AcDbLine
 10
0.0000000000000003
 20
-0.0000000000000009
 30
0.0
 11
0.0000000000000003
 21
200.0
 31
0.0
  0
LINE
  5
388
330
1E
100
AcDbEntity
  8
0
100
AcDbLine
 10
0.0000000000000003
 20
-0.0000000000000009
 30
0.0
 11
700.0
 21
-0.0000000000000009
 31
0.0
  0
LINE
  5
38D
330
1E
100
AcDbEntity
  8
0
100
AcDbLine
 10
407.915
 20
120.0509999999999
 30
0.0
 11
406.5249999999999
 21
120.627
 31
0.0
  0
ENDSEC
  0
SECTION
  2
OBJECTS
  0
DICTIONARY
  5
C
330
0
100
AcDbDictionary
281
     1
  3
ACAD_GROUP
350
D
  3
ACAD_LAYOUT
350
19
  3
ACAD_MLINESTYLE
350
16
  3
ACAD_PLOTSETTINGS
350
18
  3
ACAD_PLOTSTYLENAME
350
E
  3
AcDbVariableDictionary
350
38E
  0
DICTIONARY
  5
D
102
{ACAD_REACTORS
330
C
102
}
330
C
100
AcDbDictionary
281
     1
  0
DICTIONARY
  5
19
102
{ACAD_REACTORS
330
C
102
}
330
C
100
AcDbDictionary
281
     1
  3
Layout1
350
1D
  3
Model
350
21
  0
DICTIONARY
  5
16
102
{ACAD_REACTORS
330
C
102
}
330
C
100
AcDbDictionary
281
     1
  3
Standard
350
17
  0
DICTIONARY
  5
18
102
{ACAD_REACTORS
330
C
102
}
330
C
100
AcDbDictionary
281
     1
  0
ACDBDICTIONARYWDFLT
  5
E
102
{ACAD_REACTORS
330
C
102
}
330
C
100
AcDbDictionary
281
     1
  3
Normal
350
F
100
AcDbDictionaryWithDefault
340
F
  0
DICTIONARY
  5
38E
102
{ACAD_REACTORS
330
C
102
}
330
C
100
AcDbDictionary
281
     1
  3
DIMASSOC
350
38F
  0
LAYOUT
  5
1D
102
{ACAD_REACTORS
330
19
102
}
330
19
100
AcDbPlotSettings
  1

  2
hp deskjet 980c series
  4

  6

 40
0.0
 41
0.0
 42
0.0
 43
0.0
 44
0.0
 45
0.0
 46
0.0
 47
0.0
 48
0.0
 49
0.0
140
0.0
141
0.0
142
1.0
143
1.0
 70
   688
 72
     0
 73
     0
 74
     5
  7

 75
    16
147
1.0
148
0.0
149
0.0
100
AcDbLayout
  1
Layout1
 70
     1
 71
     1
 10
0.0
 20
0.0
 11
12.0
 21
9.0
 12
0.0
 22
0.0
 32
0.0
 14
1.000000000000000E+20
 24
1.000000000000000E+20
 34
1.000000000000000E+20
 15
-1.000000000000000E+20
 25
-1.000000000000000E+20
 35
-1.000000000000000E+20
146
0.0
 13
0.0
 23
0.0
 33
0.0
 16
1.0
 26
0.0
 36
0.0
 17
0.0
 27
1.0
 37
0.0
 76
     0
330
1A
  0
LAYOUT
  5
21
102
{ACAD_REACTORS
330
19
102
}
330
19
100
AcDbPlotSettings
  1

  2
hp deskjet 980c series
  4

  6

 40
0.0
 41
0.0
 42
0.0
 43
0.0
 44
0.0
 45
0.0
 46
0.0
 47
0.0
 48
0.0
 49
0.0
140
0.0
141
0.0
142
1.0
143
1.0
 70
  1712
 72
     0
 73
     0
 74
     0
  7

 75
     0
147
1.0
148
0.0
149
0.0
100
AcDbLayout
  1
Model
 70
     1
 71
     0
 10
0.0
 20
0.0
 11
12.0
 21
9.0
 12
0.0
 22
0.0
 32
0.0
 14
0.0
 24
0.0
 34
0.0
 15
0.0
 25
0.0
 35
0.0
146
0.0
 13
0.0
 23
0.0
 33
0.0
 16
1.0
 26
0.0
 36
0.0
 17
0.0
 27
1.0
 37
0.0
 76
     0
330
1E
  0
MLINESTYLE
  5
17
102
{ACAD_REACTORS
330
16
102
}
330
16
100
AcDbMlineStyle
  2
STANDARD
 70
     0
  3

 62
   256
 51
90.0
 52
90.0
 71
     2
 49
0.5
 62
   256
  6
BYLAYER
 49
-0.5
 62
   256
  6
BYLAYER
  0
ACDBPLACEHOLDER
  5
F
102
{ACAD_REACTORS
330
E
102
}
330
E
  0
DICTIONARYVAR
  5
38F
102
{ACAD_REACTORS
330
38E
102
}
330
38E
100
DictionaryVariables
280
     0
  1
1
  0
ENDSEC
  0
EOF
