  0
SECTION
  2
HEADER
  9
$ACADVER
  1
AC1015
  9
$ACADMAINTVER
 70
    13
  9
$DWGCODEPAGE
  3
ANSI_1252
  9
$INSBASE
 10
0.0
 20
0.0
 30
0.0
  9
$EXTMIN
 10
0.0000000000000001
 20
-0.0000000000000021
 30
0.0
  9
$EXTMAX
 10
151.0
 20
151.0
 30
0.0
  9
$LIMMIN
 10
0.0
 20
0.0
  9
$LIMMAX
 10
12.0
 20
9.0
  9
$ORTHOMODE
 70
     0
  9
$REGENMODE
 70
     1
  9
$FILLMODE
 70
     1
  9
$QTEXTMODE
 70
     0
  9
$MIRRTEXT
 70
     1
  9
$LTSCALE
 40
1.0
  9
$ATTMODE
 70
     1
  9
$TEXTSIZE
 40
0.2
  9
$TRACEWID
 40
0.05
  9
$TEXTSTYLE
  7
Standard
  9
$CLAYER
  8
0
  9
$CELTYPE
  6
Continuous
  9
$CECOLOR
 62
   256
  9
$CELTSCALE
 40
1.0
  9
$DISPSILH
 70
     0
  9
$DIMSCALE
 40
1.0
  9
$DIMASZ
 40
0.18
  9
$DIMEXO
 40
0.0625
  9
$DIMDLI
 40
0.38
  9
$DIMRND
 40
0.0
  9
$DIMDLE
 40
0.0
  9
$DIMEXE
 40
0.18
  9
$DIMTP
 40
0.0
  9
$DIMTM
 40
0.0
  9
$DIMTXT
 40
0.18
  9
$DIMCEN
 40
0.09
  9
$DIMTSZ
 40
0.0
  9
$DIMTOL
 70
     0
  9
$DIMLIM
 70
     0
  9
$DIMTIH
 70
     1
  9
$DIMTOH
 70
     1
  9
$DIMSE1
 70
     0
  9
$DIMSE2
 70
     0
  9
$DIMTAD
 70
     0
  9
$DIMZIN
 70
     0
  9
$DIMBLK
  1

  9
$DIMASO
 70
     1
  9
$DIMSHO
 70
     1
  9
$DIMPOST
  1

  9
$DIMAPOST
  1

  9
$DIMALT
 70
     0
  9
$DIMALTD
 70
     2
  9
$DIMALTF
 40
25.4
  9
$DIMLFAC
 40
1.0
  9
$DIMTOFL
 70
     0
  9
$DIMTVP
 40
0.0
  9
$DIMTIX
 70
     0
  9
$DIMSOXD
 70
     0
  9
$DIMSAH
 70
     0
  9
$DIMBLK1
  1

  9
$DIMBLK2
  1

  9
$DIMSTYLE
  2
Standard
  9
$DIMCLRD
 70
     0
  9
$DIMCLRE
 70
     0
  9
$DIMCLRT
 70
     0
  9
$DIMTFAC
 40
1.0
  9
$DIMGAP
 40
0.09
  9
$DIMJUST
 70
     0
  9
$DIMSD1
 70
     0
  9
$DIMSD2
 70
     0
  9
$DIMTOLJ
 70
     1
  9
$DIMTZIN
 70
     0
  9
$DIMALTZ
 70
     0
  9
$DIMALTTZ
 70
     0
  9
$DIMUPT
 70
     0
  9
$DIMDEC
 70
     4
  9
$DIMTDEC
 70
     4
  9
$DIMALTU
 70
     2
  9
$DIMALTTD
 70
     2
  9
$DIMTXSTY
  7
Standard
  9
$DIMAUNIT
 70
     0
  9
$DIMADEC
 70
     0
  9
$DIMALTRND
 40
0.0
  9
$DIMAZIN
 70
     0
  9
$DIMDSEP
 70
    46
  9
$DIMATFIT
 70
     3
  9
$DIMFRAC
 70
     0
  9
$DIMLDRBLK
  1

  9
$DIMLUNIT
 70
     2
  9
$DIMLWD
 70
    -2
  9
$DIMLWE
 70
    -2
  9
$DIMTMOVE
 70
     0
  9
$LUNITS
 70
     2
  9
$LUPREC
 70
     4
  9
$SKETCHINC
 40
0.1
  9
$FILLETRAD
 40
0.0
  9
$AUNITS
 70
     0
  9
$AUPREC
 70
     0
  9
$MENU
  1
.
  9
$ELEVATION
 40
0.0
  9
$PELEVATION
 40
0.0
  9
$THICKNESS
 40
0.0
  9
$LIMCHECK
 70
     0
  9
$CHAMFERA
 40
0.0
  9
$CHAMFERB
 40
0.0
  9
$CHAMFERC
 40
0.0
  9
$CHAMFERD
 40
0.0
  9
$SKPOLY
 70
     0
  9
$TDCREATE
 40
2454779.675030382
  9
$TDUCREATE
 40
2454779.633363715
  9
$TDUPDATE
 40
2454779.680392604
  9
$TDUUPDATE
 40
2454779.638725937
  9
$TDINDWG
 40
0.0053624074
  9
$TDUSRTIMER
 40
0.0053624074
  9
$USRTIMER
 70
     1
  9
$ANGBASE
 50
0.0
  9
$ANGDIR
 70
     0
  9
$PDMODE
 70
     0
  9
$PDSIZE
 40
0.0
  9
$PLINEWID
 40
0.0
  9
$SPLFRAME
 70
     0
  9
$SPLINETYPE
 70
     6
  9
$SPLINESEGS
 70
     8
  9
$HANDSEED
  5
512
  9
$SURFTAB1
 70
     6
  9
$SURFTAB2
 70
     6
  9
$SURFTYPE
 70
     6
  9
$SURFU
 70
     6
  9
$SURFV
 70
     6
  9
$UCSBASE
  2

  9
$UCSNAME
  2

  9
$UCSORG
 10
0.0
 20
0.0
 30
0.0
  9
$UCSXDIR
 10
1.0
 20
0.0
 30
0.0
  9
$UCSYDIR
 10
0.0
 20
1.0
 30
0.0
  9
$UCSORTHOREF
  2

  9
$UCSORTHOVIEW
 70
     1
  9
$UCSORGTOP
 10
0.0
 20
0.0
 30
0.0
  9
$UCSORGBOTTOM
 10
0.0
 20
0.0
 30
0.0
  9
$UCSORGLEFT
 10
0.0
 20
0.0
 30
0.0
  9
$UCSORGRIGHT
 10
0.0
 20
0.0
 30
0.0
  9
$UCSORGFRONT
 10
0.0
 20
0.0
 30
0.0
  9
$UCSORGBACK
 10
0.0
 20
0.0
 30
0.0
  9
$PUCSBASE
  2

  9
$PUCSNAME
  2

  9
$PUCSORG
 10
0.0
 20
0.0
 30
0.0
  9
$PUCSXDIR
 10
1.0
 20
0.0
 30
0.0
  9
$PUCSYDIR
 10
0.0
 20
1.0
 30
0.0
  9
$PUCSORTHOREF
  2

  9
$PUCSORTHOVIEW
 70
     0
  9
$PUCSORGTOP
 10
0.0
 20
0.0
 30
0.0
  9
$PUCSORGBOTTOM
 10
0.0
 20
0.0
 30
0.0
  9
$PUCSORGLEFT
 10
0.0
 20
0.0
 30
0.0
  9
$PUCSORGRIGHT
 10
0.0
 20
0.0
 30
0.0
  9
$PUCSORGFRONT
 10
0.0
 20
0.0
 30
0.0
  9
$PUCSORGBACK
 10
0.0
 20
0.0
 30
0.0
  9
$USERI1
 70
     0
  9
$USERI2
 70
     0
  9
$USERI3
 70
     0
  9
$USERI4
 70
     0
  9
$USERI5
 70
     0
  9
$USERR1
 40
0.0
  9
$USERR2
 40
0.0
  9
$USERR3
 40
0.0
  9
$USERR4
 40
0.0
  9
$USERR5
 40
0.0
  9
$WORLDVIEW
 70
     1
  9
$SHADEDGE
 70
     3
  9
$SHADEDIF
 70
    70
  9
$TILEMODE
 70
     1
  9
$MAXACTVP
 70
    64
  9
$PINSBASE
 10
0.0
 20
0.0
 30
0.0
  9
$PLIMCHECK
 70
     0
  9
$PEXTMIN
 10
1.000000000000000E+20
 20
1.000000000000000E+20
 30
1.000000000000000E+20
  9
$PEXTMAX
 10
-1.000000000000000E+20
 20
-1.000000000000000E+20
 30
-1.000000000000000E+20
  9
$PLIMMIN
 10
0.0
 20
0.0
  9
$PLIMMAX
 10
12.0
 20
9.0
  9
$UNITMODE
 70
     0
  9
$VISRETAIN
 70
     1
  9
$PLINEGEN
 70
     0
  9
$PSLTSCALE
 70
     1
  9
$TREEDEPTH
 70
  3020
  9
$CMLSTYLE
  2
Standard
  9
$CMLJUST
 70
     0
  9
$CMLSCALE
 40
1.0
  9
$PROXYGRAPHICS
 70
     1
  9
$MEASUREMENT
 70
     0
  9
$CELWEIGHT
370
    -1
  9
$ENDCAPS
280
     0
  9
$JOINSTYLE
280
     0
  9
$LWDISPLAY
290
     0
  9
$INSUNITS
 70
     0
  9
$HYPERLINKBASE
  1

  9
$STYLESHEET
  1

  9
$XEDIT
290
     1
  9
$CEPSNTYPE
380
     0
  9
$PSTYLEMODE
290
     1
  9
$FINGERPRINTGUID
  2
{64A242CC-8A0E-49D9-A1E3-4B4158194679}
  9
$VERSIONGUID
  2
{C6E55E47-EDCF-4339-A644-E7901CCCAF8D}
  9
$EXTNAMES
290
     1
  9
$PSVPSCALE
 40
0.0
  9
$OLESTARTUP
290
     0
  0
ENDSEC
  0
SECTION
  2
CLASSES
  0
CLASS
  1
ACDBDICTIONARYWDFLT
  2
AcDbDictionaryWithDefault
  3
AutoCAD 2000
 90
        0
280
     0
281
     0
  0
CLASS
  1
ACDBPLACEHOLDER
  2
AcDbPlaceHolder
  3
AutoCAD 2000
 90
        0
280
     0
281
     0
  0
CLASS
  1
LAYOUT
  2
AcDbLayout
  3
AutoCAD 2000
 90
        0
280
     0
281
     0
  0
CLASS
  1
DICTIONARYVAR
  2
AcDbDictionaryVar
  3
AutoCAD 2000
 90
        0
280
     0
281
     0
  0
ENDSEC
  0
SECTION
  2
TABLES
  0
TABLE
  2
VPORT
  5
8
330
0
100
AcDbSymbolTable
 70
     2
  0
VPORT
  5
511
330
8
100
AcDbSymbolTableRecord
100
AcDbViewportTableRecord
  2
*Active
 70
     0
 10
0.0
 20
0.0
 11
1.0
 21
1.0
 12
75.5
 22
75.5
 13
0.0
 23
0.0
 14
1.0
 24
1.0
 15
0.0
 25
0.0
 16
0.0
 26
0.0
 36
1.0
 17
0.0
 27
0.0
 37
0.0
 40
152.158567774936
 41
2.078104993597951
 42
50.0
 43
0.0
 44
0.0
 50
0.0
 51
0.0
 71
     0
 72
   100
 73
     1
 74
     3
 75
     0
 76
     0
 77
     0
 78
     0
281
     0
 65
     1
110
0.0
120
0.0
130
0.0
111
1.0
121
0.0
131
0.0
112
0.0
122
1.0
132
0.0
 79
     1
146
0.0
  0
ENDTAB
  0
TABLE
  2
LTYPE
  5
5
330
0
100
AcDbSymbolTable
 70
     1
  0
LTYPE
  5
13
330
5
100
AcDbSymbolTableRecord
100
AcDbLinetypeTableRecord
  2
ByBlock
 70
     0
  3

 72
    65
 73
     0
 40
0.0
  0
LTYPE
  5
14
330
5
100
AcDbSymbolTableRecord
100
AcDbLinetypeTableRecord
  2
ByLayer
 70
     0
  3

 72
    65
 73
     0
 40
0.0
  0
LTYPE
  5
15
330
5
100
AcDbSymbolTableRecord
100
AcDbLinetypeTableRecord
  2
Continuous
 70
     0
  3
Solid line
 72
    65
 73
     0
 40
0.0
  0
ENDTAB
  0
TABLE
  2
LAYER
  5
2
330
0
100
AcDbSymbolTable
 70
     1
  0
LAYER
  5
10
330
2
100
AcDbSymbolTableRecord
100
AcDbLayerTableRecord
  2
0
 70
     0
 62
     7
  6
Continuous
370
    -3
390
F
  0
ENDTAB
  0
TABLE
  2
STYLE
  5
3
330
0
100
AcDbSymbolTable
 70
     1
  0
STYLE
  5
11
330
3
100
AcDbSymbolTableRecord
100
AcDbTextStyleTableRecord
  2
Standard
 70
     0
 40
0.0
 41
1.0
 50
0.0
 71
     0
 42
0.2
  3
txt
  4

  0
ENDTAB
  0
TABLE
  2
VIEW
  5
6
330
0
100
AcDbSymbolTable
 70
     0
  0
ENDTAB
  0
TABLE
  2
UCS
  5
7
330
0
100
AcDbSymbolTable
 70
     0
  0
ENDTAB
  0
TABLE
  2
APPID
  5
9
330
0
100
AcDbSymbolTable
 70
     1
  0
APPID
  5
12
330
9
100
AcDbSymbolTableRecord
100
AcDbRegAppTableRecord
  2
ACAD
 70
     0
  0
ENDTAB
  0
TABLE
  2
DIMSTYLE
  5
A
330
0
100
AcDbSymbolTable
 70
     1
100
AcDbDimStyleTable
 71
     0
  0
DIMSTYLE
105
39E
330
A
100
AcDbSymbolTableRecord
100
AcDbDimStyleTableRecord
  2
Standard
 70
     0
340
11
  0
ENDTAB
  0
TABLE
  2
BLOCK_RECORD
  5
1
330
0
100
AcDbSymbolTable
 70
     0
  0
BLOCK_RECORD
  5
1E
330
1
100
AcDbSymbolTableRecord
100
AcDbBlockTableRecord
  2
*Model_Space
340
21
  0
BLOCK_RECORD
  5
1A
330
1
100
AcDbSymbolTableRecord
100
AcDbBlockTableRecord
  2
*Paper_Space
340
1D
  0
ENDTAB
  0
ENDSEC
  0
SECTION
  2
BLOCKS
  0
BLOCK
  5
1F
330
1E
100
AcDbEntity
  8
0
100
AcDbBlockBegin
  2
*Model_Space
 70
     0
 10
0.0
 20
0.0
 30
0.0
  3
*Model_Space
  1

  0
ENDBLK
  5
20
330
1E
100
AcDbEntity
  8
0
100
AcDbBlockEnd
  0
BLOCK
  5
1B
330
1A
100
AcDbEntity
 67
     1
  8
0
100
AcDbBlockBegin
  2
*Paper_Space
 70
     0
 10
0.0
 20
0.0
 30
0.0
  3
*Paper_Space
  1

  0
ENDBLK
  5
1C
330
1A
100
AcDbEntity
 67
     1
  8
0
100
AcDbBlockEnd
  0
ENDSEC
  0
SECTION
  2
ENTITIES
  0
LINE
  5
22
330
1E
100
AcDbEntity
  8
0
100
AcDbLine
 10
5.024
 20
47.79399999999999
 30
0.0
 11
5.983999999999999
 21
48.178
 31
0.0
  0
LINE
  5
23
330
1E
100
AcDbEntity
  8
0
100
AcDbLine
 10
4.0
 20
47.64999999999999
 30
0.0
 11
5.024
 21
47.79399999999999
 31
0.0
  0
LINE
  5
24
330
1E
100
AcDbEntity
  8
0
100
AcDbLine
 10
2.976
 20
47.79399999999999
 30
0.0
 11
4.0
 21
47.64999999999999
 31
0.0
  0
LINE
  5
26
330
1E
100
AcDbEntity
  8
0
100
AcDbLine
 10
2.016
 20
48.178
 30
0.0
 11
2.976
 21
47.79399999999999
 31
0.0
  0
LINE
  5
27
330
1E
100
AcDbEntity
  8
0
100
AcDbLine
 10
0.5280000000000001
 20
49.666
 30
0.0
 11
1.167999999999999
 21
48.81800000000001
 31
0.0
  0
LINE
  5
28
330
1E
100
AcDbEntity
  8
0
100
AcDbLine
 10
0.5280000000000001
 20
49.666
 30
0.0
 11
1.167999999999999
 21
48.81800000000001
 31
0.0
  0
LINE
  5
29
330
1E
100
AcDbEntity
  8
0
100
AcDbLine
 10
1.167999999999999
 20
48.81800000000001
 30
0.0
 11
1.225076923076909
 21
48.7749230769231
 31
0.0
  0
LINE
  5
2A
330
1E
100
AcDbEntity
  8
0
100
AcDbLine
 10
1.167999999999999
 20
48.81800000000001
 30
0.0
 11
2.016
 21
48.178
 31
0.0
  0
LINE
  5
2B
330
1E
100
AcDbEntity
  8
0
100
AcDbLine
 10
6.832
 20
48.81800000000001
 30
0.0
 11
7.472
 21
49.666
 31
0.0
  0
LINE
  5
2C
330
1E
100
AcDbEntity
  8
0
100
AcDbLine
 10
5.983999999999999
 20
48.178
 30
0.0
 11
6.832
 21
48.81800000000001
 31
0.0
  0
LINE
  5
2D
330
1E
100
AcDbEntity
  8
0
100
AcDbLine
 10
7.472
 20
49.666
 30
0.0
 11
7.855999999999999
 21
50.626
 31
0.0
  0
LINE
  5
2F
330
1E
100
AcDbEntity
  8
0
100
AcDbLine
 10
6.315166831263539
 20
48.4279372311423
 30
0.0
 11
22.72254962689553
 21
41.44234791825921
 31
0.0
  0
LINE
  5
31
330
1E
100
AcDbEntity
  8
0
100
AcDbLine
 10
6.133488638158637
 20
46.66651136184135
 30
0.0
 11
24.7232571261905
 21
38.49393686666662
 31
0.0
  0
LINE
  5
33
330
1E
100
AcDbEntity
  8
0
100
AcDbLine
 10
1.124923076923091
 20
48.87507692307691
 30
0.0
 11
48.7749230769231
 21
1.225076923076905
 31
0.0
  0
LINE
  5
35
330
1E
100
AcDbEntity
  8
0
100
AcDbLine
 10
0.144
 20
50.626
 30
0.0
 11
0.5280000000000001
 21
49.666
 31
0.0
  0
LINE
  5
36
330
1E
100
AcDbEntity
  8
0
100
AcDbLine
 10
0.5280000000000001
 20
53.63399999999999
 30
0.0
 11
1.167999999999999
 21
54.48199999999999
 31
0.0
  0
LINE
  5
37
330
1E
100
AcDbEntity
  8
0
100
AcDbLine
 10
0.144
 20
52.674
 30
0.0
 11
0.5280000000000001
 21
53.63399999999999
 31
0.0
  0
LINE
  5
38
330
1E
100
AcDbEntity
  8
0
100
AcDbLine
 10
0.5280000000000001
 20
53.63399999999999
 30
0.0
 11
1.167999999999999
 21
54.48199999999999
 31
0.0
  0
LINE
  5
39
330
1E
100
AcDbEntity
  8
0
100
AcDbLine
 10
0.0000000000000001
 20
51.65
 30
0.0
 11
0.144
 21
50.626
 31
0.0
  0
LINE
  5
3A
330
1E
100
AcDbEntity
  8
0
100
AcDbLine
 10
0.0000000000000001
 20
51.65
 30
0.0
 11
0.144
 21
52.674
 31
0.0
  0
LINE
  5
3B
330
1E
100
AcDbEntity
  8
0
100
AcDbLine
 10
2.009121966369403
 20
74.5
 30
0.0
 11
5.782879999999998
 21
74.5
 31
0.0
  0
LINE
  5
3C
330
1E
100
AcDbEntity
  8
0
100
AcDbLine
 10
1.167999999999999
 20
54.48199999999999
 30
0.0
 11
2.016
 21
55.12199999999999
 31
0.0
  0
LINE
  5
3D
330
1E
100
AcDbEntity
  8
0
100
AcDbLine
 10
2.009121966369403
 20
74.5
 30
0.0
 11
5.782879999999998
 21
74.5
 31
0.0
  0
LINE
  5
3F
330
1E
100
AcDbEntity
  8
0
100
AcDbLine
 10
2.016
 20
55.12199999999999
 30
0.0
 11
2.001530175918381
 21
95.88892062194839
 31
0.0
  0
LINE
  5
40
330
1E
100
AcDbEntity
  8
0
100
AcDbLine
 10
7.91437960222787
 20
52.25885616193514
 30
0.0
 11
16.76828272502356
 21
53.73483959311539
 31
0.0
  0
LINE
  5
41
330
1E
100
AcDbEntity
  8
0
100
AcDbLine
 10
7.076060279992127
 20
54.15862012901043
 30
0.0
 11
16.0358326044695
 21
55.79901720558595
 31
0.0
  0
LINE
  5
42
330
1E
100
AcDbEntity
  8
0
100
AcDbLine
 10
7.855999999999999
 20
50.626
 30
0.0
 11
8.0
 21
51.65
 31
0.0
  0
LINE
  5
43
330
1E
100
AcDbEntity
  8
0
100
AcDbLine
 10
7.855999999999999
 20
52.674
 30
0.0
 11
8.0
 21
51.65
 31
0.0
  0
LINE
  5
44
330
1E
100
AcDbEntity
  8
0
100
AcDbLine
 10
7.472
 20
53.63399999999999
 30
0.0
 11
7.855999999999999
 21
52.674
 31
0.0
  0
LINE
  5
45
330
1E
100
AcDbEntity
  8
0
100
AcDbLine
 10
7.91437960222787
 20
52.25885616193514
 30
0.0
 11
16.76828272502356
 21
53.73483959311539
 31
0.0
  0
LINE
  5
46
330
1E
100
AcDbEntity
  8
0
100
AcDbLine
 10
2.016
 20
55.12199999999999
 30
0.0
 11
2.976
 21
55.506
 31
0.0
  0
LINE
  5
47
330
1E
100
AcDbEntity
  8
0
100
AcDbLine
 10
6.832
 20
54.48199999999999
 30
0.0
 11
7.472
 21
53.63399999999999
 31
0.0
  0
LINE
  5
48
330
1E
100
AcDbEntity
  8
0
100
AcDbLine
 10
5.983999999999999
 20
55.12199999999999
 30
0.0
 11
6.832
 21
54.48199999999999
 31
0.0
  0
LINE
  5
49
330
1E
100
AcDbEntity
  8
0
100
AcDbLine
 10
5.024
 20
55.506
 30
0.0
 11
5.983999999999999
 21
55.12199999999999
 31
0.0
  0
LINE
  5
4A
330
1E
100
AcDbEntity
  8
0
100
AcDbLine
 10
4.0
 20
55.65
 30
0.0
 11
5.024
 21
55.506
 31
0.0
  0
LINE
  5
4B
330
1E
100
AcDbEntity
  8
0
100
AcDbLine
 10
2.976
 20
55.506
 30
0.0
 11
4.0
 21
55.65
 31
0.0
  0
LINE
  5
4D
330
1E
100
AcDbEntity
  8
0
100
AcDbLine
 10
5.754319999999999
 20
74.57139999999999
 30
0.0
 11
6.138319999999999
 21
73.6114
 31
0.0
  0
LINE
  5
4E
330
1E
100
AcDbEntity
  8
0
100
AcDbLine
 10
6.138319999999999
 20
73.6114
 30
0.0
 11
6.778319999999999
 21
72.76340000000001
 31
0.0
  0
LINE
  5
4F
330
1E
100
AcDbEntity
  8
0
100
AcDbLine
 10
6.778319999999999
 20
72.76340000000001
 30
0.0
 11
7.626319999999999
 21
72.12340000000001
 31
0.0
  0
LINE
  5
50
330
1E
100
AcDbEntity
  8
0
100
AcDbLine
 10
7.626319999999999
 20
72.12340000000001
 30
0.0
 11
8.586319999999998
 21
71.7394
 31
0.0
  0
LINE
  5
51
330
1E
100
AcDbEntity
  8
0
100
AcDbLine
 10
13.0823
 20
73.6114
 30
0.0
 11
13.4663
 21
74.57139999999999
 31
0.0
  0
LINE
  5
52
330
1E
100
AcDbEntity
  8
0
100
AcDbLine
 10
12.44229999999999
 20
72.76340000000001
 30
0.0
 11
13.0823
 21
73.6114
 31
0.0
  0
LINE
  5
53
330
1E
100
AcDbEntity
  8
0
100
AcDbLine
 10
11.5943
 20
72.12340000000001
 30
0.0
 11
12.44229999999999
 21
72.76340000000001
 31
0.0
  0
LINE
  5
54
330
1E
100
AcDbEntity
  8
0
100
AcDbLine
 10
10.6343
 20
71.7394
 30
0.0
 11
11.5943
 21
72.12340000000001
 31
0.0
  0
LINE
  5
55
330
1E
100
AcDbEntity
  8
0
100
AcDbLine
 10
9.610319999999999
 20
71.59539999999999
 30
0.0
 11
10.6343
 21
71.7394
 31
0.0
  0
LINE
  5
56
330
1E
100
AcDbEntity
  8
0
100
AcDbLine
 10
8.586319999999998
 20
71.7394
 30
0.0
 11
9.610319999999999
 21
71.59539999999999
 31
0.0
  0
LINE
  5
58
330
1E
100
AcDbEntity
  8
0
100
AcDbLine
 10
7.076060279992127
 20
54.15862012901043
 30
0.0
 11
16.0358326044695
 21
55.79901720558595
 31
0.0
  0
LINE
  5
59
330
1E
100
AcDbEntity
  8
0
100
AcDbLine
 10
5.008219178082192
 20
47.7917808219178
 30
0.0
 11
47.79178082191781
 21
5.008219178082185
 31
0.0
  0
LINE
  5
5A
330
1E
100
AcDbEntity
  8
0
100
AcDbLine
 10
1.124923076923091
 20
48.87507692307691
 30
0.0
 11
48.7749230769231
 21
1.225076923076905
 31
0.0
  0
LINE
  5
5C
330
1E
100
AcDbEntity
  8
0
100
AcDbLine
 10
13.4663
 20
74.57139999999999
 30
0.0
 11
13.6103
 21
75.5954
 31
0.0
  0
LINE
  5
5D
330
1E
100
AcDbEntity
  8
0
100
AcDbLine
 10
14.76799999999999
 20
59.372
 30
0.0
 11
17.54
 21
51.56
 31
0.0
  0
LINE
  5
5E
330
1E
100
AcDbEntity
  8
0
100
AcDbLine
 10
13.25599999999999
 20
67.18399999999999
 30
0.0
 11
14.76799999999999
 21
59.372
 31
0.0
  0
LINE
  5
5F
330
1E
100
AcDbEntity
  8
0
100
AcDbLine
 10
12.71583346855983
 20
73.12583184584179
 30
0.0
 11
13.25599999999999
 21
67.18399999999999
 31
0.0
  0
LINE
  5
60
330
1E
100
AcDbEntity
  8
0
100
AcDbLine
 10
12.73131419878296
 20
78.04445618661258
 30
0.0
 11
13.25599999999999
 21
83.816
 31
0.0
  0
LINE
  5
61
330
1E
100
AcDbEntity
  8
0
100
AcDbLine
 10
16.1587
 20
21.10729999999999
 30
0.0
 11
16.8307
 21
19.4273
 31
0.0
  0
LINE
  5
62
330
1E
100
AcDbEntity
  8
0
100
AcDbLine
 10
16.1587
 20
24.69129999999999
 30
0.0
 11
16.8307
 21
26.3713
 31
0.0
  0
LINE
  5
63
330
1E
100
AcDbEntity
  8
0
100
AcDbLine
 10
15.9067
 20
22.8993
 30
0.0
 11
16.1587
 21
21.10729999999999
 31
0.0
  0
LINE
  5
64
330
1E
100
AcDbEntity
  8
0
100
AcDbLine
 10
15.9067
 20
22.8993
 30
0.0
 11
16.1587
 21
24.69129999999999
 31
0.0
  0
LINE
  5
65
330
1E
100
AcDbEntity
  8
0
100
AcDbLine
 10
15.1421
 20
67.53789999999999
 30
0.0
 11
16.6832
 21
59.7684
 31
0.0
  0
LINE
  5
66
330
1E
100
AcDbEntity
  8
0
100
AcDbLine
 10
2.008412085718088
 20
76.5
 30
0.0
 11
5.737529375
 21
76.5
 31
0.0
  0
LINE
  5
68
330
1E
100
AcDbEntity
  8
0
100
AcDbLine
 10
2.008412085718088
 20
76.5
 30
0.0
 11
5.737529375
 21
76.5
 31
0.0
  0
LINE
  5
6A
330
1E
100
AcDbEntity
  8
0
100
AcDbLine
 10
5.754319999999999
 20
76.6194
 30
0.0
 11
6.138319999999999
 21
77.57940000000001
 31
0.0
  0
LINE
  5
6B
330
1E
100
AcDbEntity
  8
0
100
AcDbLine
 10
6.138319999999999
 20
77.57940000000001
 30
0.0
 11
6.778319999999999
 21
78.4274
 31
0.0
  0
LINE
  5
6C
330
1E
100
AcDbEntity
  8
0
100
AcDbLine
 10
6.778319999999999
 20
78.4274
 30
0.0
 11
7.626319999999999
 21
79.0674
 31
0.0
  0
LINE
  5
6D
330
1E
100
AcDbEntity
  8
0
100
AcDbLine
 10
13.4663
 20
76.6194
 30
0.0
 11
13.6103
 21
75.5954
 31
0.0
  0
LINE
  5
6E
330
1E
100
AcDbEntity
  8
0
100
AcDbLine
 10
13.0823
 20
77.57940000000001
 30
0.0
 11
13.4663
 21
76.6194
 31
0.0
  0
LINE
  5
6F
330
1E
100
AcDbEntity
  8
0
100
AcDbLine
 10
12.44229999999999
 20
78.4274
 30
0.0
 11
13.0823
 21
77.57940000000001
 31
0.0
  0
LINE
  5
70
330
1E
100
AcDbEntity
  8
0
100
AcDbLine
 10
11.5943
 20
79.0674
 30
0.0
 11
12.44229999999999
 21
78.4274
 31
0.0
  0
LINE
  5
71
330
1E
100
AcDbEntity
  8
0
100
AcDbLine
 10
10.6343
 20
79.45140000000001
 30
0.0
 11
11.5943
 21
79.0674
 31
0.0
  0
LINE
  5
72
330
1E
100
AcDbEntity
  8
0
100
AcDbLine
 10
7.626319999999999
 20
79.0674
 30
0.0
 11
8.586319999999998
 21
79.45140000000001
 31
0.0
  0
LINE
  5
73
330
1E
100
AcDbEntity
  8
0
100
AcDbLine
 10
9.610319999999999
 20
79.5954
 30
0.0
 11
10.6343
 21
79.45140000000001
 31
0.0
  0
LINE
  5
74
330
1E
100
AcDbEntity
  8
0
100
AcDbLine
 10
8.586319999999998
 20
79.45140000000001
 30
0.0
 11
9.610319999999999
 21
79.5954
 31
0.0
  0
LINE
  5
75
330
1E
100
AcDbEntity
  8
0
100
AcDbLine
 10
5.610319999999999
 20
75.5954
 30
0.0
 11
5.754319999999999
 21
74.57139999999999
 31
0.0
  0
LINE
  5
76
330
1E
100
AcDbEntity
  8
0
100
AcDbLine
 10
5.610319999999999
 20
75.5954
 30
0.0
 11
5.754319999999999
 21
76.6194
 31
0.0
  0
LINE
  5
77
330
1E
100
AcDbEntity
  8
0
100
AcDbLine
 10
5.024
 20
95.494
 30
0.0
 11
5.983999999999999
 21
95.87799999999999
 31
0.0
  0
LINE
  5
78
330
1E
100
AcDbEntity
  8
0
100
AcDbLine
 10
4.0
 20
95.35
 30
0.0
 11
5.024
 21
95.494
 31
0.0
  0
LINE
  5
79
330
1E
100
AcDbEntity
  8
0
100
AcDbLine
 10
0.5280000000000001
 20
97.36600000000001
 30
0.0
 11
1.167999999999999
 21
96.51799999999999
 31
0.0
  0
LINE
  5
7A
330
1E
100
AcDbEntity
  8
0
100
AcDbLine
 10
0.144
 20
98.32600000000001
 30
0.0
 11
0.5280000000000001
 21
97.36600000000001
 31
0.0
  0
LINE
  5
7B
330
1E
100
AcDbEntity
  8
0
100
AcDbLine
 10
0.5280000000000001
 20
97.36600000000001
 30
0.0
 11
1.167999999999999
 21
96.51799999999999
 31
0.0
  0
LINE
  5
7C
330
1E
100
AcDbEntity
  8
0
100
AcDbLine
 10
1.167999999999999
 20
96.51799999999999
 30
0.0
 11
2.016
 21
95.87799999999999
 31
0.0
  0
LINE
  5
7F
330
1E
100
AcDbEntity
  8
0
100
AcDbLine
 10
7.91437960222787
 20
98.74114383806485
 30
0.0
 11
16.76828272502357
 21
97.2651604068846
 31
0.0
  0
LINE
  5
81
330
1E
100
AcDbEntity
  8
0
100
AcDbLine
 10
7.076060279992135
 20
96.84137987098957
 30
0.0
 11
16.0358326044695
 21
95.20098279441404
 31
0.0
  0
LINE
  5
82
330
1E
100
AcDbEntity
  8
0
100
AcDbLine
 10
7.855999999999999
 20
98.32600000000001
 30
0.0
 11
8.0
 21
99.35
 31
0.0
  0
LINE
  5
83
330
1E
100
AcDbEntity
  8
0
100
AcDbLine
 10
7.472
 20
97.36600000000001
 30
0.0
 11
7.855999999999999
 21
98.32600000000001
 31
0.0
  0
LINE
  5
84
330
1E
100
AcDbEntity
  8
0
100
AcDbLine
 10
6.832
 20
96.51799999999999
 30
0.0
 11
7.472
 21
97.36600000000001
 31
0.0
  0
LINE
  5
85
330
1E
100
AcDbEntity
  8
0
100
AcDbLine
 10
5.983999999999999
 20
95.87799999999999
 30
0.0
 11
6.832
 21
96.51799999999999
 31
0.0
  0
LINE
  5
86
330
1E
100
AcDbEntity
  8
0
100
AcDbLine
 10
2.016
 20
95.87799999999999
 30
0.0
 11
2.976
 21
95.494
 31
0.0
  0
LINE
  5
87
330
1E
100
AcDbEntity
  8
0
100
AcDbLine
 10
2.976
 20
95.494
 30
0.0
 11
4.0
 21
95.35
 31
0.0
  0
LINE
  5
88
330
1E
100
AcDbEntity
  8
0
100
AcDbLine
 10
0.0000000000000001
 20
99.35
 30
0.0
 11
0.144
 21
100.374
 31
0.0
  0
LINE
  5
89
330
1E
100
AcDbEntity
  8
0
100
AcDbLine
 10
0.0000000000000001
 20
99.35
 30
0.0
 11
0.144
 21
98.32600000000001
 31
0.0
  0
LINE
  5
8A
330
1E
100
AcDbEntity
  8
0
100
AcDbLine
 10
7.855999999999999
 20
100.374
 30
0.0
 11
8.0
 21
99.35
 31
0.0
  0
LINE
  5
8B
330
1E
100
AcDbEntity
  8
0
100
AcDbLine
 10
0.144
 20
100.374
 30
0.0
 11
0.5280000000000001
 21
101.334
 31
0.0
  0
LINE
  5
8C
330
1E
100
AcDbEntity
  8
0
100
AcDbLine
 10
5.008219178082191
 20
103.2082191780821
 30
0.0
 11
46.66626097584825
 21
144.8662609758482
 31
0.0
  0
LINE
  5
90
330
1E
100
AcDbEntity
  8
0
100
AcDbLine
 10
0.5280000000000001
 20
101.334
 30
0.0
 11
1.167999999999999
 21
102.1819999999999
 31
0.0
  0
LINE
  5
91
330
1E
100
AcDbEntity
  8
0
100
AcDbLine
 10
0.5280000000000001
 20
101.334
 30
0.0
 11
1.167999999999999
 21
102.1819999999999
 31
0.0
  0
LINE
  5
92
330
1E
100
AcDbEntity
  8
0
100
AcDbLine
 10
1.167999999999999
 20
102.1819999999999
 30
0.0
 11
1.225076923076909
 21
102.225076923077
 31
0.0
  0
LINE
  5
93
330
1E
100
AcDbEntity
  8
0
100
AcDbLine
 10
1.167999999999999
 20
102.1819999999999
 30
0.0
 11
2.016
 21
102.822
 31
0.0
  0
LINE
  5
94
330
1E
100
AcDbEntity
  8
0
100
AcDbLine
 10
2.016
 20
102.822
 30
0.0
 11
2.976
 21
103.2059999999999
 31
0.0
  0
LINE
  5
96
330
1E
100
AcDbEntity
  8
0
100
AcDbLine
 10
7.472
 20
101.334
 30
0.0
 11
7.855999999999999
 21
100.374
 31
0.0
  0
LINE
  5
97
330
1E
100
AcDbEntity
  8
0
100
AcDbLine
 10
6.832
 20
102.1819999999999
 30
0.0
 11
7.472
 21
101.334
 31
0.0
  0
LINE
  5
98
330
1E
100
AcDbEntity
  8
0
100
AcDbLine
 10
5.983999999999999
 20
102.822
 30
0.0
 11
6.832
 21
102.1819999999999
 31
0.0
  0
LINE
  5
9A
330
1E
100
AcDbEntity
  8
0
100
AcDbLine
 10
6.314853488774987
 20
102.5722992537547
 30
0.0
 11
22.72268017881432
 21
109.5578444740421
 31
0.0
  0
LINE
  5
9B
330
1E
100
AcDbEntity
  8
0
100
AcDbLine
 10
5.024
 20
103.2059999999999
 30
0.0
 11
5.983999999999999
 21
102.822
 31
0.0
  0
LINE
  5
9C
330
1E
100
AcDbEntity
  8
0
100
AcDbLine
 10
4.0
 20
103.3499999999999
 30
0.0
 11
5.024
 21
103.2059999999999
 31
0.0
  0
LINE
  5
9D
330
1E
100
AcDbEntity
  8
0
100
AcDbLine
 10
2.976
 20
103.2059999999999
 30
0.0
 11
4.0
 21
103.3499999999999
 31
0.0
  0
LINE
  5
9F
330
1E
100
AcDbEntity
  8
0
100
AcDbLine
 10
6.13279886267902
 20
104.332798862679
 30
0.0
 11
24.72295910349673
 21
112.5056239419951
 31
0.0
  0
LINE
  5
A0
330
1E
100
AcDbEntity
  8
0
100
AcDbLine
 10
1.225076923076909
 20
102.225076923077
 30
0.0
 11
48.774923076923
 21
149.774923076923
 31
0.0
  0
LINE
  5
A1
330
1E
100
AcDbEntity
  8
0
100
AcDbLine
 10
0.0000000000000001
 20
99.35
 30
0.0
 11
0.0000000000000002
 21
51.65
 31
0.0
  0
LINE
  5
A4
330
1E
100
AcDbEntity
  8
0
100
AcDbLine
 10
14.76799999999999
 20
91.62799999999998
 30
0.0
 11
17.54
 21
99.44
 31
0.0
  0
LINE
  5
A5
330
1E
100
AcDbEntity
  8
0
100
AcDbLine
 10
13.25599999999999
 20
83.816
 30
0.0
 11
14.76799999999999
 21
91.62799999999998
 31
0.0
  0
LINE
  5
A6
330
1E
100
AcDbEntity
  8
0
100
AcDbLine
 10
16.1587
 20
126.309
 30
0.0
 11
16.8307
 21
124.6289999999999
 31
0.0
  0
LINE
  5
A7
330
1E
100
AcDbEntity
  8
0
100
AcDbLine
 10
16.1587
 20
129.893
 30
0.0
 11
16.8307
 21
131.5729999999999
 31
0.0
  0
LINE
  5
A8
330
1E
100
AcDbEntity
  8
0
100
AcDbLine
 10
15.9067
 20
128.1009999999999
 30
0.0
 11
16.1587
 21
129.893
 31
0.0
  0
LINE
  5
A9
330
1E
100
AcDbEntity
  8
0
100
AcDbLine
 10
15.9067
 20
128.1009999999999
 30
0.0
 11
16.1587
 21
126.309
 31
0.0
  0
LINE
  5
AA
330
1E
100
AcDbEntity
  8
0
100
AcDbLine
 10
15.1421
 20
83.46210000000001
 30
0.0
 11
16.6832
 21
91.2316
 31
0.0
  0
LINE
  5
AB
330
1E
100
AcDbEntity
  8
0
100
AcDbLine
 10
14.5
 20
75.5
 30
0.0
 11
15.1421
 21
67.53789999999999
 31
0.0
  0
LINE
  5
AC
330
1E
100
AcDbEntity
  8
0
100
AcDbLine
 10
14.5
 20
75.5
 30
0.0
 11
14.9072
 21
70.3561
 31
0.0
  0
LINE
  5
AD
330
1E
100
AcDbEntity
  8
0
100
AcDbLine
 10
14.5
 20
75.5
 30
0.0
 11
15.1421
 21
83.46210000000001
 31
0.0
  0
LINE
  5
AE
330
1E
100
AcDbEntity
  8
0
100
AcDbLine
 10
17.9507
 20
17.9433
 30
0.0
 11
19.43469999999999
 21
16.8233
 31
0.0
  0
LINE
  5
AF
330
1E
100
AcDbEntity
  8
0
100
AcDbLine
 10
17.9507
 20
17.9433
 30
0.0
 11
19.43469999999999
 21
16.8233
 31
0.0
  0
LINE
  5
B0
330
1E
100
AcDbEntity
  8
0
100
AcDbLine
 10
16.8307
 20
19.4273
 30
0.0
 11
17.9507
 21
17.9433
 31
0.0
  0
LINE
  5
B1
330
1E
100
AcDbEntity
  8
0
100
AcDbLine
 10
16.8307
 20
26.3713
 30
0.0
 11
17.9507
 21
27.8553
 31
0.0
  0
LINE
  5
B3
330
1E
100
AcDbEntity
  8
0
100
AcDbLine
 10
17.54
 20
51.56
 30
0.0
 11
20.81599999999999
 21
44.25199999999999
 31
0.0
  0
LINE
  5
B4
330
1E
100
AcDbEntity
  8
0
100
AcDbLine
 10
17.9507
 20
27.8553
 30
0.0
 11
19.43469999999999
 21
28.9753
 31
0.0
  0
LINE
  5
B5
330
1E
100
AcDbEntity
  8
0
100
AcDbLine
 10
18.408
 20
24.0939
 30
0.0
 11
18.85599999999999
 21
25.2139
 31
0.0
  0
LINE
  5
B6
330
1E
100
AcDbEntity
  8
0
100
AcDbLine
 10
18.408
 20
24.0939
 30
0.0
 11
18.85599999999999
 21
25.2139
 31
0.0
  0
LINE
  5
B7
330
1E
100
AcDbEntity
  8
0
100
AcDbLine
 10
18.23999999999999
 20
22.8993
 30
0.0
 11
18.408
 21
21.70459999999999
 31
0.0
  0
LINE
  5
B8
330
1E
100
AcDbEntity
  8
0
100
AcDbLine
 10
18.23999999999999
 20
22.8993
 30
0.0
 11
18.408
 21
24.0939
 31
0.0
  0
LINE
  5
B9
330
1E
100
AcDbEntity
  8
0
100
AcDbLine
 10
18.408
 20
21.70459999999999
 30
0.0
 11
18.85599999999999
 21
20.58459999999999
 31
0.0
  0
LINE
  5
BA
330
1E
100
AcDbEntity
  8
0
100
AcDbLine
 10
16.6832
 20
59.7684
 30
0.0
 11
19.25159999999999
 21
52.1916
 31
0.0
  0
LINE
  5
BB
330
1E
100
AcDbEntity
  8
0
100
AcDbLine
 10
19.43469999999999
 20
16.8233
 30
0.0
 11
21.1147
 21
16.15129999999999
 31
0.0
  0
LINE
  5
BC
330
1E
100
AcDbEntity
  8
0
100
AcDbLine
 10
21.1147
 20
16.15129999999999
 30
0.0
 11
22.90669999999999
 21
15.8993
 31
0.0
  0
LINE
  5
BD
330
1E
100
AcDbEntity
  8
0
100
AcDbLine
 10
21.712
 20
18.4006
 30
0.0
 11
22.90669999999999
 21
18.2326
 31
0.0
  0
LINE
  5
BE
330
1E
100
AcDbEntity
  8
0
100
AcDbLine
 10
20.592
 20
18.8486
 30
0.0
 11
21.712
 21
18.4006
 31
0.0
  0
LINE
  5
BF
330
1E
100
AcDbEntity
  8
0
100
AcDbLine
 10
19.60269999999999
 20
19.5953
 30
0.0
 11
20.592
 21
18.8486
 31
0.0
  0
LINE
  5
C0
330
1E
100
AcDbEntity
  8
0
100
AcDbLine
 10
19.60269999999999
 20
19.5953
 30
0.0
 11
20.592
 21
18.8486
 31
0.0
  0
LINE
  5
C1
330
1E
100
AcDbEntity
  8
0
100
AcDbLine
 10
18.85599999999999
 20
25.2139
 30
0.0
 11
19.60269999999999
 21
26.2033
 31
0.0
  0
LINE
  5
C4
330
1E
100
AcDbEntity
  8
0
100
AcDbLine
 10
19.60269999999999
 20
26.2033
 30
0.0
 11
20.592
 21
26.95
 31
0.0
  0
LINE
  5
C5
330
1E
100
AcDbEntity
  8
0
100
AcDbLine
 10
21.712
 20
27.398
 30
0.0
 11
22.4922766566376
 21
27.5077233433624
 31
0.0
  0
LINE
  5
C6
330
1E
100
AcDbEntity
  8
0
100
AcDbLine
 10
20.592
 20
26.95
 30
0.0
 11
21.712
 21
27.398
 31
0.0
  0
LINE
  5
C7
330
1E
100
AcDbEntity
  8
0
100
AcDbLine
 10
20.81599999999999
 20
44.25199999999999
 30
0.0
 11
25.604
 21
37.19599999999999
 31
0.0
  0
LINE
  5
C9
330
1E
100
AcDbEntity
  8
0
100
AcDbLine
 10
19.43469999999999
 20
28.9753
 30
0.0
 11
19.8962552881429
 21
29.15992211525709
 31
0.0
  0
LINE
  5
CA
330
1E
100
AcDbEntity
  8
0
100
AcDbLine
 10
19.43469999999999
 20
28.9753
 30
0.0
 11
20.5704142857143
 21
29.42958571428569
 31
0.0
  0
LINE
  5
CB
330
1E
100
AcDbEntity
  8
0
100
AcDbLine
 10
18.85599999999999
 20
25.2139
 30
0.0
 11
19.60269999999999
 21
26.2033
 31
0.0
  0
LINE
  5
CC
330
1E
100
AcDbEntity
  8
0
100
AcDbLine
 10
18.85599999999999
 20
20.58459999999999
 30
0.0
 11
19.60269999999999
 21
19.5953
 31
0.0
  0
LINE
  5
CD
330
1E
100
AcDbEntity
  8
0
100
AcDbLine
 10
22.90669999999999
 20
18.2326
 30
0.0
 11
24.1014
 21
18.4006
 31
0.0
  0
LINE
  5
CE
330
1E
100
AcDbEntity
  8
0
100
AcDbLine
 10
24.1014
 20
18.4006
 30
0.0
 11
25.2214
 21
18.8486
 31
0.0
  0
LINE
  5
CF
330
1E
100
AcDbEntity
  8
0
100
AcDbLine
 10
22.90669999999999
 20
15.8993
 30
0.0
 11
24.6987
 21
16.15129999999999
 31
0.0
  0
LINE
  5
D0
330
1E
100
AcDbEntity
  8
0
100
AcDbLine
 10
22.6547
 20
45.12839999999999
 30
0.0
 11
27.2137
 21
38.3863
 31
0.0
  0
LINE
  5
D1
330
1E
100
AcDbEntity
  8
0
100
AcDbLine
 10
19.25159999999999
 20
52.1916
 30
0.0
 11
22.6547
 21
45.12839999999999
 31
0.0
  0
LINE
  5
D2
330
1E
100
AcDbEntity
  8
0
100
AcDbLine
 10
24.6987
 20
16.15129999999999
 30
0.0
 11
26.37869999999999
 21
16.8233
 31
0.0
  0
LINE
  5
D3
330
1E
100
AcDbEntity
  8
0
100
AcDbLine
 10
25.2214
 20
18.8486
 30
0.0
 11
26.2107
 21
19.5953
 31
0.0
  0
LINE
  5
D4
330
1E
100
AcDbEntity
  8
0
100
AcDbLine
 10
26.2107
 20
19.5953
 30
0.0
 11
26.9574
 21
20.58459999999999
 31
0.0
  0
LINE
  5
D5
330
1E
100
AcDbEntity
  8
0
100
AcDbLine
 10
26.37869999999999
 20
16.8233
 30
0.0
 11
27.8627
 21
17.9433
 31
0.0
  0
LINE
  5
D6
330
1E
100
AcDbEntity
  8
0
100
AcDbLine
 10
26.37869999999999
 20
16.8233
 30
0.0
 11
27.8627
 21
17.9433
 31
0.0
  0
LINE
  5
D7
330
1E
100
AcDbEntity
  8
0
100
AcDbLine
 10
25.2787
 20
27.0372
 30
0.0
 11
25.9187
 21
26.1892
 31
0.0
  0
LINE
  5
D8
330
1E
100
AcDbEntity
  8
0
100
AcDbLine
 10
24.8947
 20
27.9972
 30
0.0
 11
25.2787
 21
27.0372
 31
0.0
  0
LINE
  5
D9
330
1E
100
AcDbEntity
  8
0
100
AcDbLine
 10
25.2787
 20
31.00519999999999
 30
0.0
 11
25.9187
 21
31.8532
 31
0.0
  0
LINE
  5
DA
330
1E
100
AcDbEntity
  8
0
100
AcDbLine
 10
24.8947
 20
30.0452
 30
0.0
 11
25.2787
 21
31.00519999999999
 31
0.0
  0
LINE
  5
DB
330
1E
100
AcDbEntity
  8
0
100
AcDbLine
 10
24.7507
 20
29.0212
 30
0.0
 11
24.8947
 21
27.9972
 31
0.0
  0
LINE
  5
DC
330
1E
100
AcDbEntity
  8
0
100
AcDbLine
 10
24.7507
 20
29.0212
 30
0.0
 11
24.8947
 21
30.0452
 31
0.0
  0
LINE
  5
DD
330
1E
100
AcDbEntity
  8
0
100
AcDbLine
 10
26.7667
 20
25.5492
 30
0.0
 11
27.7267
 21
25.16519999999999
 31
0.0
  0
LINE
  5
DE
330
1E
100
AcDbEntity
  8
0
100
AcDbLine
 10
26.7667
 20
32.4932
 30
0.0
 11
27.7267
 21
32.8772
 31
0.0
  0
LINE
  5
DF
330
1E
100
AcDbEntity
  8
0
100
AcDbLine
 10
25.9187
 20
31.8532
 30
0.0
 11
26.7667
 21
32.4932
 31
0.0
  0
LINE
  5
E0
330
1E
100
AcDbEntity
  8
0
100
AcDbLine
 10
25.9187
 20
26.1892
 30
0.0
 11
26.7667
 21
25.5492
 31
0.0
  0
LINE
  5
E1
330
1E
100
AcDbEntity
  8
0
100
AcDbLine
 10
25.604
 20
37.19599999999999
 30
0.0
 11
29.53155739910314
 21
32.91139192825112
 31
0.0
  0
LINE
  5
E2
330
1E
100
AcDbEntity
  8
0
100
AcDbLine
 10
26.9574
 20
20.58459999999999
 30
0.0
 11
27.4054
 21
21.70459999999999
 31
0.0
  0
LINE
  5
E3
330
1E
100
AcDbEntity
  8
0
100
AcDbLine
 10
26.9574
 20
20.58459999999999
 30
0.0
 11
27.4054
 21
21.70459999999999
 31
0.0
  0
LINE
  5
E4
330
1E
100
AcDbEntity
  8
0
100
AcDbLine
 10
49.666
 20
0.527999999999998
 30
0.0
 11
50.626
 21
0.143999999999998
 31
0.0
  0
LINE
  5
E5
330
1E
100
AcDbEntity
  8
0
100
AcDbLine
 10
49.666
 20
0.527999999999998
 30
0.0
 11
50.626
 21
0.143999999999998
 31
0.0
  0
LINE
  5
E6
330
1E
100
AcDbEntity
  8
0
100
AcDbLine
 10
48.81800000000001
 20
1.167999999999999
 30
0.0
 11
49.666
 21
0.527999999999998
 31
0.0
  0
LINE
  5
E8
330
1E
100
AcDbEntity
  8
0
100
AcDbLine
 10
48.178
 20
2.016
 30
0.0
 11
48.81800000000001
 21
1.167999999999999
 31
0.0
  0
LINE
  5
E9
330
1E
100
AcDbEntity
  8
0
100
AcDbLine
 10
49.666
 20
7.472
 30
0.0
 11
50.626
 21
7.855999999999999
 31
0.0
  0
LINE
  5
EA
330
1E
100
AcDbEntity
  8
0
100
AcDbLine
 10
48.81800000000001
 20
6.832
 30
0.0
 11
49.666
 21
7.472
 31
0.0
  0
LINE
  5
EB
330
1E
100
AcDbEntity
  8
0
100
AcDbLine
 10
48.178
 20
5.983999999999999
 30
0.0
 11
48.81800000000001
 21
6.832
 31
0.0
  0
LINE
  5
EC
330
1E
100
AcDbEntity
  8
0
100
AcDbLine
 10
47.79399999999999
 20
5.024
 30
0.0
 11
48.178
 21
5.983999999999999
 31
0.0
  0
LINE
  5
ED
330
1E
100
AcDbEntity
  8
0
100
AcDbLine
 10
47.79399999999999
 20
2.976
 30
0.0
 11
48.178
 21
2.016
 31
0.0
  0
LINE
  5
EE
330
1E
100
AcDbEntity
  8
0
100
AcDbLine
 10
47.64999999999999
 20
4.0
 30
0.0
 11
47.79399999999999
 21
2.976
 31
0.0
  0
LINE
  5
EF
330
1E
100
AcDbEntity
  8
0
100
AcDbLine
 10
47.64999999999999
 20
4.0
 30
0.0
 11
47.79399999999999
 21
5.024
 31
0.0
  0
LINE
  5
F0
330
1E
100
AcDbEntity
  8
0
100
AcDbLine
 10
48.7749230769231
 20
1.225076923076939
 30
0.0
 11
48.81800000000001
 21
1.167999999999999
 31
0.0
  0
LINE
  5
F3
330
1E
100
AcDbEntity
  8
0
100
AcDbLine
 10
51.65
 20
-0.0000000000000021
 30
0.0
 11
52.674
 21
0.143999999999998
 31
0.0
  0
LINE
  5
F4
330
1E
100
AcDbEntity
  8
0
100
AcDbLine
 10
50.626
 20
0.143999999999998
 30
0.0
 11
51.65
 21
-0.0000000000000021
 31
0.0
  0
LINE
  5
F5
330
1E
100
AcDbEntity
  8
0
100
AcDbLine
 10
50.626
 20
0.143999999999998
 30
0.0
 11
51.65
 21
-0.0000000000000021
 31
0.0
  0
LINE
  5
F6
330
1E
100
AcDbEntity
  8
0
100
AcDbLine
 10
52.674
 20
0.143999999999998
 30
0.0
 11
53.63399999999999
 21
0.527999999999998
 31
0.0
  0
LINE
  5
F7
330
1E
100
AcDbEntity
  8
0
100
AcDbLine
 10
52.674
 20
0.143999999999998
 30
0.0
 11
53.63399999999999
 21
0.527999999999998
 31
0.0
  0
LINE
  5
F8
330
1E
100
AcDbEntity
  8
0
100
AcDbLine
 10
53.63399999999999
 20
0.527999999999998
 30
0.0
 11
54.48199999999999
 21
1.167999999999999
 31
0.0
  0
LINE
  5
F9
330
1E
100
AcDbEntity
  8
0
100
AcDbLine
 10
54.48199999999999
 20
1.167999999999999
 30
0.0
 11
55.12199999999999
 21
2.016
 31
0.0
  0
LINE
  5
FA
330
1E
100
AcDbEntity
  8
0
100
AcDbLine
 10
51.65
 20
-0.0000000000000021
 30
0.0
 11
52.674
 21
0.143999999999998
 31
0.0
  0
LINE
  5
FB
330
1E
100
AcDbEntity
  8
0
100
AcDbLine
 10
52.25885616193514
 20
7.91437960222787
 30
0.0
 11
53.73483959311539
 21
16.76828272502356
 31
0.0
  0
LINE
  5
FC
330
1E
100
AcDbEntity
  8
0
100
AcDbLine
 10
54.15862012901043
 20
7.076060279992127
 30
0.0
 11
55.79901720558595
 21
16.0358326044695
 31
0.0
  0
LINE
  5
FD
330
1E
100
AcDbEntity
  8
0
100
AcDbLine
 10
54.15862012901043
 20
7.076060279992127
 30
0.0
 11
55.79901720558595
 21
16.0358326044695
 31
0.0
  0
LINE
  5
FF
330
1E
100
AcDbEntity
  8
0
100
AcDbLine
 10
52.25885616193514
 20
7.91437960222787
 30
0.0
 11
53.73483959311539
 21
16.76828272502356
 31
0.0
  0
LINE
  5
100
330
1E
100
AcDbEntity
  8
0
100
AcDbLine
 10
50.626
 20
7.855999999999999
 30
0.0
 11
51.65
 21
8.0
 31
0.0
  0
LINE
  5
101
330
1E
100
AcDbEntity
  8
0
100
AcDbLine
 10
51.65
 20
8.0
 30
0.0
 11
52.674
 21
7.855999999999999
 31
0.0
  0
LINE
  5
102
330
1E
100
AcDbEntity
  8
0
100
AcDbLine
 10
52.674
 20
7.855999999999999
 30
0.0
 11
53.63399999999999
 21
7.472
 31
0.0
  0
LINE
  5
103
330
1E
100
AcDbEntity
  8
0
100
AcDbLine
 10
53.63399999999999
 20
7.472
 30
0.0
 11
54.48199999999999
 21
6.832
 31
0.0
  0
LINE
  5
104
330
1E
100
AcDbEntity
  8
0
100
AcDbLine
 10
54.48199999999999
 20
6.832
 30
0.0
 11
55.12199999999999
 21
5.983999999999999
 31
0.0
  0
LINE
  5
105
330
1E
100
AcDbEntity
  8
0
100
AcDbLine
 10
55.12199999999999
 20
5.983999999999999
 30
0.0
 11
55.506
 21
5.024
 31
0.0
  0
LINE
  5
106
330
1E
100
AcDbEntity
  8
0
100
AcDbLine
 10
55.506
 20
5.024
 30
0.0
 11
55.65
 21
4.0
 31
0.0
  0
LINE
  5
107
330
1E
100
AcDbEntity
  8
0
100
AcDbLine
 10
55.12199999999999
 20
2.016
 30
0.0
 11
55.506
 21
2.976
 31
0.0
  0
LINE
  5
108
330
1E
100
AcDbEntity
  8
0
100
AcDbLine
 10
55.506
 20
2.976
 30
0.0
 11
55.65
 21
4.0
 31
0.0
  0
LINE
  5
10C
330
1E
100
AcDbEntity
  8
0
100
AcDbLine
 10
59.372
 20
14.76799999999999
 30
0.0
 11
67.18399999999999
 21
13.25599999999999
 31
0.0
  0
LINE
  5
10D
330
1E
100
AcDbEntity
  8
0
100
AcDbLine
 10
67.18399999999999
 20
13.25599999999999
 30
0.0
 11
73.12583184584179
 21
12.71583346855983
 31
0.0
  0
LINE
  5
10E
330
1E
100
AcDbEntity
  8
0
100
AcDbLine
 10
27.8627
 20
17.9433
 30
0.0
 11
28.9827
 21
19.4273
 31
0.0
  0
LINE
  5
110
330
1E
100
AcDbEntity
  8
0
100
AcDbLine
 10
51.56
 20
17.54
 30
0.0
 11
59.372
 21
14.76799999999999
 31
0.0
  0
LINE
  5
111
330
1E
100
AcDbEntity
  8
0
100
AcDbLine
 10
27.8627
 20
17.9433
 30
0.0
 11
28.9827
 21
19.4273
 31
0.0
  0
LINE
  5
112
330
1E
100
AcDbEntity
  8
0
100
AcDbLine
 10
59.7684
 20
16.6832
 30
0.0
 11
67.53789999999999
 21
15.1421
 31
0.0
  0
LINE
  5
113
330
1E
100
AcDbEntity
  8
0
100
AcDbLine
 10
67.53789999999999
 20
15.1421
 30
0.0
 11
75.5
 21
14.5
 31
0.0
  0
LINE
  5
115
330
1E
100
AcDbEntity
  8
0
100
AcDbLine
 10
44.25199999999999
 20
20.81599999999999
 30
0.0
 11
51.56
 21
17.54
 31
0.0
  0
LINE
  5
118
330
1E
100
AcDbEntity
  8
0
100
AcDbLine
 10
28.9827
 20
19.4273
 30
0.0
 11
29.43698571428569
 21
20.56301428571429
 31
0.0
  0
LINE
  5
119
330
1E
100
AcDbEntity
  8
0
100
AcDbLine
 10
27.4054
 20
21.70459999999999
 30
0.0
 11
27.51512334336239
 21
22.4848766566376
 31
0.0
  0
LINE
  5
11A
330
1E
100
AcDbEntity
  8
0
100
AcDbLine
 10
52.1916
 20
19.25159999999999
 30
0.0
 11
59.7684
 21
16.6832
 31
0.0
  0
LINE
  5
11B
330
1E
100
AcDbEntity
  8
0
100
AcDbLine
 10
52.95580000000001
 20
21.0958
 30
0.0
 11
60.2842
 21
18.61159999999999
 31
0.0
  0
LINE
  5
11C
330
1E
100
AcDbEntity
  8
0
100
AcDbLine
 10
60.2842
 20
18.61159999999999
 30
0.0
 11
67.7989
 21
17.12099999999999
 31
0.0
  0
LINE
  5
11E
330
1E
100
AcDbEntity
  8
0
100
AcDbLine
 10
74.5
 20
2.009121966369403
 30
0.0
 11
74.5
 21
5.782879999999998
 31
0.0
  0
LINE
  5
120
330
1E
100
AcDbEntity
  8
0
100
AcDbLine
 10
74.5
 20
5.782879999999998
 30
0.0
 11
74.5
 21
2.009121966369403
 31
0.0
  0
LINE
  5
121
330
1E
100
AcDbEntity
  8
0
100
AcDbLine
 10
74.57139999999999
 20
5.754319999999999
 30
0.0
 11
75.5954
 21
5.610319999999999
 31
0.0
  0
LINE
  5
122
330
1E
100
AcDbEntity
  8
0
100
AcDbLine
 10
73.6114
 20
6.138319999999999
 30
0.0
 11
74.57139999999999
 21
5.754319999999999
 31
0.0
  0
LINE
  5
123
330
1E
100
AcDbEntity
  8
0
100
AcDbLine
 10
72.76340000000001
 20
6.778319999999999
 30
0.0
 11
73.6114
 21
6.138319999999999
 31
0.0
  0
LINE
  5
124
330
1E
100
AcDbEntity
  8
0
100
AcDbLine
 10
72.12340000000001
 20
7.626319999999999
 30
0.0
 11
72.76340000000001
 21
6.778319999999999
 31
0.0
  0
LINE
  5
125
330
1E
100
AcDbEntity
  8
0
100
AcDbLine
 10
72.76340000000001
 20
12.44229999999999
 30
0.0
 11
73.6114
 21
13.0823
 31
0.0
  0
LINE
  5
126
330
1E
100
AcDbEntity
  8
0
100
AcDbLine
 10
72.12340000000001
 20
11.5943
 30
0.0
 11
72.76340000000001
 21
12.44229999999999
 31
0.0
  0
LINE
  5
127
330
1E
100
AcDbEntity
  8
0
100
AcDbLine
 10
71.7394
 20
10.6343
 30
0.0
 11
72.12340000000001
 21
11.5943
 31
0.0
  0
LINE
  5
128
330
1E
100
AcDbEntity
  8
0
100
AcDbLine
 10
71.7394
 20
8.586319999999998
 30
0.0
 11
72.12340000000001
 21
7.626319999999999
 31
0.0
  0
LINE
  5
129
330
1E
100
AcDbEntity
  8
0
100
AcDbLine
 10
71.59539999999999
 20
9.61031999999999
 30
0.0
 11
71.7394
 21
8.586319999999998
 31
0.0
  0
LINE
  5
12A
330
1E
100
AcDbEntity
  8
0
100
AcDbLine
 10
71.59539999999999
 20
9.61031999999999
 30
0.0
 11
71.7394
 21
10.6343
 31
0.0
  0
LINE
  5
12B
330
1E
100
AcDbEntity
  8
0
100
AcDbLine
 10
74.57139999999999
 20
13.4663
 30
0.0
 11
75.5954
 21
13.6103
 31
0.0
  0
LINE
  5
12C
330
1E
100
AcDbEntity
  8
0
100
AcDbLine
 10
73.6114
 20
13.0823
 30
0.0
 11
74.57139999999999
 21
13.4663
 31
0.0
  0
LINE
  5
12D
330
1E
100
AcDbEntity
  8
0
100
AcDbLine
 10
78.04445618661258
 20
12.73131419878296
 30
0.0
 11
83.816
 21
13.25599999999999
 31
0.0
  0
LINE
  5
130
330
1E
100
AcDbEntity
  8
0
100
AcDbLine
 10
76.5
 20
2.008412085718088
 30
0.0
 11
76.5
 21
5.737529375
 31
0.0
  0
LINE
  5
136
330
1E
100
AcDbEntity
  8
0
100
AcDbLine
 10
75.5954
 20
5.610319999999999
 30
0.0
 11
76.6194
 21
5.754319999999999
 31
0.0
  0
LINE
  5
137
330
1E
100
AcDbEntity
  8
0
100
AcDbLine
 10
76.5
 20
5.737529375
 30
0.0
 11
76.5
 21
2.008412085718088
 31
0.0
  0
LINE
  5
138
330
1E
100
AcDbEntity
  8
0
100
AcDbLine
 10
76.6194
 20
5.754319999999999
 30
0.0
 11
77.57940000000001
 21
6.138319999999999
 31
0.0
  0
LINE
  5
139
330
1E
100
AcDbEntity
  8
0
100
AcDbLine
 10
77.57940000000001
 20
6.138319999999999
 30
0.0
 11
78.4274
 21
6.778319999999999
 31
0.0
  0
LINE
  5
13A
330
1E
100
AcDbEntity
  8
0
100
AcDbLine
 10
78.4274
 20
6.778319999999999
 30
0.0
 11
79.0674
 21
7.626319999999999
 31
0.0
  0
LINE
  5
13B
330
1E
100
AcDbEntity
  8
0
100
AcDbLine
 10
79.0674
 20
7.626319999999999
 30
0.0
 11
79.45140000000001
 21
8.586319999999998
 31
0.0
  0
LINE
  5
13C
330
1E
100
AcDbEntity
  8
0
100
AcDbLine
 10
77.57940000000001
 20
13.0823
 30
0.0
 11
78.4274
 21
12.44229999999999
 31
0.0
  0
LINE
  5
13D
330
1E
100
AcDbEntity
  8
0
100
AcDbLine
 10
78.4274
 20
12.44229999999999
 30
0.0
 11
79.0674
 21
11.5943
 31
0.0
  0
LINE
  5
13E
330
1E
100
AcDbEntity
  8
0
100
AcDbLine
 10
79.0674
 20
11.5943
 30
0.0
 11
79.45140000000001
 21
10.6343
 31
0.0
  0
LINE
  5
13F
330
1E
100
AcDbEntity
  8
0
100
AcDbLine
 10
79.45140000000001
 20
10.6343
 30
0.0
 11
79.5954
 21
9.61031999999999
 31
0.0
  0
LINE
  5
140
330
1E
100
AcDbEntity
  8
0
100
AcDbLine
 10
79.45140000000001
 20
8.586319999999998
 30
0.0
 11
79.5954
 21
9.61031999999999
 31
0.0
  0
LINE
  5
165
330
1E
100
AcDbEntity
  8
0
100
AcDbLine
 10
75.5954
 20
13.6103
 30
0.0
 11
76.6194
 21
13.4663
 31
0.0
  0
LINE
  5
166
330
1E
100
AcDbEntity
  8
0
100
AcDbLine
 10
76.6194
 20
13.4663
 30
0.0
 11
77.57940000000001
 21
13.0823
 31
0.0
  0
LINE
  5
169
330
1E
100
AcDbEntity
  8
0
100
AcDbLine
 10
75.5
 20
14.5
 30
0.0
 11
83.46210000000001
 21
15.1421
 31
0.0
  0
LINE
  5
16A
330
1E
100
AcDbEntity
  8
0
100
AcDbLine
 10
75.5
 20
14.5
 30
0.0
 11
80.64390000000001
 21
14.9072
 31
0.0
  0
LINE
  5
19A
330
1E
100
AcDbEntity
  8
0
100
AcDbLine
 10
75.5
 20
16.5
 30
0.0
 11
83.20109999999999
 21
17.12099999999999
 31
0.0
  0
LINE
  5
19B
330
1E
100
AcDbEntity
  8
0
100
AcDbLine
 10
70.3561
 20
14.9072
 30
0.0
 11
75.5
 21
14.5
 31
0.0
  0
LINE
  5
19C
330
1E
100
AcDbEntity
  8
0
100
AcDbLine
 10
67.7989
 20
17.12099999999999
 30
0.0
 11
75.5
 21
16.5
 31
0.0
  0
LINE
  5
19D
330
1E
100
AcDbEntity
  8
0
100
AcDbLine
 10
28.7507
 20
25.0212
 30
0.0
 11
29.7747
 21
25.16519999999999
 31
0.0
  0
LINE
  5
19E
330
1E
100
AcDbEntity
  8
0
100
AcDbLine
 10
29.7747
 20
25.16519999999999
 30
0.0
 11
30.7347
 21
25.5492
 31
0.0
  0
LINE
  5
19F
330
1E
100
AcDbEntity
  8
0
100
AcDbLine
 10
30.7347
 20
25.5492
 30
0.0
 11
31.58269999999999
 21
26.1892
 31
0.0
  0
LINE
  5
1A0
330
1E
100
AcDbEntity
  8
0
100
AcDbLine
 10
27.7267
 20
25.16519999999999
 30
0.0
 11
28.7507
 21
25.0212
 31
0.0
  0
LINE
  5
1A1
330
1E
100
AcDbEntity
  8
0
100
AcDbLine
 10
31.58269999999999
 20
26.1892
 30
0.0
 11
32.2227
 21
27.0372
 31
0.0
  0
LINE
  5
1A2
330
1E
100
AcDbEntity
  8
0
100
AcDbLine
 10
31.58269999999999
 20
31.8532
 30
0.0
 11
32.2227
 21
31.00519999999999
 31
0.0
  0
LINE
  5
1A3
330
1E
100
AcDbEntity
  8
0
100
AcDbLine
 10
32.2227
 20
31.00519999999999
 30
0.0
 11
32.60669999999999
 21
30.0452
 31
0.0
  0
LINE
  5
1A4
330
1E
100
AcDbEntity
  8
0
100
AcDbLine
 10
32.60669999999999
 20
30.0452
 30
0.0
 11
32.7507
 21
29.0212
 31
0.0
  0
LINE
  5
1A5
330
1E
100
AcDbEntity
  8
0
100
AcDbLine
 10
32.2227
 20
27.0372
 30
0.0
 11
32.60669999999999
 21
27.9972
 31
0.0
  0
LINE
  5
1A6
330
1E
100
AcDbEntity
  8
0
100
AcDbLine
 10
32.60669999999999
 20
27.9972
 30
0.0
 11
32.7507
 21
29.0212
 31
0.0
  0
LINE
  5
1A9
330
1E
100
AcDbEntity
  8
0
100
AcDbLine
 10
38.49393686666662
 20
24.7232571261905
 30
0.0
 11
46.66651136184135
 21
6.133488638158638
 31
0.0
  0
LINE
  5
1AA
330
1E
100
AcDbEntity
  8
0
100
AcDbLine
 10
32.64453094170403
 20
29.77617997010463
 30
0.0
 11
37.19599999999999
 21
25.604
 31
0.0
  0
LINE
  5
1AB
330
1E
100
AcDbEntity
  8
0
100
AcDbLine
 10
37.19599999999999
 20
25.604
 30
0.0
 11
44.25199999999999
 21
20.81599999999999
 31
0.0
  0
LINE
  5
1AD
330
1E
100
AcDbEntity
  8
0
100
AcDbLine
 10
27.7267
 20
32.8772
 30
0.0
 11
28.7507
 21
33.0212
 31
0.0
  0
LINE
  5
1AE
330
1E
100
AcDbEntity
  8
0
100
AcDbLine
 10
28.7507
 20
33.0212
 30
0.0
 11
29.7747
 21
32.8772
 31
0.0
  0
LINE
  5
1AF
330
1E
100
AcDbEntity
  8
0
100
AcDbLine
 10
29.7747
 20
32.8772
 30
0.0
 11
30.7347
 21
32.4932
 31
0.0
  0
LINE
  5
1B0
330
1E
100
AcDbEntity
  8
0
100
AcDbLine
 10
30.7347
 20
32.4932
 30
0.0
 11
31.58269999999999
 21
31.8532
 31
0.0
  0
LINE
  5
1B1
330
1E
100
AcDbEntity
  8
0
100
AcDbLine
 10
33.8274
 20
33.8274
 30
0.0
 11
39.6032
 21
28.7968
 31
0.0
  0
LINE
  5
1B2
330
1E
100
AcDbEntity
  8
0
100
AcDbLine
 10
32.4147
 20
32.4147
 30
0.0
 11
38.3863
 21
27.2137
 31
0.0
  0
LINE
  5
1B7
330
1E
100
AcDbEntity
  8
0
100
AcDbLine
 10
41.44234791825921
 20
22.72254962689553
 30
0.0
 11
48.4279372311423
 21
6.315166831263542
 31
0.0
  0
LINE
  5
1EC
330
1E
100
AcDbEntity
  8
0
100
AcDbLine
 10
39.6032
 20
28.7968
 30
0.0
 11
46.1242
 21
24.3874
 31
0.0
  0
LINE
  5
1ED
330
1E
100
AcDbEntity
  8
0
100
AcDbLine
 10
46.1242
 20
24.3874
 30
0.0
 11
52.95580000000001
 21
21.0958
 31
0.0
  0
LINE
  5
1EE
330
1E
100
AcDbEntity
  8
0
100
AcDbLine
 10
38.3863
 20
27.2137
 30
0.0
 11
45.12839999999999
 21
22.6547
 31
0.0
  0
LINE
  5
1EF
330
1E
100
AcDbEntity
  8
0
100
AcDbLine
 10
45.12839999999999
 20
22.6547
 30
0.0
 11
52.1916
 21
19.25159999999999
 31
0.0
  0
LINE
  5
1F0
330
1E
100
AcDbEntity
  8
0
100
AcDbLine
 10
27.2137
 20
38.3863
 30
0.0
 11
32.4147
 21
32.4147
 31
0.0
  0
LINE
  5
20E
330
1E
100
AcDbEntity
  8
0
100
AcDbLine
 10
28.7968
 20
39.6032
 30
0.0
 11
33.8274
 21
33.8274
 31
0.0
  0
LINE
  5
20F
330
1E
100
AcDbEntity
  8
0
100
AcDbLine
 10
24.3874
 20
46.1242
 30
0.0
 11
28.7968
 21
39.6032
 31
0.0
  0
LINE
  5
222
330
1E
100
AcDbEntity
  8
0
100
AcDbLine
 10
21.0958
 20
52.95580000000001
 30
0.0
 11
24.3874
 21
46.1242
 31
0.0
  0
LINE
  5
223
330
1E
100
AcDbEntity
  8
0
100
AcDbLine
 10
18.61159999999999
 20
60.2842
 30
0.0
 11
21.0958
 21
52.95580000000001
 31
0.0
  0
LINE
  5
225
330
1E
100
AcDbEntity
  8
0
100
AcDbLine
 10
16.6832
 20
91.2316
 30
0.0
 11
19.25159999999999
 21
98.8084
 31
0.0
  0
LINE
  5
226
330
1E
100
AcDbEntity
  8
0
100
AcDbLine
 10
21.0958
 20
98.0442
 30
0.0
 11
24.3874
 21
104.876
 31
0.0
  0
LINE
  5
227
330
1E
100
AcDbEntity
  8
0
100
AcDbLine
 10
18.61159999999999
 20
90.7158
 30
0.0
 11
21.0958
 21
98.0442
 31
0.0
  0
LINE
  5
228
330
1E
100
AcDbEntity
  8
0
100
AcDbLine
 10
17.12099999999999
 20
83.20109999999999
 30
0.0
 11
18.61159999999999
 21
90.7158
 31
0.0
  0
LINE
  5
229
330
1E
100
AcDbEntity
  8
0
100
AcDbLine
 10
20.81599999999999
 20
106.7479999999999
 30
0.0
 11
25.604
 21
113.8039999999999
 31
0.0
  0
LINE
  5
22A
330
1E
100
AcDbEntity
  8
0
100
AcDbLine
 10
17.54
 20
99.44
 30
0.0
 11
20.81599999999999
 21
106.7479999999999
 31
0.0
  0
LINE
  5
22B
330
1E
100
AcDbEntity
  8
0
100
AcDbLine
 10
24.3874
 20
104.876
 30
0.0
 11
28.7968
 21
111.397
 31
0.0
  0
LINE
  5
22D
330
1E
100
AcDbEntity
  8
0
100
AcDbLine
 10
28.7968
 20
111.397
 30
0.0
 11
33.8274
 21
117.1729999999999
 31
0.0
  0
LINE
  5
22E
330
1E
100
AcDbEntity
  8
0
100
AcDbLine
 10
28.7968
 20
111.397
 30
0.0
 11
33.8274
 21
117.1729999999999
 31
0.0
  0
LINE
  5
22F
330
1E
100
AcDbEntity
  8
0
100
AcDbLine
 10
24.3874
 20
104.876
 30
0.0
 11
28.7968
 21
111.397
 31
0.0
  0
LINE
  5
230
330
1E
100
AcDbEntity
  8
0
100
AcDbLine
 10
27.7267
 20
118.123
 30
0.0
 11
28.7507
 21
117.979
 31
0.0
  0
LINE
  5
231
330
1E
100
AcDbEntity
  8
0
100
AcDbLine
 10
26.7667
 20
118.507
 30
0.0
 11
27.7267
 21
118.123
 31
0.0
  0
LINE
  5
232
330
1E
100
AcDbEntity
  8
0
100
AcDbLine
 10
28.7507
 20
117.979
 30
0.0
 11
29.7747
 21
118.123
 31
0.0
  0
LINE
  5
233
330
1E
100
AcDbEntity
  8
0
100
AcDbLine
 10
29.7747
 20
118.123
 30
0.0
 11
30.7347
 21
118.507
 31
0.0
  0
LINE
  5
234
330
1E
100
AcDbEntity
  8
0
100
AcDbLine
 10
30.7347
 20
118.507
 30
0.0
 11
31.58269999999999
 21
119.147
 31
0.0
  0
LINE
  5
235
330
1E
100
AcDbEntity
  8
0
100
AcDbLine
 10
25.604
 20
113.8039999999999
 30
0.0
 11
29.7747
 21
118.123
 31
0.0
  0
LINE
  5
236
330
1E
100
AcDbEntity
  8
0
100
AcDbLine
 10
27.2137
 20
112.6139999999999
 30
0.0
 11
32.4147
 21
118.585
 31
0.0
  0
LINE
  5
237
330
1E
100
AcDbEntity
  8
0
100
AcDbLine
 10
22.6547
 20
105.872
 30
0.0
 11
27.2137
 21
112.6139999999999
 31
0.0
  0
LINE
  5
238
330
1E
100
AcDbEntity
  8
0
100
AcDbLine
 10
19.25159999999999
 20
98.8084
 30
0.0
 11
22.6547
 21
105.872
 31
0.0
  0
LINE
  5
239
330
1E
100
AcDbEntity
  8
0
100
AcDbLine
 10
33.8274
 20
117.1729999999999
 30
0.0
 11
39.6032
 21
122.2029999999999
 31
0.0
  0
LINE
  5
23A
330
1E
100
AcDbEntity
  8
0
100
AcDbLine
 10
25.9187
 20
119.147
 30
0.0
 11
26.7667
 21
118.507
 31
0.0
  0
LINE
  5
23B
330
1E
100
AcDbEntity
  8
0
100
AcDbLine
 10
31.58269999999999
 20
119.147
 30
0.0
 11
32.2227
 21
119.995
 31
0.0
  0
LINE
  5
23C
330
1E
100
AcDbEntity
  8
0
100
AcDbLine
 10
25.2787
 20
119.995
 30
0.0
 11
25.9187
 21
119.147
 31
0.0
  0
LINE
  5
23D
330
1E
100
AcDbEntity
  8
0
100
AcDbLine
 10
24.8947
 20
120.9549999999999
 30
0.0
 11
25.2787
 21
119.995
 31
0.0
  0
LINE
  5
23E
330
1E
100
AcDbEntity
  8
0
100
AcDbLine
 10
32.2227
 20
119.995
 30
0.0
 11
32.60669999999999
 21
120.9549999999999
 31
0.0
  0
LINE
  5
23F
330
1E
100
AcDbEntity
  8
0
100
AcDbLine
 10
32.60669999999999
 20
120.9549999999999
 30
0.0
 11
32.7507
 21
121.9789999999999
 31
0.0
  0
LINE
  5
240
330
1E
100
AcDbEntity
  8
0
100
AcDbLine
 10
24.7507
 20
121.9789999999999
 30
0.0
 11
24.8947
 21
123.0029999999999
 31
0.0
  0
LINE
  5
241
330
1E
100
AcDbEntity
  8
0
100
AcDbLine
 10
24.7507
 20
121.9789999999999
 30
0.0
 11
24.8947
 21
120.9549999999999
 31
0.0
  0
LINE
  5
242
330
1E
100
AcDbEntity
  8
0
100
AcDbLine
 10
32.64449865470852
 20
121.2237904334828
 30
0.0
 11
37.19599999999999
 21
125.3959999999999
 31
0.0
  0
LINE
  5
244
330
1E
100
AcDbEntity
  8
0
100
AcDbLine
 10
32.60669999999999
 20
123.0029999999999
 30
0.0
 11
32.7507
 21
121.9789999999999
 31
0.0
  0
LINE
  5
245
330
1E
100
AcDbEntity
  8
0
100
AcDbLine
 10
24.8947
 20
123.0029999999999
 30
0.0
 11
25.2787
 21
123.963
 31
0.0
  0
LINE
  5
248
330
1E
100
AcDbEntity
  8
0
100
AcDbLine
 10
21.712
 20
123.602
 30
0.0
 11
22.4922766566376
 21
123.492276656638
 31
0.0
  0
LINE
  5
249
330
1E
100
AcDbEntity
  8
0
100
AcDbLine
 10
17.9507
 20
123.1449999999999
 30
0.0
 11
19.43469999999999
 21
122.025
 31
0.0
  0
LINE
  5
24A
330
1E
100
AcDbEntity
  8
0
100
AcDbLine
 10
19.43469999999999
 20
122.025
 30
0.0
 11
19.89946150539969
 21
121.8390953978399
 31
0.0
  0
LINE
  5
24B
330
1E
100
AcDbEntity
  8
0
100
AcDbLine
 10
19.43469999999999
 20
122.025
 30
0.0
 11
20.5706285714286
 21
121.5706285714289
 31
0.0
  0
LINE
  5
24C
330
1E
100
AcDbEntity
  8
0
100
AcDbLine
 10
39.6032
 20
122.2029999999999
 30
0.0
 11
46.1242
 21
126.6129999999999
 31
0.0
  0
LINE
  5
24D
330
1E
100
AcDbEntity
  8
0
100
AcDbLine
 10
32.4147
 20
118.585
 30
0.0
 11
38.3863
 21
123.7859999999999
 31
0.0
  0
LINE
  5
24E
330
1E
100
AcDbEntity
  8
0
100
AcDbLine
 10
39.6032
 20
122.2029999999999
 30
0.0
 11
46.1242
 21
126.6129999999999
 31
0.0
  0
LINE
  5
24F
330
1E
100
AcDbEntity
  8
0
100
AcDbLine
 10
16.8307
 20
124.6289999999999
 30
0.0
 11
17.9507
 21
123.1449999999999
 31
0.0
  0
LINE
  5
250
330
1E
100
AcDbEntity
  8
0
100
AcDbLine
 10
18.408
 20
126.906
 30
0.0
 11
18.85599999999999
 21
125.7859999999999
 31
0.0
  0
LINE
  5
251
330
1E
100
AcDbEntity
  8
0
100
AcDbLine
 10
32.2227
 20
123.963
 30
0.0
 11
32.60669999999999
 21
123.0029999999999
 31
0.0
  0
LINE
  5
252
330
1E
100
AcDbEntity
  8
0
100
AcDbLine
 10
25.2787
 20
123.963
 30
0.0
 11
25.9187
 21
124.811
 31
0.0
  0
LINE
  5
253
330
1E
100
AcDbEntity
  8
0
100
AcDbLine
 10
38.49403145332898
 20
126.2768070576161
 30
0.0
 11
47.67149990836774
 21
147.1528882372817
 31
0.0
  0
LINE
  5
255
330
1E
100
AcDbEntity
  8
0
100
AcDbLine
 10
31.58269999999999
 20
124.811
 30
0.0
 11
32.2227
 21
123.963
 31
0.0
  0
LINE
  5
256
330
1E
100
AcDbEntity
  8
0
100
AcDbLine
 10
25.9187
 20
124.811
 30
0.0
 11
26.7667
 21
125.451
 31
0.0
  0
LINE
  5
257
330
1E
100
AcDbEntity
  8
0
100
AcDbLine
 10
29.7747
 20
125.8349999999999
 30
0.0
 11
30.7347
 21
125.451
 31
0.0
  0
LINE
  5
258
330
1E
100
AcDbEntity
  8
0
100
AcDbLine
 10
41.44248897410583
 20
128.2775460895718
 30
0.0
 11
48.42806268794102
 21
144.6846669384781
 31
0.0
  0
LINE
  5
259
330
1E
100
AcDbEntity
  8
0
100
AcDbLine
 10
30.7347
 20
125.451
 30
0.0
 11
31.58269999999999
 21
124.811
 31
0.0
  0
LINE
  5
25A
330
1E
100
AcDbEntity
  8
0
100
AcDbLine
 10
28.7507
 20
125.9789999999999
 30
0.0
 11
29.7747
 21
125.8349999999999
 31
0.0
  0
LINE
  5
25B
330
1E
100
AcDbEntity
  8
0
100
AcDbLine
 10
27.7267
 20
125.8349999999999
 30
0.0
 11
28.7507
 21
125.9789999999999
 31
0.0
  0
LINE
  5
25C
330
1E
100
AcDbEntity
  8
0
100
AcDbLine
 10
26.7667
 20
125.451
 30
0.0
 11
27.7267
 21
125.8349999999999
 31
0.0
  0
LINE
  5
25D
330
1E
100
AcDbEntity
  8
0
100
AcDbLine
 10
37.19599999999999
 20
125.3959999999999
 30
0.0
 11
44.25199999999999
 21
130.184
 31
0.0
  0
LINE
  5
25E
330
1E
100
AcDbEntity
  8
0
100
AcDbLine
 10
19.60269999999999
 20
124.797
 30
0.0
 11
20.592
 21
124.0499999999999
 31
0.0
  0
LINE
  5
25F
330
1E
100
AcDbEntity
  8
0
100
AcDbLine
 10
20.592
 20
124.0499999999999
 30
0.0
 11
21.712
 21
123.602
 31
0.0
  0
LINE
  5
260
330
1E
100
AcDbEntity
  8
0
100
AcDbLine
 10
18.85599999999999
 20
125.7859999999999
 30
0.0
 11
19.60269999999999
 21
124.797
 31
0.0
  0
LINE
  5
261
330
1E
100
AcDbEntity
  8
0
100
AcDbLine
 10
18.23999999999999
 20
128.1009999999999
 30
0.0
 11
18.408
 21
129.2949999999999
 31
0.0
  0
LINE
  5
262
330
1E
100
AcDbEntity
  8
0
100
AcDbLine
 10
18.23999999999999
 20
128.1009999999999
 30
0.0
 11
18.408
 21
126.906
 31
0.0
  0
LINE
  5
263
330
1E
100
AcDbEntity
  8
0
100
AcDbLine
 10
46.1242
 20
126.6129999999999
 30
0.0
 11
52.95580000000001
 21
129.9039999999999
 31
0.0
  0
LINE
  5
264
330
1E
100
AcDbEntity
  8
0
100
AcDbLine
 10
38.3863
 20
123.7859999999999
 30
0.0
 11
45.12839999999999
 21
128.3449999999999
 31
0.0
  0
LINE
  5
265
330
1E
100
AcDbEntity
  8
0
100
AcDbLine
 10
46.1242
 20
126.6129999999999
 30
0.0
 11
52.95580000000001
 21
129.9039999999999
 31
0.0
  0
LINE
  5
266
330
1E
100
AcDbEntity
  8
0
100
AcDbLine
 10
16.8307
 20
131.5729999999999
 30
0.0
 11
17.9507
 21
133.057
 31
0.0
  0
LINE
  5
267
330
1E
100
AcDbEntity
  8
0
100
AcDbLine
 10
26.9574
 20
130.4149999999999
 30
0.0
 11
27.4054
 21
129.2949999999999
 31
0.0
  0
LINE
  5
268
330
1E
100
AcDbEntity
  8
0
100
AcDbLine
 10
27.4054
 20
129.2949999999999
 30
0.0
 11
27.5151303964758
 21
128.5151303964759
 31
0.0
  0
LINE
  5
269
330
1E
100
AcDbEntity
  8
0
100
AcDbLine
 10
26.2107
 20
131.4049999999999
 30
0.0
 11
26.9574
 21
130.4149999999999
 31
0.0
  0
LINE
  5
26A
330
1E
100
AcDbEntity
  8
0
100
AcDbLine
 10
19.60269999999999
 20
131.4049999999999
 30
0.0
 11
20.592
 21
132.151
 31
0.0
  0
LINE
  5
26B
330
1E
100
AcDbEntity
  8
0
100
AcDbLine
 10
18.85599999999999
 20
130.4149999999999
 30
0.0
 11
19.60269999999999
 21
131.4049999999999
 31
0.0
  0
LINE
  5
26C
330
1E
100
AcDbEntity
  8
0
100
AcDbLine
 10
18.408
 20
129.2949999999999
 30
0.0
 11
18.85599999999999
 21
130.4149999999999
 31
0.0
  0
LINE
  5
26E
330
1E
100
AcDbEntity
  8
0
100
AcDbLine
 10
44.25199999999999
 20
130.184
 30
0.0
 11
51.56
 21
133.46
 31
0.0
  0
LINE
  5
26F
330
1E
100
AcDbEntity
  8
0
100
AcDbLine
 10
28.9827
 20
131.5729999999999
 30
0.0
 11
29.4370714285714
 21
130.4370714285709
 31
0.0
  0
LINE
  5
272
330
1E
100
AcDbEntity
  8
0
100
AcDbLine
 10
45.12839999999999
 20
128.3449999999999
 30
0.0
 11
52.1916
 21
131.7479999999999
 31
0.0
  0
LINE
  5
273
330
1E
100
AcDbEntity
  8
0
100
AcDbLine
 10
52.95580000000001
 20
129.9039999999999
 30
0.0
 11
60.2842
 21
132.388
 31
0.0
  0
LINE
  5
274
330
1E
100
AcDbEntity
  8
0
100
AcDbLine
 10
19.43469999999999
 20
134.177
 30
0.0
 11
21.1147
 21
134.8489999999999
 31
0.0
  0
LINE
  5
275
330
1E
100
AcDbEntity
  8
0
100
AcDbLine
 10
17.9507
 20
133.057
 30
0.0
 11
19.43469999999999
 21
134.177
 31
0.0
  0
LINE
  5
276
330
1E
100
AcDbEntity
  8
0
100
AcDbLine
 10
24.1014
 20
132.599
 30
0.0
 11
25.2214
 21
132.151
 31
0.0
  0
LINE
  5
277
330
1E
100
AcDbEntity
  8
0
100
AcDbLine
 10
25.2214
 20
132.151
 30
0.0
 11
26.2107
 21
131.4049999999999
 31
0.0
  0
LINE
  5
278
330
1E
100
AcDbEntity
  8
0
100
AcDbLine
 10
22.90669999999999
 20
132.7669999999999
 30
0.0
 11
24.1014
 21
132.599
 31
0.0
  0
LINE
  5
279
330
1E
100
AcDbEntity
  8
0
100
AcDbLine
 10
26.37869999999999
 20
134.177
 30
0.0
 11
27.8627
 21
133.057
 31
0.0
  0
LINE
  5
27B
330
1E
100
AcDbEntity
  8
0
100
AcDbLine
 10
51.56
 20
133.46
 30
0.0
 11
59.372
 21
136.2319999999999
 31
0.0
  0
LINE
  5
27C
330
1E
100
AcDbEntity
  8
0
100
AcDbLine
 10
27.8627
 20
133.057
 30
0.0
 11
28.9827
 21
131.5729999999999
 31
0.0
  0
LINE
  5
27D
330
1E
100
AcDbEntity
  8
0
100
AcDbLine
 10
21.712
 20
132.599
 30
0.0
 11
22.90669999999999
 21
132.7669999999999
 31
0.0
  0
LINE
  5
27E
330
1E
100
AcDbEntity
  8
0
100
AcDbLine
 10
20.592
 20
132.151
 30
0.0
 11
21.712
 21
132.599
 31
0.0
  0
LINE
  5
27F
330
1E
100
AcDbEntity
  8
0
100
AcDbLine
 10
52.1916
 20
131.7479999999999
 30
0.0
 11
59.7684
 21
134.317
 31
0.0
  0
LINE
  5
280
330
1E
100
AcDbEntity
  8
0
100
AcDbLine
 10
60.2842
 20
132.388
 30
0.0
 11
67.7989
 21
133.8789999999999
 31
0.0
  0
LINE
  5
281
330
1E
100
AcDbEntity
  8
0
100
AcDbLine
 10
59.372
 20
136.2319999999999
 30
0.0
 11
67.18399999999999
 21
137.7439999999999
 31
0.0
  0
LINE
  5
282
330
1E
100
AcDbEntity
  8
0
100
AcDbLine
 10
48.81800000000001
 20
144.168
 30
0.0
 11
49.666
 21
143.5279999999999
 31
0.0
  0
LINE
  5
283
330
1E
100
AcDbEntity
  8
0
100
AcDbLine
 10
48.178
 20
145.0159999999999
 30
0.0
 11
48.81800000000001
 21
144.168
 31
0.0
  0
LINE
  5
284
330
1E
100
AcDbEntity
  8
0
100
AcDbLine
 10
47.79399999999999
 20
145.9759999999999
 30
0.0
 11
48.178
 21
145.0159999999999
 31
0.0
  0
LINE
  5
285
330
1E
100
AcDbEntity
  8
0
100
AcDbLine
 10
47.79399999999999
 20
148.024
 30
0.0
 11
48.178
 21
148.984
 31
0.0
  0
LINE
  5
286
330
1E
100
AcDbEntity
  8
0
100
AcDbLine
 10
47.64999999999999
 20
147.0
 30
0.0
 11
47.79399999999999
 21
148.024
 31
0.0
  0
LINE
  5
287
330
1E
100
AcDbEntity
  8
0
100
AcDbLine
 10
47.64999999999999
 20
147.0
 30
0.0
 11
47.79399999999999
 21
145.9759999999999
 31
0.0
  0
LINE
  5
288
330
1E
100
AcDbEntity
  8
0
100
AcDbLine
 10
48.178
 20
148.984
 30
0.0
 11
48.81800000000001
 21
149.8319999999999
 31
0.0
  0
LINE
  5
289
330
1E
100
AcDbEntity
  8
0
100
AcDbLine
 10
48.81800000000001
 20
149.8319999999999
 30
0.0
 11
49.666
 21
150.472
 31
0.0
  0
LINE
  5
28A
330
1E
100
AcDbEntity
  8
0
100
AcDbLine
 10
48.774923076923
 20
149.774923076923
 30
0.0
 11
48.81800000000001
 21
149.8319999999999
 31
0.0
  0
LINE
  5
28C
330
1E
100
AcDbEntity
  8
0
100
AcDbLine
 10
50.626
 20
143.144
 30
0.0
 11
51.65
 21
143.0
 31
0.0
  0
LINE
  5
28D
330
1E
100
AcDbEntity
  8
0
100
AcDbLine
 10
49.666
 20
143.5279999999999
 30
0.0
 11
50.626
 21
143.144
 31
0.0
  0
LINE
  5
28E
330
1E
100
AcDbEntity
  8
0
100
AcDbLine
 10
50.626
 20
150.8559999999999
 30
0.0
 11
51.65
 21
151.0
 31
0.0
  0
LINE
  5
28F
330
1E
100
AcDbEntity
  8
0
100
AcDbLine
 10
49.666
 20
150.472
 30
0.0
 11
50.626
 21
150.8559999999999
 31
0.0
  0
LINE
  5
290
330
1E
100
AcDbEntity
  8
0
100
AcDbLine
 10
51.65
 20
143.0
 30
0.0
 11
52.674
 21
143.144
 31
0.0
  0
LINE
  5
291
330
1E
100
AcDbEntity
  8
0
100
AcDbLine
 10
52.674
 20
143.144
 30
0.0
 11
53.63399999999999
 21
143.5279999999999
 31
0.0
  0
LINE
  5
292
330
1E
100
AcDbEntity
  8
0
100
AcDbLine
 10
54.15868376428681
 20
143.9239877466315
 30
0.0
 11
55.79905499592932
 21
134.9641808050071
 31
0.0
  0
LINE
  5
294
330
1E
100
AcDbEntity
  8
0
100
AcDbLine
 10
52.258844565263
 20
143.0856187669901
 30
0.0
 11
53.73483836810105
 21
134.2317168402939
 31
0.0
  0
LINE
  5
295
330
1E
100
AcDbEntity
  8
0
100
AcDbLine
 10
53.63399999999999
 20
143.5279999999999
 30
0.0
 11
54.48199999999999
 21
144.168
 31
0.0
  0
LINE
  5
296
330
1E
100
AcDbEntity
  8
0
100
AcDbLine
 10
54.48199999999999
 20
144.168
 30
0.0
 11
55.12199999999999
 21
145.0159999999999
 31
0.0
  0
LINE
  5
297
330
1E
100
AcDbEntity
  8
0
100
AcDbLine
 10
55.12199999999999
 20
145.0159999999999
 30
0.0
 11
55.506
 21
145.9759999999999
 31
0.0
  0
LINE
  5
298
330
1E
100
AcDbEntity
  8
0
100
AcDbLine
 10
55.506
 20
145.9759999999999
 30
0.0
 11
55.65
 21
147.0
 31
0.0
  0
LINE
  5
299
330
1E
100
AcDbEntity
  8
0
100
AcDbLine
 10
51.65
 20
151.0
 30
0.0
 11
52.674
 21
150.8559999999999
 31
0.0
  0
LINE
  5
29A
330
1E
100
AcDbEntity
  8
0
100
AcDbLine
 10
52.674
 20
150.8559999999999
 30
0.0
 11
53.63399999999999
 21
150.472
 31
0.0
  0
LINE
  5
29B
330
1E
100
AcDbEntity
  8
0
100
AcDbLine
 10
53.63399999999999
 20
150.472
 30
0.0
 11
54.48199999999999
 21
149.8319999999999
 31
0.0
  0
LINE
  5
29C
330
1E
100
AcDbEntity
  8
0
100
AcDbLine
 10
54.48199999999999
 20
149.8319999999999
 30
0.0
 11
55.12199999999999
 21
148.984
 31
0.0
  0
LINE
  5
29D
330
1E
100
AcDbEntity
  8
0
100
AcDbLine
 10
55.12199999999999
 20
148.984
 30
0.0
 11
55.506
 21
148.024
 31
0.0
  0
LINE
  5
29E
330
1E
100
AcDbEntity
  8
0
100
AcDbLine
 10
55.506
 20
148.024
 30
0.0
 11
55.65
 21
147.0
 31
0.0
  0
LINE
  5
2A3
330
1E
100
AcDbEntity
  8
0
100
AcDbLine
 10
67.18399999999999
 20
137.7439999999999
 30
0.0
 11
73.12618661257606
 21
138.2841987829614
 31
0.0
  0
LINE
  5
2A4
330
1E
100
AcDbEntity
  8
0
100
AcDbLine
 10
22.90669999999999
 20
135.101
 30
0.0
 11
24.6987
 21
134.8489999999999
 31
0.0
  0
LINE
  5
2A5
330
1E
100
AcDbEntity
  8
0
100
AcDbLine
 10
24.6987
 20
134.8489999999999
 30
0.0
 11
26.37869999999999
 21
134.177
 31
0.0
  0
LINE
  5
2A6
330
1E
100
AcDbEntity
  8
0
100
AcDbLine
 10
21.1147
 20
134.8489999999999
 30
0.0
 11
22.90669999999999
 21
135.101
 31
0.0
  0
LINE
  5
2A7
330
1E
100
AcDbEntity
  8
0
100
AcDbLine
 10
59.7684
 20
134.317
 30
0.0
 11
67.53789999999999
 21
135.858
 31
0.0
  0
LINE
  5
354
330
1E
100
AcDbEntity
  8
0
100
AcDbLine
 10
75.5
 20
134.4999999999999
 30
0.0
 11
83.20109999999999
 21
133.8789999999999
 31
0.0
  0
LINE
  5
355
330
1E
100
AcDbEntity
  8
0
100
AcDbLine
 10
73.6114
 20
137.918
 30
0.0
 11
74.57139999999999
 21
137.534
 31
0.0
  0
LINE
  5
356
330
1E
100
AcDbEntity
  8
0
100
AcDbLine
 10
72.76340000000001
 20
138.558
 30
0.0
 11
73.6114
 21
137.918
 31
0.0
  0
LINE
  5
357
330
1E
100
AcDbEntity
  8
0
100
AcDbLine
 10
72.12340000000001
 20
139.406
 30
0.0
 11
72.76340000000001
 21
138.558
 31
0.0
  0
LINE
  5
358
330
1E
100
AcDbEntity
  8
0
100
AcDbLine
 10
71.7394
 20
140.366
 30
0.0
 11
72.12340000000001
 21
139.406
 31
0.0
  0
LINE
  5
359
330
1E
100
AcDbEntity
  8
0
100
AcDbLine
 10
73.6114
 20
144.862
 30
0.0
 11
74.57139999999999
 21
145.246
 31
0.0
  0
LINE
  5
35A
330
1E
100
AcDbEntity
  8
0
100
AcDbLine
 10
72.76340000000001
 20
144.222
 30
0.0
 11
73.6114
 21
144.862
 31
0.0
  0
LINE
  5
35B
330
1E
100
AcDbEntity
  8
0
100
AcDbLine
 10
72.12340000000001
 20
143.374
 30
0.0
 11
72.76340000000001
 21
144.222
 31
0.0
  0
LINE
  5
35C
330
1E
100
AcDbEntity
  8
0
100
AcDbLine
 10
71.7394
 20
142.4139999999999
 30
0.0
 11
72.12340000000001
 21
143.374
 31
0.0
  0
LINE
  5
35D
330
1E
100
AcDbEntity
  8
0
100
AcDbLine
 10
71.59539999999999
 20
141.3899999999999
 30
0.0
 11
71.7394
 21
142.4139999999999
 31
0.0
  0
LINE
  5
35E
330
1E
100
AcDbEntity
  8
0
100
AcDbLine
 10
71.59539999999999
 20
141.3899999999999
 30
0.0
 11
71.7394
 21
140.366
 31
0.0
  0
LINE
  5
35F
330
1E
100
AcDbEntity
  8
0
100
AcDbLine
 10
74.57139999999999
 20
137.534
 30
0.0
 11
75.5954
 21
137.3899999999999
 31
0.0
  0
LINE
  5
360
330
1E
100
AcDbEntity
  8
0
100
AcDbLine
 10
74.57139999999999
 20
145.246
 30
0.0
 11
75.5954
 21
145.3899999999999
 31
0.0
  0
LINE
  5
362
330
1E
100
AcDbEntity
  8
0
100
AcDbLine
 10
74.57139999999999
 20
145.246
 30
0.0
 11
74.51501893142617
 21
149.0
 31
0.0
  0
LINE
  5
363
330
1E
100
AcDbEntity
  8
0
100
AcDbLine
 10
74.51501893142617
 20
149.0
 30
0.0
 11
76.5
 21
149.0
 31
0.0
  0
LINE
  5
364
330
1E
100
AcDbEntity
  8
0
100
AcDbLine
 10
74.51501893142617
 20
149.0
 30
0.0
 11
74.57139999999999
 21
145.246
 31
0.0
  0
LINE
  5
365
330
1E
100
AcDbEntity
  8
0
100
AcDbLine
 10
75.5954
 20
137.3899999999999
 30
0.0
 11
76.6194
 21
137.534
 31
0.0
  0
LINE
  5
366
330
1E
100
AcDbEntity
  8
0
100
AcDbLine
 10
76.6194
 20
137.534
 30
0.0
 11
77.57940000000001
 21
137.918
 31
0.0
  0
LINE
  5
367
330
1E
100
AcDbEntity
  8
0
100
AcDbLine
 10
75.5954
 20
145.3899999999999
 30
0.0
 11
76.6194
 21
145.246
 31
0.0
  0
LINE
  5
368
330
1E
100
AcDbEntity
  8
0
100
AcDbLine
 10
77.57940000000001
 20
137.918
 30
0.0
 11
78.4274
 21
138.558
 31
0.0
  0
LINE
  5
369
330
1E
100
AcDbEntity
  8
0
100
AcDbLine
 10
78.4274
 20
138.558
 30
0.0
 11
79.0674
 21
139.406
 31
0.0
  0
LINE
  5
36A
330
1E
100
AcDbEntity
  8
0
100
AcDbLine
 10
79.0674
 20
139.406
 30
0.0
 11
79.45140000000001
 21
140.366
 31
0.0
  0
LINE
  5
36B
330
1E
100
AcDbEntity
  8
0
100
AcDbLine
 10
79.45140000000001
 20
140.366
 30
0.0
 11
79.5954
 21
141.3899999999999
 31
0.0
  0
LINE
  5
36C
330
1E
100
AcDbEntity
  8
0
100
AcDbLine
 10
76.6194
 20
145.246
 30
0.0
 11
77.57940000000001
 21
144.862
 31
0.0
  0
LINE
  5
36D
330
1E
100
AcDbEntity
  8
0
100
AcDbLine
 10
77.57940000000001
 20
144.862
 30
0.0
 11
78.4274
 21
144.222
 31
0.0
  0
LINE
  5
36E
330
1E
100
AcDbEntity
  8
0
100
AcDbLine
 10
78.4274
 20
144.222
 30
0.0
 11
79.0674
 21
143.374
 31
0.0
  0
LINE
  5
37B
330
1E
100
AcDbEntity
  8
0
100
AcDbLine
 10
79.0674
 20
143.374
 30
0.0
 11
79.45140000000001
 21
142.4139999999999
 31
0.0
  0
LINE
  5
37C
330
1E
100
AcDbEntity
  8
0
100
AcDbLine
 10
79.45140000000001
 20
142.4139999999999
 30
0.0
 11
79.5954
 21
141.3899999999999
 31
0.0
  0
LINE
  5
37D
330
1E
100
AcDbEntity
  8
0
100
AcDbLine
 10
76.5
 20
145.262790625
 30
0.0
 11
76.5
 21
149.0
 31
0.0
  0
LINE
  5
383
330
1E
100
AcDbEntity
  8
0
100
AcDbLine
 10
76.5
 20
149.0
 30
0.0
 11
76.5
 21
145.262790625
 31
0.0
  0
LINE
  5
396
330
1E
100
AcDbEntity
  8
0
100
AcDbLine
 10
78.0441014198783
 20
138.2687180527383
 30
0.0
 11
83.816
 21
137.7439999999999
 31
0.0
  0
LINE
  5
397
330
1E
100
AcDbEntity
  8
0
100
AcDbLine
 10
75.5
 20
136.4999999999999
 30
0.0
 11
83.46210000000001
 21
135.858
 31
0.0
  0
LINE
  5
398
330
1E
100
AcDbEntity
  8
0
100
AcDbLine
 10
70.3561
 20
136.0929999999999
 30
0.0
 11
75.5
 21
136.4999999999999
 31
0.0
  0
LINE
  5
399
330
1E
100
AcDbEntity
  8
0
100
AcDbLine
 10
67.7989
 20
133.8789999999999
 30
0.0
 11
75.5
 21
134.4999999999999
 31
0.0
  0
LINE
  5
39A
330
1E
100
AcDbEntity
  8
0
100
AcDbLine
 10
67.53789999999999
 20
135.858
 30
0.0
 11
75.5
 21
136.4999999999999
 31
0.0
  0
LINE
  5
39B
330
1E
100
AcDbEntity
  8
0
100
AcDbLine
 10
17.12099999999999
 20
67.7989
 30
0.0
 11
18.61159999999999
 21
60.2842
 31
0.0
  0
LINE
  5
39C
330
1E
100
AcDbEntity
  8
0
100
AcDbLine
 10
16.5
 20
75.5
 30
0.0
 11
17.12099999999999
 21
67.7989
 31
0.0
  0
LINE
  5
39D
330
1E
100
AcDbEntity
  8
0
100
AcDbLine
 10
16.5
 20
75.5
 30
0.0
 11
17.12099999999999
 21
83.20109999999999
 31
0.0
  0
LINE
  5
3A2
330
1E
100
AcDbEntity
  8
0
100
AcDbLine
 10
151.0
 20
99.35
 30
0.0
 11
151.0
 21
51.65
 31
0.0
  0
LINE
  5
3A3
330
1E
100
AcDbEntity
  8
0
100
AcDbLine
 10
148.984
 20
55.12199999999999
 30
0.0
 11
148.9984698240816
 21
95.88892062194839
 31
0.0
  0
LINE
  5
3A4
330
1E
100
AcDbEntity
  8
0
100
AcDbLine
 10
134.4999999999999
 20
75.5
 30
0.0
 11
133.8789999999999
 21
83.20109999999999
 31
0.0
  0
LINE
  5
3A5
330
1E
100
AcDbEntity
  8
0
100
AcDbLine
 10
136.4999999999999
 20
75.5
 30
0.0
 11
135.8578999999999
 21
83.46210000000001
 31
0.0
  0
LINE
  5
3A6
330
1E
100
AcDbEntity
  8
0
100
AcDbLine
 10
145.38968
 20
75.5954
 30
0.0
 11
145.24568
 21
74.57139999999999
 31
0.0
  0
LINE
  5
3A7
330
1E
100
AcDbEntity
  8
0
100
AcDbLine
 10
137.5337
 20
74.57139999999999
 30
0.0
 11
137.3897
 21
75.5954
 31
0.0
  0
LINE
  5
3A8
330
1E
100
AcDbEntity
  8
0
100
AcDbLine
 10
149.8750769230769
 20
48.87507692307691
 30
0.0
 11
102.2250769230768
 21
1.225076923076905
 31
0.0
  0
LINE
  5
3A9
330
1E
100
AcDbEntity
  8
0
100
AcDbLine
 10
149.8750769230769
 20
48.87507692307691
 30
0.0
 11
102.2250769230768
 21
1.225076923076905
 31
0.0
  0
LINE
  5
3AA
330
1E
100
AcDbEntity
  8
0
100
AcDbLine
 10
145.9917808219178
 20
47.7917808219178
 30
0.0
 11
103.2082191780821
 21
5.008219178082185
 31
0.0
  0
LINE
  5
3AB
330
1E
100
AcDbEntity
  8
0
100
AcDbLine
 10
125.3959999999999
 20
37.19599999999999
 30
0.0
 11
121.4684426008968
 21
32.91139192825112
 31
0.0
  0
LINE
  5
3AC
330
1E
100
AcDbEntity
  8
0
100
AcDbLine
 10
123.2733
 20
25.16519999999999
 30
0.0
 11
122.2493
 21
25.0212
 31
0.0
  0
LINE
  5
3AD
330
1E
100
AcDbEntity
  8
0
100
AcDbLine
 10
123.1373
 20
17.9433
 30
0.0
 11
122.0173
 21
19.4273
 31
0.0
  0
LINE
  5
3AE
330
1E
100
AcDbEntity
  8
0
100
AcDbLine
 10
123.1373
 20
17.9433
 30
0.0
 11
122.0173
 21
19.4273
 31
0.0
  0
LINE
  5
3AF
330
1E
100
AcDbEntity
  8
0
100
AcDbLine
 10
126.6126
 20
46.1242
 30
0.0
 11
122.2032
 21
39.6032
 31
0.0
  0
LINE
  5
3B0
330
1E
100
AcDbEntity
  8
0
100
AcDbLine
 10
123.7862999999999
 20
38.3863
 30
0.0
 11
118.5852999999999
 21
32.4147
 31
0.0
  0
LINE
  5
3B1
330
1E
100
AcDbEntity
  8
0
100
AcDbLine
 10
123.2733
 20
32.8772
 30
0.0
 11
122.2493
 21
33.0212
 31
0.0
  0
LINE
  5
3B2
330
1E
100
AcDbEntity
  8
0
100
AcDbLine
 10
126.2493
 20
29.0212
 30
0.0
 11
126.1052999999999
 21
27.9972
 31
0.0
  0
LINE
  5
3B3
330
1E
100
AcDbEntity
  8
0
100
AcDbLine
 10
133.0492999999999
 20
27.8553
 30
0.0
 11
131.5653
 21
28.9753
 31
0.0
  0
LINE
  5
3B4
330
1E
100
AcDbEntity
  8
0
100
AcDbLine
 10
134.8412999999999
 20
24.69129999999999
 30
0.0
 11
134.1693
 21
26.3713
 31
0.0
  0
LINE
  5
3B5
330
1E
100
AcDbEntity
  8
0
100
AcDbLine
 10
134.8412999999999
 20
21.10729999999999
 30
0.0
 11
134.1693
 21
19.4273
 31
0.0
  0
LINE
  5
3B6
330
1E
100
AcDbEntity
  8
0
100
AcDbLine
 10
135.0932999999999
 20
22.8993
 30
0.0
 11
134.8412999999999
 21
21.10729999999999
 31
0.0
  0
LINE
  5
3B7
330
1E
100
AcDbEntity
  8
0
100
AcDbLine
 10
135.0932999999999
 20
22.8993
 30
0.0
 11
134.8412999999999
 21
24.69129999999999
 31
0.0
  0
LINE
  5
3B8
330
1E
100
AcDbEntity
  8
0
100
AcDbLine
 10
126.3012999999999
 20
16.15129999999999
 30
0.0
 11
124.6213
 21
16.8233
 31
0.0
  0
LINE
  5
3B9
330
1E
100
AcDbEntity
  8
0
100
AcDbLine
 10
131.5653
 20
16.8233
 30
0.0
 11
129.8853
 21
16.15129999999999
 31
0.0
  0
LINE
  5
3BA
330
1E
100
AcDbEntity
  8
0
100
AcDbLine
 10
129.8853
 20
16.15129999999999
 30
0.0
 11
128.0933
 21
15.8993
 31
0.0
  0
LINE
  5
3BB
330
1E
100
AcDbEntity
  8
0
100
AcDbLine
 10
128.0933
 20
15.8993
 30
0.0
 11
126.3012999999999
 21
16.15129999999999
 31
0.0
  0
LINE
  5
3BC
330
1E
100
AcDbEntity
  8
0
100
AcDbLine
 10
129.288
 20
18.4006
 30
0.0
 11
128.0933
 21
18.2326
 31
0.0
  0
LINE
  5
3BD
330
1E
100
AcDbEntity
  8
0
100
AcDbLine
 10
129.288
 20
27.398
 30
0.0
 11
128.5077233433623
 21
27.5077233433624
 31
0.0
  0
LINE
  5
3BE
330
1E
100
AcDbEntity
  8
0
100
AcDbLine
 10
132.7599999999999
 20
22.8993
 30
0.0
 11
132.5919999999999
 21
21.70459999999999
 31
0.0
  0
LINE
  5
3BF
330
1E
100
AcDbEntity
  8
0
100
AcDbLine
 10
132.144
 20
20.58459999999999
 30
0.0
 11
131.3973
 21
19.5953
 31
0.0
  0
LINE
  5
3C0
330
1E
100
AcDbEntity
  8
0
100
AcDbLine
 10
133.0492999999999
 20
17.9433
 30
0.0
 11
131.5653
 21
16.8233
 31
0.0
  0
LINE
  5
3C1
330
1E
100
AcDbEntity
  8
0
100
AcDbLine
 10
133.0492999999999
 20
17.9433
 30
0.0
 11
131.5653
 21
16.8233
 31
0.0
  0
LINE
  5
3C2
330
1E
100
AcDbEntity
  8
0
100
AcDbLine
 10
134.1693
 20
19.4273
 30
0.0
 11
133.0492999999999
 21
17.9433
 31
0.0
  0
LINE
  5
3C3
330
1E
100
AcDbEntity
  8
0
100
AcDbLine
 10
132.5919999999999
 20
21.70459999999999
 30
0.0
 11
132.144
 21
20.58459999999999
 31
0.0
  0
LINE
  5
3C4
330
1E
100
AcDbEntity
  8
0
100
AcDbLine
 10
131.3973
 20
19.5953
 30
0.0
 11
130.408
 21
18.8486
 31
0.0
  0
LINE
  5
3C5
330
1E
100
AcDbEntity
  8
0
100
AcDbLine
 10
131.3973
 20
19.5953
 30
0.0
 11
130.408
 21
18.8486
 31
0.0
  0
LINE
  5
3C6
330
1E
100
AcDbEntity
  8
0
100
AcDbLine
 10
130.408
 20
18.8486
 30
0.0
 11
129.288
 21
18.4006
 31
0.0
  0
LINE
  5
3C7
330
1E
100
AcDbEntity
  8
0
100
AcDbLine
 10
132.144
 20
25.2139
 30
0.0
 11
131.3973
 21
26.2033
 31
0.0
  0
LINE
  5
3C8
330
1E
100
AcDbEntity
  8
0
100
AcDbLine
 10
132.144
 20
25.2139
 30
0.0
 11
131.3973
 21
26.2033
 31
0.0
  0
LINE
  5
3C9
330
1E
100
AcDbEntity
  8
0
100
AcDbLine
 10
132.7599999999999
 20
22.8993
 30
0.0
 11
132.5919999999999
 21
24.0939
 31
0.0
  0
LINE
  5
3CA
330
1E
100
AcDbEntity
  8
0
100
AcDbLine
 10
132.5919999999999
 20
24.0939
 30
0.0
 11
132.144
 21
25.2139
 31
0.0
  0
LINE
  5
3CB
330
1E
100
AcDbEntity
  8
0
100
AcDbLine
 10
132.5919999999999
 20
24.0939
 30
0.0
 11
132.144
 21
25.2139
 31
0.0
  0
LINE
  5
3CC
330
1E
100
AcDbEntity
  8
0
100
AcDbLine
 10
134.1693
 20
26.3713
 30
0.0
 11
133.0492999999999
 21
27.8553
 31
0.0
  0
LINE
  5
3CD
330
1E
100
AcDbEntity
  8
0
100
AcDbLine
 10
130.408
 20
26.95
 30
0.0
 11
129.288
 21
27.398
 31
0.0
  0
LINE
  5
3CE
330
1E
100
AcDbEntity
  8
0
100
AcDbLine
 10
131.3973
 20
26.2033
 30
0.0
 11
130.408
 21
26.95
 31
0.0
  0
LINE
  5
3CF
330
1E
100
AcDbEntity
  8
0
100
AcDbLine
 10
123.5945999999999
 20
21.70459999999999
 30
0.0
 11
123.4848766566375
 21
22.4848766566376
 31
0.0
  0
LINE
  5
3D0
330
1E
100
AcDbEntity
  8
0
100
AcDbLine
 10
125.7786
 20
18.8486
 30
0.0
 11
124.7892999999999
 21
19.5953
 31
0.0
  0
LINE
  5
3D1
330
1E
100
AcDbEntity
  8
0
100
AcDbLine
 10
128.0933
 20
18.2326
 30
0.0
 11
126.8985999999999
 21
18.4006
 31
0.0
  0
LINE
  5
3D2
330
1E
100
AcDbEntity
  8
0
100
AcDbLine
 10
126.8985999999999
 20
18.4006
 30
0.0
 11
125.7786
 21
18.8486
 31
0.0
  0
LINE
  5
3D3
330
1E
100
AcDbEntity
  8
0
100
AcDbLine
 10
124.6213
 20
16.8233
 30
0.0
 11
123.1373
 21
17.9433
 31
0.0
  0
LINE
  5
3D4
330
1E
100
AcDbEntity
  8
0
100
AcDbLine
 10
124.6213
 20
16.8233
 30
0.0
 11
123.1373
 21
17.9433
 31
0.0
  0
LINE
  5
3D5
330
1E
100
AcDbEntity
  8
0
100
AcDbLine
 10
124.7892999999999
 20
19.5953
 30
0.0
 11
124.0426
 21
20.58459999999999
 31
0.0
  0
LINE
  5
3D6
330
1E
100
AcDbEntity
  8
0
100
AcDbLine
 10
124.0426
 20
20.58459999999999
 30
0.0
 11
123.5945999999999
 21
21.70459999999999
 31
0.0
  0
LINE
  5
3D7
330
1E
100
AcDbEntity
  8
0
100
AcDbLine
 10
124.0426
 20
20.58459999999999
 30
0.0
 11
123.5945999999999
 21
21.70459999999999
 31
0.0
  0
LINE
  5
3D8
330
1E
100
AcDbEntity
  8
0
100
AcDbLine
 10
125.7212999999999
 20
27.0372
 30
0.0
 11
125.0812999999999
 21
26.1892
 31
0.0
  0
LINE
  5
3D9
330
1E
100
AcDbEntity
  8
0
100
AcDbLine
 10
126.1052999999999
 20
27.9972
 30
0.0
 11
125.7212999999999
 21
27.0372
 31
0.0
  0
LINE
  5
3DA
330
1E
100
AcDbEntity
  8
0
100
AcDbLine
 10
124.2333
 20
25.5492
 30
0.0
 11
123.2733
 21
25.16519999999999
 31
0.0
  0
LINE
  5
3DB
330
1E
100
AcDbEntity
  8
0
100
AcDbLine
 10
125.0812999999999
 20
26.1892
 30
0.0
 11
124.2333
 21
25.5492
 31
0.0
  0
LINE
  5
3DC
330
1E
100
AcDbEntity
  8
0
100
AcDbLine
 10
148.9908780336306
 20
74.5
 30
0.0
 11
145.2171199999999
 21
74.5
 31
0.0
  0
LINE
  5
3DD
330
1E
100
AcDbEntity
  8
0
100
AcDbLine
 10
148.9908780336306
 20
74.5
 30
0.0
 11
145.2171199999999
 21
74.5
 31
0.0
  0
LINE
  5
3DE
330
1E
100
AcDbEntity
  8
0
100
AcDbLine
 10
147.0
 20
55.65
 30
0.0
 11
145.9759999999999
 21
55.506
 31
0.0
  0
LINE
  5
3DF
330
1E
100
AcDbEntity
  8
0
100
AcDbLine
 10
147.0
 20
47.64999999999999
 30
0.0
 11
145.9759999999999
 21
47.79399999999999
 31
0.0
  0
LINE
  5
3E0
330
1E
100
AcDbEntity
  8
0
100
AcDbLine
 10
151.0
 20
51.65
 30
0.0
 11
150.8559999999999
 21
52.674
 31
0.0
  0
LINE
  5
3E1
330
1E
100
AcDbEntity
  8
0
100
AcDbLine
 10
149.8319999999999
 20
48.81800000000001
 30
0.0
 11
148.984
 21
48.178
 31
0.0
  0
LINE
  5
3E2
330
1E
100
AcDbEntity
  8
0
100
AcDbLine
 10
150.472
 20
49.666
 30
0.0
 11
149.8319999999999
 21
48.81800000000001
 31
0.0
  0
LINE
  5
3E3
330
1E
100
AcDbEntity
  8
0
100
AcDbLine
 10
150.472
 20
49.666
 30
0.0
 11
149.8319999999999
 21
48.81800000000001
 31
0.0
  0
LINE
  5
3E4
330
1E
100
AcDbEntity
  8
0
100
AcDbLine
 10
149.8319999999999
 20
48.81800000000001
 30
0.0
 11
149.7749230769231
 21
48.7749230769231
 31
0.0
  0
LINE
  5
3E5
330
1E
100
AcDbEntity
  8
0
100
AcDbLine
 10
150.8559999999999
 20
50.626
 30
0.0
 11
150.472
 21
49.666
 31
0.0
  0
LINE
  5
3E6
330
1E
100
AcDbEntity
  8
0
100
AcDbLine
 10
151.0
 20
51.65
 30
0.0
 11
150.8559999999999
 21
50.626
 31
0.0
  0
LINE
  5
3E7
330
1E
100
AcDbEntity
  8
0
100
AcDbLine
 10
148.024
 20
47.79399999999999
 30
0.0
 11
147.0
 21
47.64999999999999
 31
0.0
  0
LINE
  5
3E8
330
1E
100
AcDbEntity
  8
0
100
AcDbLine
 10
148.984
 20
48.178
 30
0.0
 11
148.024
 21
47.79399999999999
 31
0.0
  0
LINE
  5
3E9
330
1E
100
AcDbEntity
  8
0
100
AcDbLine
 10
149.8319999999999
 20
54.48199999999999
 30
0.0
 11
148.984
 21
55.12199999999999
 31
0.0
  0
LINE
  5
3EA
330
1E
100
AcDbEntity
  8
0
100
AcDbLine
 10
150.8559999999999
 20
52.674
 30
0.0
 11
150.472
 21
53.63399999999999
 31
0.0
  0
LINE
  5
3EB
330
1E
100
AcDbEntity
  8
0
100
AcDbLine
 10
150.472
 20
53.63399999999999
 30
0.0
 11
149.8319999999999
 21
54.48199999999999
 31
0.0
  0
LINE
  5
3EC
330
1E
100
AcDbEntity
  8
0
100
AcDbLine
 10
150.472
 20
53.63399999999999
 30
0.0
 11
149.8319999999999
 21
54.48199999999999
 31
0.0
  0
LINE
  5
3ED
330
1E
100
AcDbEntity
  8
0
100
AcDbLine
 10
148.024
 20
55.506
 30
0.0
 11
147.0
 21
55.65
 31
0.0
  0
LINE
  5
3EE
330
1E
100
AcDbEntity
  8
0
100
AcDbLine
 10
148.984
 20
55.12199999999999
 30
0.0
 11
148.024
 21
55.506
 31
0.0
  0
LINE
  5
3EF
330
1E
100
AcDbEntity
  8
0
100
AcDbLine
 10
129.9042
 20
52.95580000000001
 30
0.0
 11
126.6126
 21
46.1242
 31
0.0
  0
LINE
  5
3F0
330
1E
100
AcDbEntity
  8
0
100
AcDbLine
 10
131.7484
 20
52.1916
 30
0.0
 11
128.3453
 21
45.12839999999999
 31
0.0
  0
LINE
  5
3F1
330
1E
100
AcDbEntity
  8
0
100
AcDbLine
 10
136.2319999999999
 20
59.372
 30
0.0
 11
133.46
 21
51.56
 31
0.0
  0
LINE
  5
3F2
330
1E
100
AcDbEntity
  8
0
100
AcDbLine
 10
143.144
 20
52.674
 30
0.0
 11
143.0
 21
51.65
 31
0.0
  0
LINE
  5
3F3
330
1E
100
AcDbEntity
  8
0
100
AcDbLine
 10
144.6848331687364
 20
48.4279372311423
 30
0.0
 11
128.2774503731044
 21
41.44234791825921
 31
0.0
  0
LINE
  5
3F4
330
1E
100
AcDbEntity
  8
0
100
AcDbLine
 10
144.8665113618413
 20
46.66651136184135
 30
0.0
 11
126.2767428738094
 21
38.49393686666662
 31
0.0
  0
LINE
  5
3F5
330
1E
100
AcDbEntity
  8
0
100
AcDbLine
 10
143.5279999999999
 20
49.666
 30
0.0
 11
143.144
 21
50.626
 31
0.0
  0
LINE
  5
3F6
330
1E
100
AcDbEntity
  8
0
100
AcDbLine
 10
144.168
 20
48.81800000000001
 30
0.0
 11
143.5279999999999
 21
49.666
 31
0.0
  0
LINE
  5
3F7
330
1E
100
AcDbEntity
  8
0
100
AcDbLine
 10
145.0159999999999
 20
48.178
 30
0.0
 11
144.168
 21
48.81800000000001
 31
0.0
  0
LINE
  5
3F8
330
1E
100
AcDbEntity
  8
0
100
AcDbLine
 10
145.9759999999999
 20
47.79399999999999
 30
0.0
 11
145.0159999999999
 21
48.178
 31
0.0
  0
LINE
  5
3F9
330
1E
100
AcDbEntity
  8
0
100
AcDbLine
 10
143.144
 20
50.626
 30
0.0
 11
143.0
 21
51.65
 31
0.0
  0
LINE
  5
3FA
330
1E
100
AcDbEntity
  8
0
100
AcDbLine
 10
128.3453
 20
45.12839999999999
 30
0.0
 11
123.7862999999999
 21
38.3863
 31
0.0
  0
LINE
  5
3FB
330
1E
100
AcDbEntity
  8
0
100
AcDbLine
 10
130.184
 20
44.25199999999999
 30
0.0
 11
125.3959999999999
 21
37.19599999999999
 31
0.0
  0
LINE
  5
3FC
330
1E
100
AcDbEntity
  8
0
100
AcDbLine
 10
131.5653
 20
28.9753
 30
0.0
 11
130.4295857142857
 21
29.42958571428569
 31
0.0
  0
LINE
  5
3FD
330
1E
100
AcDbEntity
  8
0
100
AcDbLine
 10
131.5653
 20
28.9753
 30
0.0
 11
131.1037447118571
 21
29.15992211525709
 31
0.0
  0
LINE
  5
3FE
330
1E
100
AcDbEntity
  8
0
100
AcDbLine
 10
125.7212999999999
 20
31.00519999999999
 30
0.0
 11
125.0812999999999
 21
31.8532
 31
0.0
  0
LINE
  5
3FF
330
1E
100
AcDbEntity
  8
0
100
AcDbLine
 10
126.2493
 20
29.0212
 30
0.0
 11
126.1052999999999
 21
30.0452
 31
0.0
  0
LINE
  5
400
330
1E
100
AcDbEntity
  8
0
100
AcDbLine
 10
126.1052999999999
 20
30.0452
 30
0.0
 11
125.7212999999999
 21
31.00519999999999
 31
0.0
  0
LINE
  5
401
330
1E
100
AcDbEntity
  8
0
100
AcDbLine
 10
124.2333
 20
32.4932
 30
0.0
 11
123.2733
 21
32.8772
 31
0.0
  0
LINE
  5
402
330
1E
100
AcDbEntity
  8
0
100
AcDbLine
 10
125.0812999999999
 20
31.8532
 30
0.0
 11
124.2333
 21
32.4932
 31
0.0
  0
LINE
  5
403
330
1E
100
AcDbEntity
  8
0
100
AcDbLine
 10
133.46
 20
51.56
 30
0.0
 11
130.184
 21
44.25199999999999
 31
0.0
  0
LINE
  5
404
330
1E
100
AcDbEntity
  8
0
100
AcDbLine
 10
143.0856203977721
 20
52.25885616193514
 30
0.0
 11
134.2317172749764
 21
53.73483959311539
 31
0.0
  0
LINE
  5
405
330
1E
100
AcDbEntity
  8
0
100
AcDbLine
 10
143.0856203977721
 20
52.25885616193514
 30
0.0
 11
134.2317172749764
 21
53.73483959311539
 31
0.0
  0
LINE
  5
406
330
1E
100
AcDbEntity
  8
0
100
AcDbLine
 10
134.4999999999999
 20
75.5
 30
0.0
 11
133.8789999999999
 21
67.7989
 31
0.0
  0
LINE
  5
407
330
1E
100
AcDbEntity
  8
0
100
AcDbLine
 10
135.8578999999999
 20
67.53789999999999
 30
0.0
 11
134.3168
 21
59.7684
 31
0.0
  0
LINE
  5
408
330
1E
100
AcDbEntity
  8
0
100
AcDbLine
 10
137.7439999999999
 20
67.18399999999999
 30
0.0
 11
136.2319999999999
 21
59.372
 31
0.0
  0
LINE
  5
409
330
1E
100
AcDbEntity
  8
0
100
AcDbLine
 10
143.9239397200078
 20
54.15862012901043
 30
0.0
 11
134.9641673955304
 21
55.79901720558595
 31
0.0
  0
LINE
  5
40A
330
1E
100
AcDbEntity
  8
0
100
AcDbLine
 10
143.9239397200078
 20
54.15862012901043
 30
0.0
 11
134.9641673955304
 21
55.79901720558595
 31
0.0
  0
LINE
  5
40B
330
1E
100
AcDbEntity
  8
0
100
AcDbLine
 10
143.5279999999999
 20
53.63399999999999
 30
0.0
 11
143.144
 21
52.674
 31
0.0
  0
LINE
  5
40C
330
1E
100
AcDbEntity
  8
0
100
AcDbLine
 10
145.0159999999999
 20
55.12199999999999
 30
0.0
 11
144.168
 21
54.48199999999999
 31
0.0
  0
LINE
  5
40D
330
1E
100
AcDbEntity
  8
0
100
AcDbLine
 10
144.168
 20
54.48199999999999
 30
0.0
 11
143.5279999999999
 21
53.63399999999999
 31
0.0
  0
LINE
  5
40E
330
1E
100
AcDbEntity
  8
0
100
AcDbLine
 10
145.9759999999999
 20
55.506
 30
0.0
 11
145.0159999999999
 21
55.12199999999999
 31
0.0
  0
LINE
  5
40F
330
1E
100
AcDbEntity
  8
0
100
AcDbLine
 10
141.38968
 20
71.59539999999999
 30
0.0
 11
140.3657
 21
71.7394
 31
0.0
  0
LINE
  5
410
330
1E
100
AcDbEntity
  8
0
100
AcDbLine
 10
143.37368
 20
72.12340000000001
 30
0.0
 11
142.41368
 21
71.7394
 31
0.0
  0
LINE
  5
411
330
1E
100
AcDbEntity
  8
0
100
AcDbLine
 10
144.2216799999999
 20
72.76340000000001
 30
0.0
 11
143.37368
 21
72.12340000000001
 31
0.0
  0
LINE
  5
412
330
1E
100
AcDbEntity
  8
0
100
AcDbLine
 10
144.86168
 20
73.6114
 30
0.0
 11
144.2216799999999
 21
72.76340000000001
 31
0.0
  0
LINE
  5
413
330
1E
100
AcDbEntity
  8
0
100
AcDbLine
 10
145.24568
 20
74.57139999999999
 30
0.0
 11
144.86168
 21
73.6114
 31
0.0
  0
LINE
  5
414
330
1E
100
AcDbEntity
  8
0
100
AcDbLine
 10
142.41368
 20
71.7394
 30
0.0
 11
141.38968
 21
71.59539999999999
 31
0.0
  0
LINE
  5
415
330
1E
100
AcDbEntity
  8
0
100
AcDbLine
 10
138.2841665314401
 20
73.12583184584179
 30
0.0
 11
137.7439999999999
 21
67.18399999999999
 31
0.0
  0
LINE
  5
416
330
1E
100
AcDbEntity
  8
0
100
AcDbLine
 10
136.4999999999999
 20
75.5
 30
0.0
 11
135.8578999999999
 21
67.53789999999999
 31
0.0
  0
LINE
  5
417
330
1E
100
AcDbEntity
  8
0
100
AcDbLine
 10
139.4056999999999
 20
72.12340000000001
 30
0.0
 11
138.5577
 21
72.76340000000001
 31
0.0
  0
LINE
  5
418
330
1E
100
AcDbEntity
  8
0
100
AcDbLine
 10
140.3657
 20
71.7394
 30
0.0
 11
139.4056999999999
 21
72.12340000000001
 31
0.0
  0
LINE
  5
419
330
1E
100
AcDbEntity
  8
0
100
AcDbLine
 10
138.5577
 20
72.76340000000001
 30
0.0
 11
137.9177
 21
73.6114
 31
0.0
  0
LINE
  5
41A
330
1E
100
AcDbEntity
  8
0
100
AcDbLine
 10
137.9177
 20
73.6114
 30
0.0
 11
137.5337
 21
74.57139999999999
 31
0.0
  0
LINE
  5
41B
330
1E
100
AcDbEntity
  8
0
100
AcDbLine
 10
136.4999999999999
 20
75.5
 30
0.0
 11
136.0928
 21
70.3561
 31
0.0
  0
LINE
  5
41C
330
1E
100
AcDbEntity
  8
0
100
AcDbLine
 10
133.8789999999999
 20
67.7989
 30
0.0
 11
132.3883999999999
 21
60.2842
 31
0.0
  0
LINE
  5
41D
330
1E
100
AcDbEntity
  8
0
100
AcDbLine
 10
132.3883999999999
 20
60.2842
 30
0.0
 11
129.9042
 21
52.95580000000001
 31
0.0
  0
LINE
  5
41E
330
1E
100
AcDbEntity
  8
0
100
AcDbLine
 10
134.3168
 20
59.7684
 30
0.0
 11
131.7484
 21
52.1916
 31
0.0
  0
LINE
  5
41F
330
1E
100
AcDbEntity
  8
0
100
AcDbLine
 10
118.3554690582959
 20
29.77617997010463
 30
0.0
 11
113.8039999999999
 21
25.604
 31
0.0
  0
LINE
  5
420
330
1E
100
AcDbEntity
  8
0
100
AcDbLine
 10
111.3968
 20
28.7968
 30
0.0
 11
104.8758
 21
24.3874
 31
0.0
  0
LINE
  5
421
330
1E
100
AcDbEntity
  8
0
100
AcDbLine
 10
118.5852999999999
 20
32.4147
 30
0.0
 11
112.6136999999999
 21
27.2137
 31
0.0
  0
LINE
  5
422
330
1E
100
AcDbEntity
  8
0
100
AcDbLine
 10
118.3933
 20
27.9972
 30
0.0
 11
118.2493
 21
29.0212
 31
0.0
  0
LINE
  5
423
330
1E
100
AcDbEntity
  8
0
100
AcDbLine
 10
105.8715999999999
 20
22.6547
 30
0.0
 11
98.8084
 21
19.25159999999999
 31
0.0
  0
LINE
  5
424
330
1E
100
AcDbEntity
  8
0
100
AcDbLine
 10
104.8758
 20
24.3874
 30
0.0
 11
98.0442
 21
21.0958
 31
0.0
  0
LINE
  5
425
330
1E
100
AcDbEntity
  8
0
100
AcDbLine
 10
99.44
 20
17.54
 30
0.0
 11
91.628
 21
14.76799999999999
 31
0.0
  0
LINE
  5
426
330
1E
100
AcDbEntity
  8
0
100
AcDbLine
 10
99.35
 20
8.0
 30
0.0
 11
98.32599999999999
 21
7.855999999999999
 31
0.0
  0
LINE
  5
427
330
1E
100
AcDbEntity
  8
0
100
AcDbLine
 10
99.35
 20
-0.0000000000000021
 30
0.0
 11
98.32599999999999
 21
0.143999999999998
 31
0.0
  0
LINE
  5
428
330
1E
100
AcDbEntity
  8
0
100
AcDbLine
 10
99.35
 20
-0.0000000000000021
 30
0.0
 11
98.32599999999999
 21
0.143999999999998
 31
0.0
  0
LINE
  5
429
330
1E
100
AcDbEntity
  8
0
100
AcDbLine
 10
103.3499999999999
 20
4.0
 30
0.0
 11
103.2059999999999
 21
5.024
 31
0.0
  0
LINE
  5
42A
330
1E
100
AcDbEntity
  8
0
100
AcDbLine
 10
102.1819999999999
 20
1.167999999999999
 30
0.0
 11
101.334
 21
0.527999999999998
 31
0.0
  0
LINE
  5
42B
330
1E
100
AcDbEntity
  8
0
100
AcDbLine
 10
102.822
 20
2.016
 30
0.0
 11
102.1819999999999
 21
1.167999999999999
 31
0.0
  0
LINE
  5
42C
330
1E
100
AcDbEntity
  8
0
100
AcDbLine
 10
102.2250769230768
 20
1.225076923076939
 30
0.0
 11
102.1819999999999
 21
1.167999999999999
 31
0.0
  0
LINE
  5
42D
330
1E
100
AcDbEntity
  8
0
100
AcDbLine
 10
103.3499999999999
 20
4.0
 30
0.0
 11
103.2059999999999
 21
2.976
 31
0.0
  0
LINE
  5
42E
330
1E
100
AcDbEntity
  8
0
100
AcDbLine
 10
103.2059999999999
 20
2.976
 30
0.0
 11
102.822
 21
2.016
 31
0.0
  0
LINE
  5
42F
330
1E
100
AcDbEntity
  8
0
100
AcDbLine
 10
101.334
 20
0.527999999999998
 30
0.0
 11
100.374
 21
0.143999999999998
 31
0.0
  0
LINE
  5
430
330
1E
100
AcDbEntity
  8
0
100
AcDbLine
 10
101.334
 20
0.527999999999998
 30
0.0
 11
100.374
 21
0.143999999999998
 31
0.0
  0
LINE
  5
431
330
1E
100
AcDbEntity
  8
0
100
AcDbLine
 10
100.374
 20
0.143999999999998
 30
0.0
 11
99.35
 21
-0.0000000000000021
 31
0.0
  0
LINE
  5
432
330
1E
100
AcDbEntity
  8
0
100
AcDbLine
 10
100.374
 20
0.143999999999998
 30
0.0
 11
99.35
 21
-0.0000000000000021
 31
0.0
  0
LINE
  5
433
330
1E
100
AcDbEntity
  8
0
100
AcDbLine
 10
112.5060631333333
 20
24.7232571261905
 30
0.0
 11
104.3334886381586
 21
6.133488638158638
 31
0.0
  0
LINE
  5
434
330
1E
100
AcDbEntity
  8
0
100
AcDbLine
 10
112.6136999999999
 20
27.2137
 30
0.0
 11
105.8715999999999
 21
22.6547
 31
0.0
  0
LINE
  5
435
330
1E
100
AcDbEntity
  8
0
100
AcDbLine
 10
113.8039999999999
 20
25.604
 30
0.0
 11
106.7479999999999
 21
20.81599999999999
 31
0.0
  0
LINE
  5
436
330
1E
100
AcDbEntity
  8
0
100
AcDbLine
 10
122.0173
 20
19.4273
 30
0.0
 11
121.5630142857142
 21
20.56301428571429
 31
0.0
  0
LINE
  5
437
330
1E
100
AcDbEntity
  8
0
100
AcDbLine
 10
120.2652999999999
 20
25.5492
 30
0.0
 11
119.4172999999999
 21
26.1892
 31
0.0
  0
LINE
  5
438
330
1E
100
AcDbEntity
  8
0
100
AcDbLine
 10
121.2253
 20
25.16519999999999
 30
0.0
 11
120.2652999999999
 21
25.5492
 31
0.0
  0
LINE
  5
439
330
1E
100
AcDbEntity
  8
0
100
AcDbLine
 10
122.2493
 20
25.0212
 30
0.0
 11
121.2253
 21
25.16519999999999
 31
0.0
  0
LINE
  5
43A
330
1E
100
AcDbEntity
  8
0
100
AcDbLine
 10
118.7772999999999
 20
27.0372
 30
0.0
 11
118.3933
 21
27.9972
 31
0.0
  0
LINE
  5
43B
330
1E
100
AcDbEntity
  8
0
100
AcDbLine
 10
119.4172999999999
 20
26.1892
 30
0.0
 11
118.7772999999999
 21
27.0372
 31
0.0
  0
LINE
  5
43C
330
1E
100
AcDbEntity
  8
0
100
AcDbLine
 10
109.5576520817407
 20
22.72254962689553
 30
0.0
 11
102.5720627688577
 21
6.315166831263542
 31
0.0
  0
LINE
  5
43D
330
1E
100
AcDbEntity
  8
0
100
AcDbLine
 10
102.1819999999999
 20
6.832
 30
0.0
 11
101.334
 21
7.472
 31
0.0
  0
LINE
  5
43E
330
1E
100
AcDbEntity
  8
0
100
AcDbLine
 10
103.2059999999999
 20
5.024
 30
0.0
 11
102.822
 21
5.983999999999999
 31
0.0
  0
LINE
  5
43F
330
1E
100
AcDbEntity
  8
0
100
AcDbLine
 10
102.822
 20
5.983999999999999
 30
0.0
 11
102.1819999999999
 21
6.832
 31
0.0
  0
LINE
  5
440
330
1E
100
AcDbEntity
  8
0
100
AcDbLine
 10
101.334
 20
7.472
 30
0.0
 11
100.374
 21
7.855999999999999
 31
0.0
  0
LINE
  5
441
330
1E
100
AcDbEntity
  8
0
100
AcDbLine
 10
100.374
 20
7.855999999999999
 30
0.0
 11
99.35
 21
8.0
 31
0.0
  0
LINE
  5
442
330
1E
100
AcDbEntity
  8
0
100
AcDbLine
 10
106.7479999999999
 20
20.81599999999999
 30
0.0
 11
99.44
 21
17.54
 31
0.0
  0
LINE
  5
443
330
1E
100
AcDbEntity
  8
0
100
AcDbLine
 10
95.494
 20
5.024
 30
0.0
 11
95.35
 21
4.0
 31
0.0
  0
LINE
  5
444
330
1E
100
AcDbEntity
  8
0
100
AcDbLine
 10
96.51800000000001
 20
1.167999999999999
 30
0.0
 11
95.87799999999999
 21
2.016
 31
0.0
  0
LINE
  5
445
330
1E
100
AcDbEntity
  8
0
100
AcDbLine
 10
98.32599999999999
 20
0.143999999999998
 30
0.0
 11
97.36600000000002
 21
0.527999999999998
 31
0.0
  0
LINE
  5
446
330
1E
100
AcDbEntity
  8
0
100
AcDbLine
 10
98.32599999999999
 20
0.143999999999998
 30
0.0
 11
97.36600000000002
 21
0.527999999999998
 31
0.0
  0
LINE
  5
447
330
1E
100
AcDbEntity
  8
0
100
AcDbLine
 10
97.36600000000002
 20
0.527999999999998
 30
0.0
 11
96.51800000000001
 21
1.167999999999999
 31
0.0
  0
LINE
  5
448
330
1E
100
AcDbEntity
  8
0
100
AcDbLine
 10
95.494
 20
2.976
 30
0.0
 11
95.35
 21
4.0
 31
0.0
  0
LINE
  5
449
330
1E
100
AcDbEntity
  8
0
100
AcDbLine
 10
95.87799999999999
 20
2.016
 30
0.0
 11
95.494
 21
2.976
 31
0.0
  0
LINE
  5
44A
330
1E
100
AcDbEntity
  8
0
100
AcDbLine
 10
90.7158
 20
18.61159999999999
 30
0.0
 11
83.20109999999999
 21
17.12099999999999
 31
0.0
  0
LINE
  5
44B
330
1E
100
AcDbEntity
  8
0
100
AcDbLine
 10
91.2316
 20
16.6832
 30
0.0
 11
83.46210000000001
 21
15.1421
 31
0.0
  0
LINE
  5
44C
330
1E
100
AcDbEntity
  8
0
100
AcDbLine
 10
91.628
 20
14.76799999999999
 30
0.0
 11
83.816
 21
13.25599999999999
 31
0.0
  0
LINE
  5
44D
330
1E
100
AcDbEntity
  8
0
100
AcDbLine
 10
98.74114383806485
 20
7.91437960222787
 30
0.0
 11
97.2651604068846
 21
16.76828272502356
 31
0.0
  0
LINE
  5
44E
330
1E
100
AcDbEntity
  8
0
100
AcDbLine
 10
98.74114383806485
 20
7.91437960222787
 30
0.0
 11
97.2651604068846
 21
16.76828272502356
 31
0.0
  0
LINE
  5
44F
330
1E
100
AcDbEntity
  8
0
100
AcDbLine
 10
96.84137987098957
 20
7.076060279992127
 30
0.0
 11
95.20098279441404
 21
16.0358326044695
 31
0.0
  0
LINE
  5
450
330
1E
100
AcDbEntity
  8
0
100
AcDbLine
 10
96.84137987098957
 20
7.076060279992127
 30
0.0
 11
95.20098279441404
 21
16.0358326044695
 31
0.0
  0
LINE
  5
451
330
1E
100
AcDbEntity
  8
0
100
AcDbLine
 10
96.51800000000001
 20
6.832
 30
0.0
 11
95.87799999999999
 21
5.983999999999999
 31
0.0
  0
LINE
  5
452
330
1E
100
AcDbEntity
  8
0
100
AcDbLine
 10
98.32599999999999
 20
7.855999999999999
 30
0.0
 11
97.36600000000002
 21
7.472
 31
0.0
  0
LINE
  5
453
330
1E
100
AcDbEntity
  8
0
100
AcDbLine
 10
97.36600000000002
 20
7.472
 30
0.0
 11
96.51800000000001
 21
6.832
 31
0.0
  0
LINE
  5
454
330
1E
100
AcDbEntity
  8
0
100
AcDbLine
 10
95.87799999999999
 20
5.983999999999999
 30
0.0
 11
95.494
 21
5.024
 31
0.0
  0
LINE
  5
455
330
1E
100
AcDbEntity
  8
0
100
AcDbLine
 10
98.0442
 20
21.0958
 30
0.0
 11
90.7158
 21
18.61159999999999
 31
0.0
  0
LINE
  5
456
330
1E
100
AcDbEntity
  8
0
100
AcDbLine
 10
98.8084
 20
19.25159999999999
 30
0.0
 11
91.2316
 21
16.6832
 31
0.0
  0
LINE
  5
457
330
1E
100
AcDbEntity
  8
0
100
AcDbLine
 10
117.1726
 20
33.8274
 30
0.0
 11
111.3968
 21
28.7968
 31
0.0
  0
LINE
  5
458
330
1E
100
AcDbEntity
  8
0
100
AcDbLine
 10
122.2032
 20
39.6032
 30
0.0
 11
117.1726
 21
33.8274
 31
0.0
  0
LINE
  5
459
330
1E
100
AcDbEntity
  8
0
100
AcDbLine
 10
120.2652999999999
 20
32.4932
 30
0.0
 11
119.4172999999999
 21
31.8532
 31
0.0
  0
LINE
  5
45A
330
1E
100
AcDbEntity
  8
0
100
AcDbLine
 10
121.2253
 20
32.8772
 30
0.0
 11
120.2652999999999
 21
32.4932
 31
0.0
  0
LINE
  5
45B
330
1E
100
AcDbEntity
  8
0
100
AcDbLine
 10
122.2493
 20
33.0212
 30
0.0
 11
121.2253
 21
32.8772
 31
0.0
  0
LINE
  5
45C
330
1E
100
AcDbEntity
  8
0
100
AcDbLine
 10
119.4172999999999
 20
31.8532
 30
0.0
 11
118.7772999999999
 21
31.00519999999999
 31
0.0
  0
LINE
  5
45D
330
1E
100
AcDbEntity
  8
0
100
AcDbLine
 10
118.3933
 20
30.0452
 30
0.0
 11
118.2493
 21
29.0212
 31
0.0
  0
LINE
  5
45E
330
1E
100
AcDbEntity
  8
0
100
AcDbLine
 10
118.7772999999999
 20
31.00519999999999
 30
0.0
 11
118.3933
 21
30.0452
 31
0.0
  0
LINE
  5
45F
330
1E
100
AcDbEntity
  8
0
100
AcDbLine
 10
145.9917808219178
 20
103.2082191780821
 30
0.0
 11
104.3337390241517
 21
144.8662609758482
 31
0.0
  0
LINE
  5
460
330
1E
100
AcDbEntity
  8
0
100
AcDbLine
 10
125.3959999999999
 20
113.8039999999999
 30
0.0
 11
121.2253
 21
118.123
 31
0.0
  0
LINE
  5
461
330
1E
100
AcDbEntity
  8
0
100
AcDbLine
 10
123.1373
 20
133.057
 30
0.0
 11
122.0173
 21
131.5729999999999
 31
0.0
  0
LINE
  5
462
330
1E
100
AcDbEntity
  8
0
100
AcDbLine
 10
123.2733
 20
125.8349999999999
 30
0.0
 11
122.2493
 21
125.9789999999999
 31
0.0
  0
LINE
  5
463
330
1E
100
AcDbEntity
  8
0
100
AcDbLine
 10
123.7862999999999
 20
112.6139999999999
 30
0.0
 11
118.5852999999999
 21
118.585
 31
0.0
  0
LINE
  5
464
330
1E
100
AcDbEntity
  8
0
100
AcDbLine
 10
123.2733
 20
118.123
 30
0.0
 11
122.2493
 21
117.979
 31
0.0
  0
LINE
  5
465
330
1E
100
AcDbEntity
  8
0
100
AcDbLine
 10
126.6126
 20
104.876
 30
0.0
 11
122.2032
 21
111.397
 31
0.0
  0
LINE
  5
466
330
1E
100
AcDbEntity
  8
0
100
AcDbLine
 10
126.6126
 20
104.876
 30
0.0
 11
122.2032
 21
111.397
 31
0.0
  0
LINE
  5
467
330
1E
100
AcDbEntity
  8
0
100
AcDbLine
 10
149.7749230769231
 20
102.225076923077
 30
0.0
 11
102.225076923077
 21
149.774923076923
 31
0.0
  0
LINE
  5
468
330
1E
100
AcDbEntity
  8
0
100
AcDbLine
 10
133.0492999999999
 20
123.1449999999999
 30
0.0
 11
131.5653
 21
122.025
 31
0.0
  0
LINE
  5
469
330
1E
100
AcDbEntity
  8
0
100
AcDbLine
 10
126.2493
 20
121.9789999999999
 30
0.0
 11
126.1052999999999
 21
123.0029999999999
 31
0.0
  0
LINE
  5
46A
330
1E
100
AcDbEntity
  8
0
100
AcDbLine
 10
148.9915879142819
 20
76.5
 30
0.0
 11
145.2624706249999
 21
76.5
 31
0.0
  0
LINE
  5
46B
330
1E
100
AcDbEntity
  8
0
100
AcDbLine
 10
148.9915879142819
 20
76.5
 30
0.0
 11
145.2624706249999
 21
76.5
 31
0.0
  0
LINE
  5
46C
330
1E
100
AcDbEntity
  8
0
100
AcDbLine
 10
147.0
 20
103.3499999999999
 30
0.0
 11
145.9759999999999
 21
103.2059999999999
 31
0.0
  0
LINE
  5
46D
330
1E
100
AcDbEntity
  8
0
100
AcDbLine
 10
147.0
 20
95.35
 30
0.0
 11
145.9759999999999
 21
95.494
 31
0.0
  0
LINE
  5
46E
330
1E
100
AcDbEntity
  8
0
100
AcDbLine
 10
151.0
 20
99.35
 30
0.0
 11
150.8559999999999
 21
98.32600000000001
 31
0.0
  0
LINE
  5
46F
330
1E
100
AcDbEntity
  8
0
100
AcDbLine
 10
149.8319999999999
 20
96.51799999999999
 30
0.0
 11
148.984
 21
95.87799999999999
 31
0.0
  0
LINE
  5
470
330
1E
100
AcDbEntity
  8
0
100
AcDbLine
 10
150.8559999999999
 20
98.32600000000001
 30
0.0
 11
150.472
 21
97.36600000000001
 31
0.0
  0
LINE
  5
471
330
1E
100
AcDbEntity
  8
0
100
AcDbLine
 10
150.472
 20
97.36600000000001
 30
0.0
 11
149.8319999999999
 21
96.51799999999999
 31
0.0
  0
LINE
  5
472
330
1E
100
AcDbEntity
  8
0
100
AcDbLine
 10
150.472
 20
97.36600000000001
 30
0.0
 11
149.8319999999999
 21
96.51799999999999
 31
0.0
  0
LINE
  5
473
330
1E
100
AcDbEntity
  8
0
100
AcDbLine
 10
148.024
 20
95.494
 30
0.0
 11
147.0
 21
95.35
 31
0.0
  0
LINE
  5
474
330
1E
100
AcDbEntity
  8
0
100
AcDbLine
 10
148.984
 20
95.87799999999999
 30
0.0
 11
148.024
 21
95.494
 31
0.0
  0
LINE
  5
475
330
1E
100
AcDbEntity
  8
0
100
AcDbLine
 10
149.8319999999999
 20
102.1819999999999
 30
0.0
 11
148.984
 21
102.822
 31
0.0
  0
LINE
  5
476
330
1E
100
AcDbEntity
  8
0
100
AcDbLine
 10
150.472
 20
101.334
 30
0.0
 11
149.8319999999999
 21
102.1819999999999
 31
0.0
  0
LINE
  5
477
330
1E
100
AcDbEntity
  8
0
100
AcDbLine
 10
150.472
 20
101.334
 30
0.0
 11
149.8319999999999
 21
102.1819999999999
 31
0.0
  0
LINE
  5
478
330
1E
100
AcDbEntity
  8
0
100
AcDbLine
 10
150.8559999999999
 20
100.374
 30
0.0
 11
150.472
 21
101.334
 31
0.0
  0
LINE
  5
479
330
1E
100
AcDbEntity
  8
0
100
AcDbLine
 10
151.0
 20
99.35
 30
0.0
 11
150.8559999999999
 21
100.374
 31
0.0
  0
LINE
  5
47A
330
1E
100
AcDbEntity
  8
0
100
AcDbLine
 10
149.8319999999999
 20
102.1819999999999
 30
0.0
 11
149.7749230769231
 21
102.225076923077
 31
0.0
  0
LINE
  5
47B
330
1E
100
AcDbEntity
  8
0
100
AcDbLine
 10
148.024
 20
103.2059999999999
 30
0.0
 11
147.0
 21
103.3499999999999
 31
0.0
  0
LINE
  5
47C
330
1E
100
AcDbEntity
  8
0
100
AcDbLine
 10
148.984
 20
102.822
 30
0.0
 11
148.024
 21
103.2059999999999
 31
0.0
  0
LINE
  5
47D
330
1E
100
AcDbEntity
  8
0
100
AcDbLine
 10
131.7484
 20
98.8084
 30
0.0
 11
128.3453
 21
105.872
 31
0.0
  0
LINE
  5
47E
330
1E
100
AcDbEntity
  8
0
100
AcDbLine
 10
129.9042
 20
98.0442
 30
0.0
 11
126.6126
 21
104.876
 31
0.0
  0
LINE
  5
47F
330
1E
100
AcDbEntity
  8
0
100
AcDbLine
 10
136.2319999999999
 20
91.62799999999998
 30
0.0
 11
133.46
 21
99.44
 31
0.0
  0
LINE
  5
480
330
1E
100
AcDbEntity
  8
0
100
AcDbLine
 10
143.144
 20
98.32600000000001
 30
0.0
 11
143.0
 21
99.35
 31
0.0
  0
LINE
  5
481
330
1E
100
AcDbEntity
  8
0
100
AcDbLine
 10
143.0856203977721
 20
98.74114383806485
 30
0.0
 11
134.2317172749764
 21
97.2651604068846
 31
0.0
  0
LINE
  5
482
330
1E
100
AcDbEntity
  8
0
100
AcDbLine
 10
135.8578999999999
 20
83.46210000000001
 30
0.0
 11
134.3168
 21
91.2316
 31
0.0
  0
LINE
  5
483
330
1E
100
AcDbEntity
  8
0
100
AcDbLine
 10
137.7439999999999
 20
83.816
 30
0.0
 11
136.2319999999999
 21
91.62799999999998
 31
0.0
  0
LINE
  5
484
330
1E
100
AcDbEntity
  8
0
100
AcDbLine
 10
141.38968
 20
79.5954
 30
0.0
 11
140.3657
 21
79.45140000000001
 31
0.0
  0
LINE
  5
485
330
1E
100
AcDbEntity
  8
0
100
AcDbLine
 10
143.37368
 20
79.0674
 30
0.0
 11
142.41368
 21
79.45140000000001
 31
0.0
  0
LINE
  5
486
330
1E
100
AcDbEntity
  8
0
100
AcDbLine
 10
144.2216799999999
 20
78.4274
 30
0.0
 11
143.37368
 21
79.0674
 31
0.0
  0
LINE
  5
487
330
1E
100
AcDbEntity
  8
0
100
AcDbLine
 10
144.86168
 20
77.57940000000001
 30
0.0
 11
144.2216799999999
 21
78.4274
 31
0.0
  0
LINE
  5
488
330
1E
100
AcDbEntity
  8
0
100
AcDbLine
 10
145.38968
 20
75.5954
 30
0.0
 11
145.24568
 21
76.6194
 31
0.0
  0
LINE
  5
489
330
1E
100
AcDbEntity
  8
0
100
AcDbLine
 10
145.24568
 20
76.6194
 30
0.0
 11
144.86168
 21
77.57940000000001
 31
0.0
  0
LINE
  5
48A
330
1E
100
AcDbEntity
  8
0
100
AcDbLine
 10
142.41368
 20
79.45140000000001
 30
0.0
 11
141.38968
 21
79.5954
 31
0.0
  0
LINE
  5
48B
330
1E
100
AcDbEntity
  8
0
100
AcDbLine
 10
138.268685801217
 20
78.04445618661258
 30
0.0
 11
137.7439999999999
 21
83.816
 31
0.0
  0
LINE
  5
48C
330
1E
100
AcDbEntity
  8
0
100
AcDbLine
 10
137.5337
 20
76.6194
 30
0.0
 11
137.3897
 21
75.5954
 31
0.0
  0
LINE
  5
48D
330
1E
100
AcDbEntity
  8
0
100
AcDbLine
 10
139.4056999999999
 20
79.0674
 30
0.0
 11
138.5577
 21
78.4274
 31
0.0
  0
LINE
  5
48E
330
1E
100
AcDbEntity
  8
0
100
AcDbLine
 10
138.5577
 20
78.4274
 30
0.0
 11
137.9177
 21
77.57940000000001
 31
0.0
  0
LINE
  5
48F
330
1E
100
AcDbEntity
  8
0
100
AcDbLine
 10
137.9177
 20
77.57940000000001
 30
0.0
 11
137.5337
 21
76.6194
 31
0.0
  0
LINE
  5
490
330
1E
100
AcDbEntity
  8
0
100
AcDbLine
 10
140.3657
 20
79.45140000000001
 30
0.0
 11
139.4056999999999
 21
79.0674
 31
0.0
  0
LINE
  5
491
330
1E
100
AcDbEntity
  8
0
100
AcDbLine
 10
143.9239397200078
 20
96.84137987098957
 30
0.0
 11
134.9641673955304
 21
95.20098279441404
 31
0.0
  0
LINE
  5
492
330
1E
100
AcDbEntity
  8
0
100
AcDbLine
 10
143.5279999999999
 20
97.36600000000001
 30
0.0
 11
143.144
 21
98.32600000000001
 31
0.0
  0
LINE
  5
493
330
1E
100
AcDbEntity
  8
0
100
AcDbLine
 10
145.0159999999999
 20
95.87799999999999
 30
0.0
 11
144.168
 21
96.51799999999999
 31
0.0
  0
LINE
  5
494
330
1E
100
AcDbEntity
  8
0
100
AcDbLine
 10
145.9759999999999
 20
95.494
 30
0.0
 11
145.0159999999999
 21
95.87799999999999
 31
0.0
  0
LINE
  5
495
330
1E
100
AcDbEntity
  8
0
100
AcDbLine
 10
144.168
 20
96.51799999999999
 30
0.0
 11
143.5279999999999
 21
97.36600000000001
 31
0.0
  0
LINE
  5
496
330
1E
100
AcDbEntity
  8
0
100
AcDbLine
 10
133.8789999999999
 20
83.20109999999999
 30
0.0
 11
132.3883999999999
 21
90.7158
 31
0.0
  0
LINE
  5
497
330
1E
100
AcDbEntity
  8
0
100
AcDbLine
 10
132.3883999999999
 20
90.7158
 30
0.0
 11
129.9042
 21
98.0442
 31
0.0
  0
LINE
  5
498
330
1E
100
AcDbEntity
  8
0
100
AcDbLine
 10
134.3168
 20
91.2316
 30
0.0
 11
131.7484
 21
98.8084
 31
0.0
  0
LINE
  5
499
330
1E
100
AcDbEntity
  8
0
100
AcDbLine
 10
144.8672011373209
 20
104.332798862679
 30
0.0
 11
126.2770408965032
 21
112.5056239419951
 31
0.0
  0
LINE
  5
49A
330
1E
100
AcDbEntity
  8
0
100
AcDbLine
 10
144.685146511225
 20
102.5722992537547
 30
0.0
 11
128.2773198211856
 21
109.5578444740421
 31
0.0
  0
LINE
  5
49B
330
1E
100
AcDbEntity
  8
0
100
AcDbLine
 10
143.5279999999999
 20
101.334
 30
0.0
 11
143.144
 21
100.374
 31
0.0
  0
LINE
  5
49C
330
1E
100
AcDbEntity
  8
0
100
AcDbLine
 10
144.168
 20
102.1819999999999
 30
0.0
 11
143.5279999999999
 21
101.334
 31
0.0
  0
LINE
  5
49D
330
1E
100
AcDbEntity
  8
0
100
AcDbLine
 10
145.0159999999999
 20
102.822
 30
0.0
 11
144.168
 21
102.1819999999999
 31
0.0
  0
LINE
  5
49E
330
1E
100
AcDbEntity
  8
0
100
AcDbLine
 10
145.9759999999999
 20
103.2059999999999
 30
0.0
 11
145.0159999999999
 21
102.822
 31
0.0
  0
LINE
  5
49F
330
1E
100
AcDbEntity
  8
0
100
AcDbLine
 10
143.144
 20
100.374
 30
0.0
 11
143.0
 21
99.35
 31
0.0
  0
LINE
  5
4A0
330
1E
100
AcDbEntity
  8
0
100
AcDbLine
 10
128.3453
 20
105.872
 30
0.0
 11
123.7862999999999
 21
112.6139999999999
 31
0.0
  0
LINE
  5
4A1
330
1E
100
AcDbEntity
  8
0
100
AcDbLine
 10
130.184
 20
106.7479999999999
 30
0.0
 11
125.3959999999999
 21
113.8039999999999
 31
0.0
  0
LINE
  5
4A2
330
1E
100
AcDbEntity
  8
0
100
AcDbLine
 10
133.46
 20
99.44
 30
0.0
 11
130.184
 21
106.7479999999999
 31
0.0
  0
LINE
  5
4A3
330
1E
100
AcDbEntity
  8
0
100
AcDbLine
 10
131.5653
 20
122.025
 30
0.0
 11
130.4293714285713
 21
121.5706285714289
 31
0.0
  0
LINE
  5
4A4
330
1E
100
AcDbEntity
  8
0
100
AcDbLine
 10
131.5653
 20
122.025
 30
0.0
 11
131.1005384946003
 21
121.8390953978399
 31
0.0
  0
LINE
  5
4A5
330
1E
100
AcDbEntity
  8
0
100
AcDbLine
 10
125.7212999999999
 20
119.995
 30
0.0
 11
125.0812999999999
 21
119.147
 31
0.0
  0
LINE
  5
4A6
330
1E
100
AcDbEntity
  8
0
100
AcDbLine
 10
126.2493
 20
121.9789999999999
 30
0.0
 11
126.1052999999999
 21
120.9549999999999
 31
0.0
  0
LINE
  5
4A7
330
1E
100
AcDbEntity
  8
0
100
AcDbLine
 10
126.1052999999999
 20
120.9549999999999
 30
0.0
 11
125.7212999999999
 21
119.995
 31
0.0
  0
LINE
  5
4A8
330
1E
100
AcDbEntity
  8
0
100
AcDbLine
 10
124.2333
 20
118.507
 30
0.0
 11
123.2733
 21
118.123
 31
0.0
  0
LINE
  5
4A9
330
1E
100
AcDbEntity
  8
0
100
AcDbLine
 10
125.0812999999999
 20
119.147
 30
0.0
 11
124.2333
 21
118.507
 31
0.0
  0
LINE
  5
4AA
330
1E
100
AcDbEntity
  8
0
100
AcDbLine
 10
134.8412999999999
 20
129.893
 30
0.0
 11
134.1693
 21
131.5729999999999
 31
0.0
  0
LINE
  5
4AB
330
1E
100
AcDbEntity
  8
0
100
AcDbLine
 10
134.8412999999999
 20
126.309
 30
0.0
 11
134.1693
 21
124.6289999999999
 31
0.0
  0
LINE
  5
4AC
330
1E
100
AcDbEntity
  8
0
100
AcDbLine
 10
135.0932999999999
 20
128.1009999999999
 30
0.0
 11
134.8412999999999
 21
129.893
 31
0.0
  0
LINE
  5
4AD
330
1E
100
AcDbEntity
  8
0
100
AcDbLine
 10
135.0932999999999
 20
128.1009999999999
 30
0.0
 11
134.8412999999999
 21
126.309
 31
0.0
  0
LINE
  5
4AE
330
1E
100
AcDbEntity
  8
0
100
AcDbLine
 10
126.3012999999999
 20
134.8489999999999
 30
0.0
 11
124.6213
 21
134.177
 31
0.0
  0
LINE
  5
4AF
330
1E
100
AcDbEntity
  8
0
100
AcDbLine
 10
131.5653
 20
134.177
 30
0.0
 11
129.8853
 21
134.8489999999999
 31
0.0
  0
LINE
  5
4B0
330
1E
100
AcDbEntity
  8
0
100
AcDbLine
 10
129.288
 20
132.599
 30
0.0
 11
128.0933
 21
132.7669999999999
 31
0.0
  0
LINE
  5
4B1
330
1E
100
AcDbEntity
  8
0
100
AcDbLine
 10
129.288
 20
123.602
 30
0.0
 11
128.5077233433623
 21
123.492276656638
 31
0.0
  0
LINE
  5
4B2
330
1E
100
AcDbEntity
  8
0
100
AcDbLine
 10
132.7599999999999
 20
128.1009999999999
 30
0.0
 11
132.5919999999999
 21
129.2949999999999
 31
0.0
  0
LINE
  5
4B3
330
1E
100
AcDbEntity
  8
0
100
AcDbLine
 10
132.144
 20
125.7859999999999
 30
0.0
 11
131.3973
 21
124.797
 31
0.0
  0
LINE
  5
4B4
330
1E
100
AcDbEntity
  8
0
100
AcDbLine
 10
134.1693
 20
124.6289999999999
 30
0.0
 11
133.0492999999999
 21
123.1449999999999
 31
0.0
  0
LINE
  5
4B5
330
1E
100
AcDbEntity
  8
0
100
AcDbLine
 10
132.7599999999999
 20
128.1009999999999
 30
0.0
 11
132.5919999999999
 21
126.906
 31
0.0
  0
LINE
  5
4B6
330
1E
100
AcDbEntity
  8
0
100
AcDbLine
 10
132.5919999999999
 20
126.906
 30
0.0
 11
132.144
 21
125.7859999999999
 31
0.0
  0
LINE
  5
4B7
330
1E
100
AcDbEntity
  8
0
100
AcDbLine
 10
130.408
 20
124.0499999999999
 30
0.0
 11
129.288
 21
123.602
 31
0.0
  0
LINE
  5
4B8
330
1E
100
AcDbEntity
  8
0
100
AcDbLine
 10
131.3973
 20
124.797
 30
0.0
 11
130.408
 21
124.0499999999999
 31
0.0
  0
LINE
  5
4B9
330
1E
100
AcDbEntity
  8
0
100
AcDbLine
 10
132.144
 20
130.4149999999999
 30
0.0
 11
131.3973
 21
131.4049999999999
 31
0.0
  0
LINE
  5
4BA
330
1E
100
AcDbEntity
  8
0
100
AcDbLine
 10
132.5919999999999
 20
129.2949999999999
 30
0.0
 11
132.144
 21
130.4149999999999
 31
0.0
  0
LINE
  5
4BB
330
1E
100
AcDbEntity
  8
0
100
AcDbLine
 10
133.0492999999999
 20
133.057
 30
0.0
 11
131.5653
 21
134.177
 31
0.0
  0
LINE
  5
4BC
330
1E
100
AcDbEntity
  8
0
100
AcDbLine
 10
134.1693
 20
131.5729999999999
 30
0.0
 11
133.0492999999999
 21
133.057
 31
0.0
  0
LINE
  5
4BD
330
1E
100
AcDbEntity
  8
0
100
AcDbLine
 10
131.3973
 20
131.4049999999999
 30
0.0
 11
130.408
 21
132.151
 31
0.0
  0
LINE
  5
4BE
330
1E
100
AcDbEntity
  8
0
100
AcDbLine
 10
130.408
 20
132.151
 30
0.0
 11
129.288
 21
132.599
 31
0.0
  0
LINE
  5
4BF
330
1E
100
AcDbEntity
  8
0
100
AcDbLine
 10
123.5945999999999
 20
129.2949999999999
 30
0.0
 11
123.4848696035242
 21
128.5151303964759
 31
0.0
  0
LINE
  5
4C0
330
1E
100
AcDbEntity
  8
0
100
AcDbLine
 10
125.7212999999999
 20
123.963
 30
0.0
 11
125.0812999999999
 21
124.811
 31
0.0
  0
LINE
  5
4C1
330
1E
100
AcDbEntity
  8
0
100
AcDbLine
 10
126.1052999999999
 20
123.0029999999999
 30
0.0
 11
125.7212999999999
 21
123.963
 31
0.0
  0
LINE
  5
4C2
330
1E
100
AcDbEntity
  8
0
100
AcDbLine
 10
124.2333
 20
125.451
 30
0.0
 11
123.2733
 21
125.8349999999999
 31
0.0
  0
LINE
  5
4C3
330
1E
100
AcDbEntity
  8
0
100
AcDbLine
 10
125.0812999999999
 20
124.811
 30
0.0
 11
124.2333
 21
125.451
 31
0.0
  0
LINE
  5
4C4
330
1E
100
AcDbEntity
  8
0
100
AcDbLine
 10
125.7786
 20
132.151
 30
0.0
 11
124.7892999999999
 21
131.4049999999999
 31
0.0
  0
LINE
  5
4C5
330
1E
100
AcDbEntity
  8
0
100
AcDbLine
 10
128.0933
 20
132.7669999999999
 30
0.0
 11
126.8985999999999
 21
132.599
 31
0.0
  0
LINE
  5
4C6
330
1E
100
AcDbEntity
  8
0
100
AcDbLine
 10
126.8985999999999
 20
132.599
 30
0.0
 11
125.7786
 21
132.151
 31
0.0
  0
LINE
  5
4C7
330
1E
100
AcDbEntity
  8
0
100
AcDbLine
 10
124.7892999999999
 20
131.4049999999999
 30
0.0
 11
124.0426
 21
130.4149999999999
 31
0.0
  0
LINE
  5
4C8
330
1E
100
AcDbEntity
  8
0
100
AcDbLine
 10
124.0426
 20
130.4149999999999
 30
0.0
 11
123.5945999999999
 21
129.2949999999999
 31
0.0
  0
LINE
  5
4C9
330
1E
100
AcDbEntity
  8
0
100
AcDbLine
 10
124.6213
 20
134.177
 30
0.0
 11
123.1373
 21
133.057
 31
0.0
  0
LINE
  5
4CA
330
1E
100
AcDbEntity
  8
0
100
AcDbLine
 10
129.8853
 20
134.8489999999999
 30
0.0
 11
128.0933
 21
135.101
 31
0.0
  0
LINE
  5
4CB
330
1E
100
AcDbEntity
  8
0
100
AcDbLine
 10
128.0933
 20
135.101
 30
0.0
 11
126.3012999999999
 21
134.8489999999999
 31
0.0
  0
LINE
  5
4CC
330
1E
100
AcDbEntity
  8
0
100
AcDbLine
 10
118.3555013452914
 20
121.2237904334828
 30
0.0
 11
113.8039999999999
 21
125.3959999999999
 31
0.0
  0
LINE
  5
4CD
330
1E
100
AcDbEntity
  8
0
100
AcDbLine
 10
111.3968
 20
122.2029999999999
 30
0.0
 11
104.8758
 21
126.6129999999999
 31
0.0
  0
LINE
  5
4CE
330
1E
100
AcDbEntity
  8
0
100
AcDbLine
 10
118.5852999999999
 20
118.585
 30
0.0
 11
112.6136999999999
 21
123.7859999999999
 31
0.0
  0
LINE
  5
4CF
330
1E
100
AcDbEntity
  8
0
100
AcDbLine
 10
111.3968
 20
122.2029999999999
 30
0.0
 11
104.8758
 21
126.6129999999999
 31
0.0
  0
LINE
  5
4D0
330
1E
100
AcDbEntity
  8
0
100
AcDbLine
 10
118.3933
 20
123.0029999999999
 30
0.0
 11
118.2493
 21
121.9789999999999
 31
0.0
  0
LINE
  5
4D1
330
1E
100
AcDbEntity
  8
0
100
AcDbLine
 10
117.1726
 20
117.1729999999999
 30
0.0
 11
111.3968
 21
122.2029999999999
 31
0.0
  0
LINE
  5
4D2
330
1E
100
AcDbEntity
  8
0
100
AcDbLine
 10
122.2032
 20
111.397
 30
0.0
 11
117.1726
 21
117.1729999999999
 31
0.0
  0
LINE
  5
4D3
330
1E
100
AcDbEntity
  8
0
100
AcDbLine
 10
122.2032
 20
111.397
 30
0.0
 11
117.1726
 21
117.1729999999999
 31
0.0
  0
LINE
  5
4D4
330
1E
100
AcDbEntity
  8
0
100
AcDbLine
 10
120.2652999999999
 20
118.507
 30
0.0
 11
119.4172999999999
 21
119.147
 31
0.0
  0
LINE
  5
4D5
330
1E
100
AcDbEntity
  8
0
100
AcDbLine
 10
121.2253
 20
118.123
 30
0.0
 11
120.2652999999999
 21
118.507
 31
0.0
  0
LINE
  5
4D6
330
1E
100
AcDbEntity
  8
0
100
AcDbLine
 10
122.2493
 20
117.979
 30
0.0
 11
121.2253
 21
118.123
 31
0.0
  0
LINE
  5
4D7
330
1E
100
AcDbEntity
  8
0
100
AcDbLine
 10
119.4172999999999
 20
119.147
 30
0.0
 11
118.7772999999999
 21
119.995
 31
0.0
  0
LINE
  5
4D8
330
1E
100
AcDbEntity
  8
0
100
AcDbLine
 10
118.3933
 20
120.9549999999999
 30
0.0
 11
118.2493
 21
121.9789999999999
 31
0.0
  0
LINE
  5
4D9
330
1E
100
AcDbEntity
  8
0
100
AcDbLine
 10
118.7772999999999
 20
119.995
 30
0.0
 11
118.3933
 21
120.9549999999999
 31
0.0
  0
LINE
  5
4DA
330
1E
100
AcDbEntity
  8
0
100
AcDbLine
 10
99.35
 20
151.0
 30
0.0
 11
98.32599999999999
 21
150.8559999999999
 31
0.0
  0
LINE
  5
4DB
330
1E
100
AcDbEntity
  8
0
100
AcDbLine
 10
99.35
 20
143.0
 30
0.0
 11
98.32599999999999
 21
143.144
 31
0.0
  0
LINE
  5
4DC
330
1E
100
AcDbEntity
  8
0
100
AcDbLine
 10
99.44
 20
133.46
 30
0.0
 11
91.628
 21
136.2319999999999
 31
0.0
  0
LINE
  5
4DD
330
1E
100
AcDbEntity
  8
0
100
AcDbLine
 10
105.8715999999999
 20
128.3449999999999
 30
0.0
 11
98.8084
 21
131.7479999999999
 31
0.0
  0
LINE
  5
4DE
330
1E
100
AcDbEntity
  8
0
100
AcDbLine
 10
104.8758
 20
126.6129999999999
 30
0.0
 11
98.0442
 21
129.9039999999999
 31
0.0
  0
LINE
  5
4DF
330
1E
100
AcDbEntity
  8
0
100
AcDbLine
 10
104.8758
 20
126.6129999999999
 30
0.0
 11
98.0442
 21
129.9039999999999
 31
0.0
  0
LINE
  5
4E0
330
1E
100
AcDbEntity
  8
0
100
AcDbLine
 10
112.505968546671
 20
126.2768070576161
 30
0.0
 11
103.3285000916322
 21
147.1528882372817
 31
0.0
  0
LINE
  5
4E1
330
1E
100
AcDbEntity
  8
0
100
AcDbLine
 10
103.3499999999999
 20
147.0
 30
0.0
 11
103.2059999999999
 21
145.9759999999999
 31
0.0
  0
LINE
  5
4E2
330
1E
100
AcDbEntity
  8
0
100
AcDbLine
 10
112.6136999999999
 20
123.7859999999999
 30
0.0
 11
105.8715999999999
 21
128.3449999999999
 31
0.0
  0
LINE
  5
4E3
330
1E
100
AcDbEntity
  8
0
100
AcDbLine
 10
113.8039999999999
 20
125.3959999999999
 30
0.0
 11
106.7479999999999
 21
130.184
 31
0.0
  0
LINE
  5
4E4
330
1E
100
AcDbEntity
  8
0
100
AcDbLine
 10
120.2652999999999
 20
125.451
 30
0.0
 11
119.4172999999999
 21
124.811
 31
0.0
  0
LINE
  5
4E5
330
1E
100
AcDbEntity
  8
0
100
AcDbLine
 10
121.2253
 20
125.8349999999999
 30
0.0
 11
120.2652999999999
 21
125.451
 31
0.0
  0
LINE
  5
4E6
330
1E
100
AcDbEntity
  8
0
100
AcDbLine
 10
122.2493
 20
125.9789999999999
 30
0.0
 11
121.2253
 21
125.8349999999999
 31
0.0
  0
LINE
  5
4E7
330
1E
100
AcDbEntity
  8
0
100
AcDbLine
 10
119.4172999999999
 20
124.811
 30
0.0
 11
118.7772999999999
 21
123.963
 31
0.0
  0
LINE
  5
4E8
330
1E
100
AcDbEntity
  8
0
100
AcDbLine
 10
118.7772999999999
 20
123.963
 30
0.0
 11
118.3933
 21
123.0029999999999
 31
0.0
  0
LINE
  5
4E9
330
1E
100
AcDbEntity
  8
0
100
AcDbLine
 10
122.0173
 20
131.5729999999999
 30
0.0
 11
121.5629285714286
 21
130.4370714285709
 31
0.0
  0
LINE
  5
4EA
330
1E
100
AcDbEntity
  8
0
100
AcDbLine
 10
109.5575110258941
 20
128.2775460895718
 30
0.0
 11
102.5719373120589
 21
144.6846669384781
 31
0.0
  0
LINE
  5
4EB
330
1E
100
AcDbEntity
  8
0
100
AcDbLine
 10
106.7479999999999
 20
130.184
 30
0.0
 11
99.44
 21
133.46
 31
0.0
  0
LINE
  5
4EC
330
1E
100
AcDbEntity
  8
0
100
AcDbLine
 10
102.1819999999999
 20
144.168
 30
0.0
 11
101.334
 21
143.5279999999999
 31
0.0
  0
LINE
  5
4ED
330
1E
100
AcDbEntity
  8
0
100
AcDbLine
 10
103.2059999999999
 20
145.9759999999999
 30
0.0
 11
102.822
 21
145.0159999999999
 31
0.0
  0
LINE
  5
4EE
330
1E
100
AcDbEntity
  8
0
100
AcDbLine
 10
102.822
 20
145.0159999999999
 30
0.0
 11
102.1819999999999
 21
144.168
 31
0.0
  0
LINE
  5
4EF
330
1E
100
AcDbEntity
  8
0
100
AcDbLine
 10
101.334
 20
143.5279999999999
 30
0.0
 11
100.374
 21
143.144
 31
0.0
  0
LINE
  5
4F0
330
1E
100
AcDbEntity
  8
0
100
AcDbLine
 10
100.374
 20
143.144
 30
0.0
 11
99.35
 21
143.0
 31
0.0
  0
LINE
  5
4F1
330
1E
100
AcDbEntity
  8
0
100
AcDbLine
 10
102.1819999999999
 20
149.8319999999999
 30
0.0
 11
101.334
 21
150.472
 31
0.0
  0
LINE
  5
4F2
330
1E
100
AcDbEntity
  8
0
100
AcDbLine
 10
102.822
 20
148.984
 30
0.0
 11
102.1819999999999
 21
149.8319999999999
 31
0.0
  0
LINE
  5
4F3
330
1E
100
AcDbEntity
  8
0
100
AcDbLine
 10
103.3499999999999
 20
147.0
 30
0.0
 11
103.2059999999999
 21
148.024
 31
0.0
  0
LINE
  5
4F4
330
1E
100
AcDbEntity
  8
0
100
AcDbLine
 10
103.2059999999999
 20
148.024
 30
0.0
 11
102.822
 21
148.984
 31
0.0
  0
LINE
  5
4F5
330
1E
100
AcDbEntity
  8
0
100
AcDbLine
 10
102.225076923077
 20
149.774923076923
 30
0.0
 11
102.1819999999999
 21
149.8319999999999
 31
0.0
  0
LINE
  5
4F6
330
1E
100
AcDbEntity
  8
0
100
AcDbLine
 10
101.334
 20
150.472
 30
0.0
 11
100.374
 21
150.8559999999999
 31
0.0
  0
LINE
  5
4F7
330
1E
100
AcDbEntity
  8
0
100
AcDbLine
 10
100.374
 20
150.8559999999999
 30
0.0
 11
99.35
 21
151.0
 31
0.0
  0
LINE
  5
4F8
330
1E
100
AcDbEntity
  8
0
100
AcDbLine
 10
95.494
 20
145.9759999999999
 30
0.0
 11
95.35
 21
147.0
 31
0.0
  0
LINE
  5
4F9
330
1E
100
AcDbEntity
  8
0
100
AcDbLine
 10
91.2316
 20
134.317
 30
0.0
 11
83.46210000000001
 21
135.858
 31
0.0
  0
LINE
  5
4FA
330
1E
100
AcDbEntity
  8
0
100
AcDbLine
 10
91.628
 20
136.2319999999999
 30
0.0
 11
83.816
 21
137.7439999999999
 31
0.0
  0
LINE
  5
4FB
330
1E
100
AcDbEntity
  8
0
100
AcDbLine
 10
90.7158
 20
132.388
 30
0.0
 11
83.20109999999999
 21
133.8789999999999
 31
0.0
  0
LINE
  5
4FC
330
1E
100
AcDbEntity
  8
0
100
AcDbLine
 10
98.74115543473701
 20
143.0856187669901
 30
0.0
 11
97.26516163189895
 21
134.2317168402939
 31
0.0
  0
LINE
  5
4FD
330
1E
100
AcDbEntity
  8
0
100
AcDbLine
 10
98.8084
 20
131.7479999999999
 30
0.0
 11
91.2316
 21
134.317
 31
0.0
  0
LINE
  5
4FE
330
1E
100
AcDbEntity
  8
0
100
AcDbLine
 10
98.0442
 20
129.9039999999999
 30
0.0
 11
90.7158
 21
132.388
 31
0.0
  0
LINE
  5
4FF
330
1E
100
AcDbEntity
  8
0
100
AcDbLine
 10
96.84131623571317
 20
143.9239877466315
 30
0.0
 11
95.20094500407068
 21
134.9641808050071
 31
0.0
  0
LINE
  5
500
330
1E
100
AcDbEntity
  8
0
100
AcDbLine
 10
96.51800000000001
 20
144.168
 30
0.0
 11
95.87799999999999
 21
145.0159999999999
 31
0.0
  0
LINE
  5
501
330
1E
100
AcDbEntity
  8
0
100
AcDbLine
 10
98.32599999999999
 20
143.144
 30
0.0
 11
97.36600000000002
 21
143.5279999999999
 31
0.0
  0
LINE
  5
502
330
1E
100
AcDbEntity
  8
0
100
AcDbLine
 10
97.36600000000002
 20
143.5279999999999
 30
0.0
 11
96.51800000000001
 21
144.168
 31
0.0
  0
LINE
  5
503
330
1E
100
AcDbEntity
  8
0
100
AcDbLine
 10
95.87799999999999
 20
145.0159999999999
 30
0.0
 11
95.494
 21
145.9759999999999
 31
0.0
  0
LINE
  5
504
330
1E
100
AcDbEntity
  8
0
100
AcDbLine
 10
96.51800000000001
 20
149.8319999999999
 30
0.0
 11
95.87799999999999
 21
148.984
 31
0.0
  0
LINE
  5
505
330
1E
100
AcDbEntity
  8
0
100
AcDbLine
 10
98.32599999999999
 20
150.8559999999999
 30
0.0
 11
97.36600000000002
 21
150.472
 31
0.0
  0
LINE
  5
506
330
1E
100
AcDbEntity
  8
0
100
AcDbLine
 10
97.36600000000002
 20
150.472
 30
0.0
 11
96.51800000000001
 21
149.8319999999999
 31
0.0
  0
LINE
  5
507
330
1E
100
AcDbEntity
  8
0
100
AcDbLine
 10
95.494
 20
148.024
 30
0.0
 11
95.35
 21
147.0
 31
0.0
  0
LINE
  5
508
330
1E
100
AcDbEntity
  8
0
100
AcDbLine
 10
95.87799999999999
 20
148.984
 30
0.0
 11
95.494
 21
148.024
 31
0.0
  0
LINE
  5
509
330
1E
100
AcDbEntity
  8
0
100
AcDbLine
 10
51.65
 20
151.0
 30
0.0
 11
99.35
 21
151.0
 31
0.0
  0
LINE
  5
50A
330
1E
100
AcDbEntity
  8
0
100
AcDbLine
 10
99.35
 20
-0.0000000000000021
 30
0.0
 11
51.65
 21
-0.0000000000000021
 31
0.0
  0
LINE
  5
50B
330
1E
100
AcDbEntity
  8
0
100
AcDbLine
 10
76.5
 20
2.008412085718088
 30
0.0
 11
95.87799999999999
 21
2.016
 31
0.0
  0
LINE
  5
50C
330
1E
100
AcDbEntity
  8
0
100
AcDbLine
 10
76.5
 20
2.008412085718088
 30
0.0
 11
55.12199999999999
 21
2.016
 31
0.0
  0
LINE
  5
50D
330
1E
100
AcDbEntity
  8
0
100
AcDbLine
 10
76.5
 20
149.0
 30
0.0
 11
95.87799999999999
 21
148.984
 31
0.0
  0
LINE
  5
50E
330
1E
100
AcDbEntity
  8
0
100
AcDbLine
 10
74.51501893142617
 20
149.0
 30
0.0
 11
55.12199999999999
 21
148.984
 31
0.0
  0
ENDSEC
  0
SECTION
  2
OBJECTS
  0
DICTIONARY
  5
C
330
0
100
AcDbDictionary
281
     1
  3
ACAD_GROUP
350
D
  3
ACAD_LAYOUT
350
19
  3
ACAD_MLINESTYLE
350
16
  3
ACAD_PLOTSETTINGS
350
18
  3
ACAD_PLOTSTYLENAME
350
E
  3
AcDbVariableDictionary
350
50F
  0
DICTIONARY
  5
D
102
{ACAD_REACTORS
330
C
102
}
330
C
100
AcDbDictionary
281
     1
  0
DICTIONARY
  5
19
102
{ACAD_REACTORS
330
C
102
}
330
C
100
AcDbDictionary
281
     1
  3
Layout1
350
1D
  3
Model
350
21
  0
DICTIONARY
  5
16
102
{ACAD_REACTORS
330
C
102
}
330
C
100
AcDbDictionary
281
     1
  3
Standard
350
17
  0
DICTIONARY
  5
18
102
{ACAD_REACTORS
330
C
102
}
330
C
100
AcDbDictionary
281
     1
  0
ACDBDICTIONARYWDFLT
  5
E
102
{ACAD_REACTORS
330
C
102
}
330
C
100
AcDbDictionary
281
     1
  3
Normal
350
F
100
AcDbDictionaryWithDefault
340
F
  0
DICTIONARY
  5
50F
102
{ACAD_REACTORS
330
C
102
}
330
C
100
AcDbDictionary
281
     1
  3
DIMASSOC
350
510
  0
LAYOUT
  5
1D
102
{ACAD_REACTORS
330
19
102
}
330
19
100
AcDbPlotSettings
  1

  2
hp deskjet 980c series
  4

  6

 40
0.0
 41
0.0
 42
0.0
 43
0.0
 44
0.0
 45
0.0
 46
0.0
 47
0.0
 48
0.0
 49
0.0
140
0.0
141
0.0
142
1.0
143
1.0
 70
   688
 72
     0
 73
     0
 74
     5
  7

 75
    16
147
1.0
148
0.0
149
0.0
100
AcDbLayout
  1
Layout1
 70
     1
 71
     1
 10
0.0
 20
0.0
 11
12.0
 21
9.0
 12
0.0
 22
0.0
 32
0.0
 14
1.000000000000000E+20
 24
1.000000000000000E+20
 34
1.000000000000000E+20
 15
-1.000000000000000E+20
 25
-1.000000000000000E+20
 35
-1.000000000000000E+20
146
0.0
 13
0.0
 23
0.0
 33
0.0
 16
1.0
 26
0.0
 36
0.0
 17
0.0
 27
1.0
 37
0.0
 76
     0
330
1A
  0
LAYOUT
  5
21
102
{ACAD_REACTORS
330
19
102
}
330
19
100
AcDbPlotSettings
  1

  2
hp deskjet 980c series
  4

  6

 40
0.0
 41
0.0
 42
0.0
 43
0.0
 44
0.0
 45
0.0
 46
0.0
 47
0.0
 48
0.0
 49
0.0
140
0.0
141
0.0
142
1.0
143
1.0
 70
  1712
 72
     0
 73
     0
 74
     0
  7

 75
     0
147
1.0
148
0.0
149
0.0
100
AcDbLayout
  1
Model
 70
     1
 71
     0
 10
0.0
 20
0.0
 11
12.0
 21
9.0
 12
0.0
 22
0.0
 32
0.0
 14
0.0
 24
0.0
 34
0.0
 15
0.0
 25
0.0
 35
0.0
146
0.0
 13
0.0
 23
0.0
 33
0.0
 16
1.0
 26
0.0
 36
0.0
 17
0.0
 27
1.0
 37
0.0
 76
     0
330
1E
  0
MLINESTYLE
  5
17
102
{ACAD_REACTORS
330
16
102
}
330
16
100
AcDbMlineStyle
  2
STANDARD
 70
     0
  3

 62
   256
 51
90.0
 52
90.0
 71
     2
 49
0.5
 62
   256
  6
BYLAYER
 49
-0.5
 62
   256
  6
BYLAYER
  0
ACDBPLACEHOLDER
  5
F
102
{ACAD_REACTORS
330
E
102
}
330
E
  0
DICTIONARYVAR
  5
510
102
{ACAD_REACTORS
330
50F
102
}
330
50F
100
DictionaryVariables
280
     0
  1
1
  0
ENDSEC
  0
EOF
