  0
SECTION
  2
HEADER
  9
$ACADVER
  1
AC1014
  9
$ACADMAINTVER
 70
     9
  9
$DWGCODEPAGE
  3
ANSI_1252
  9
$INSBASE
 10
0.0
 20
0.0
 30
0.0
  9
$EXTMIN
 10
0.0000000000000011
 20
-0.0327000000000232
 30
0.0
  9
$EXTMAX
 10
22.0
 20
705.0327
 30
0.0
  9
$LIMMIN
 10
0.0
 20
0.0
  9
$LIMMAX
 10
12.0
 20
9.0
  9
$ORTHOMODE
 70
     0
  9
$REGENMODE
 70
     1
  9
$FILLMODE
 70
     1
  9
$QTEXTMODE
 70
     0
  9
$MIRRTEXT
 70
     1
  9
$DRAGMODE
 70
     2
  9
$LTSCALE
 40
1.0
  9
$OSMODE
 70
    37
  9
$ATTMODE
 70
     1
  9
$TEXTSIZE
 40
0.2
  9
$TRACEWID
 40
0.05
  9
$TEXTSTYLE
  7
STANDARD
  9
$CLAYER
  8
0
  9
$CELTYPE
  6
CONTINUOUS
  9
$CECOLOR
 62
   256
  9
$CELTSCALE
 40
1.0
  9
$DELOBJ
 70
     1
  9
$DISPSILH
 70
     0
  9
$DIMSCALE
 40
1.0
  9
$DIMASZ
 40
0.18
  9
$DIMEXO
 40
0.0625
  9
$DIMDLI
 40
0.38
  9
$DIMRND
 40
0.0
  9
$DIMDLE
 40
0.0
  9
$DIMEXE
 40
0.18
  9
$DIMTP
 40
0.0
  9
$DIMTM
 40
0.0
  9
$DIMTXT
 40
0.18
  9
$DIMCEN
 40
0.09
  9
$DIMTSZ
 40
0.0
  9
$DIMTOL
 70
     0
  9
$DIMLIM
 70
     0
  9
$DIMTIH
 70
     1
  9
$DIMTOH
 70
     1
  9
$DIMSE1
 70
     0
  9
$DIMSE2
 70
     0
  9
$DIMTAD
 70
     0
  9
$DIMZIN
 70
     0
  9
$DIMBLK
  1

  9
$DIMASO
 70
     1
  9
$DIMSHO
 70
     1
  9
$DIMPOST
  1

  9
$DIMAPOST
  1

  9
$DIMALT
 70
     0
  9
$DIMALTD
 70
     2
  9
$DIMALTF
 40
25.4
  9
$DIMLFAC
 40
1.0
  9
$DIMTOFL
 70
     0
  9
$DIMTVP
 40
0.0
  9
$DIMTIX
 70
     0
  9
$DIMSOXD
 70
     0
  9
$DIMSAH
 70
     0
  9
$DIMBLK1
  1

  9
$DIMBLK2
  1

  9
$DIMSTYLE
  2
STANDARD
  9
$DIMCLRD
 70
     0
  9
$DIMCLRE
 70
     0
  9
$DIMCLRT
 70
     0
  9
$DIMTFAC
 40
1.0
  9
$DIMGAP
 40
0.09
  9
$DIMJUST
 70
     0
  9
$DIMSD1
 70
     0
  9
$DIMSD2
 70
     0
  9
$DIMTOLJ
 70
     1
  9
$DIMTZIN
 70
     0
  9
$DIMALTZ
 70
     0
  9
$DIMALTTZ
 70
     0
  9
$DIMFIT
 70
     3
  9
$DIMUPT
 70
     0
  9
$DIMUNIT
 70
     2
  9
$DIMDEC
 70
     4
  9
$DIMTDEC
 70
     4
  9
$DIMALTU
 70
     2
  9
$DIMALTTD
 70
     2
  9
$DIMTXSTY
  7
STANDARD
  9
$DIMAUNIT
 70
     0
  9
$LUNITS
 70
     2
  9
$LUPREC
 70
     4
  9
$SKETCHINC
 40
0.1
  9
$FILLETRAD
 40
0.0
  9
$AUNITS
 70
     0
  9
$AUPREC
 70
     0
  9
$MENU
  1
.
  9
$ELEVATION
 40
0.0
  9
$PELEVATION
 40
0.0
  9
$THICKNESS
 40
0.0
  9
$LIMCHECK
 70
     0
  9
$BLIPMODE
 70
     0
  9
$CHAMFERA
 40
0.0
  9
$CHAMFERB
 40
0.0
  9
$CHAMFERC
 40
0.0
  9
$CHAMFERD
 40
0.0
  9
$SKPOLY
 70
     0
  9
$TDCREATE
 40
2454697.350352824
  9
$TDUPDATE
 40
2454697.359172627
  9
$TDINDWG
 40
0.0088199884
  9
$TDUSRTIMER
 40
0.0088199884
  9
$USRTIMER
 70
     1
  9
$ANGBASE
 50
0.0
  9
$ANGDIR
 70
     0
  9
$PDMODE
 70
     0
  9
$PDSIZE
 40
0.0
  9
$PLINEWID
 40
0.0
  9
$COORDS
 70
     1
  9
$SPLFRAME
 70
     0
  9
$SPLINETYPE
 70
     6
  9
$SPLINESEGS
 70
     8
  9
$ATTDIA
 70
     0
  9
$ATTREQ
 70
     1
  9
$HANDLING
 70
 22529
  9
$HANDSEED
  5
983
  9
$SURFTAB1
 70
     6
  9
$SURFTAB2
 70
     6
  9
$SURFTYPE
 70
     6
  9
$SURFU
 70
     6
  9
$SURFV
 70
     6
  9
$UCSNAME
  2

  9
$UCSORG
 10
0.0
 20
0.0
 30
0.0
  9
$UCSXDIR
 10
1.0
 20
0.0
 30
0.0
  9
$UCSYDIR
 10
0.0
 20
1.0
 30
0.0
  9
$PUCSNAME
  2

  9
$PUCSORG
 10
0.0
 20
0.0
 30
0.0
  9
$PUCSXDIR
 10
1.0
 20
0.0
 30
0.0
  9
$PUCSYDIR
 10
0.0
 20
1.0
 30
0.0
  9
$USERI1
 70
     0
  9
$USERI2
 70
     0
  9
$USERI3
 70
     0
  9
$USERI4
 70
     0
  9
$USERI5
 70
     0
  9
$USERR1
 40
0.0
  9
$USERR2
 40
0.0
  9
$USERR3
 40
0.0
  9
$USERR4
 40
0.0
  9
$USERR5
 40
0.0
  9
$WORLDVIEW
 70
     1
  9
$SHADEDGE
 70
     3
  9
$SHADEDIF
 70
    70
  9
$TILEMODE
 70
     1
  9
$MAXACTVP
 70
    64
  9
$PINSBASE
 10
0.0
 20
0.0
 30
0.0
  9
$PLIMCHECK
 70
     0
  9
$PEXTMIN
 10
1.000000000000000E+20
 20
1.000000000000000E+20
 30
1.000000000000000E+20
  9
$PEXTMAX
 10
-1.000000000000000E+20
 20
-1.000000000000000E+20
 30
-1.000000000000000E+20
  9
$PLIMMIN
 10
0.0
 20
0.0
  9
$PLIMMAX
 10
12.0
 20
9.0
  9
$UNITMODE
 70
     0
  9
$VISRETAIN
 70
     1
  9
$PLINEGEN
 70
     0
  9
$PSLTSCALE
 70
     1
  9
$TREEDEPTH
 70
  3020
  9
$PICKSTYLE
 70
     1
  9
$CMLSTYLE
  2
STANDARD
  9
$CMLJUST
 70
     0
  9
$CMLSCALE
 40
1.0
  9
$PROXYGRAPHICS
 70
     1
  9
$MEASUREMENT
 70
     0
  0
ENDSEC
  0
SECTION
  2
CLASSES
  0
CLASS
  1
ACDBDICTIONARYWDFLT
  2
AcDbDictionaryWithDefault
  3
AutoCAD 2000
 90
        0
280
     0
281
     0
  0
CLASS
  1
ACDBPLACEHOLDER
  2
AcDbPlaceHolder
  3
AutoCAD 2000
 90
        0
280
     0
281
     0
  0
CLASS
  1
LAYOUT
  2
AcDbLayout
  3
AutoCAD 2000
 90
        0
280
     0
281
     0
  0
CLASS
  1
DICTIONARYVAR
  2
AcDbDictionaryVar
  3
AutoCAD 2000
 90
        0
280
     0
281
     0
  0
CLASS
  1
LONG_TRANSACTION
  2
AcDbLongTransaction
  3
AutoCAD 2000
 90
        0
280
     0
281
     0
  0
CLASS
  1
LWPOLYLINE
  2
AcDbPolyline
  3
AutoCAD 2000
 90
        0
280
     0
281
     1
  0
CLASS
  1
HATCH
  2
AcDbHatch
  3
AutoCAD 2000
 90
        0
280
     0
281
     1
  0
CLASS
  1
XRECORD
  2
AcDbXrecord
  3
AutoCAD 2000
 90
        0
280
     0
281
     0
  0
ENDSEC
  0
SECTION
  2
TABLES
  0
TABLE
  2
VPORT
  5
8
330
0
100
AcDbSymbolTable
 70
     2
  0
VPORT
  5
95E
330
8
100
AcDbSymbolTableRecord
100
AcDbViewportTableRecord
  2
*ACTIVE
 70
     0
 10
0.0
 20
0.0
 11
1.0
 21
1.0
 12
11.0
 22
352.4999999999999
 13
0.0
 23
0.0
 14
1.0
 24
1.0
 15
0.0
 25
0.0
 16
0.0
 26
0.0
 36
1.0
 17
0.0
 27
0.0
 37
0.0
 40
710.4751089514065
 41
2.078104993597951
 42
50.0
 43
0.0
 44
0.0
 50
0.0
 51
0.0
 71
     0
 72
   100
 73
     1
 74
     3
 75
     0
 76
     0
 77
     0
 78
     0
  0
ENDTAB
  0
TABLE
  2
LTYPE
  5
5
330
0
100
AcDbSymbolTable
 70
     1
  0
LTYPE
  5
13
330
5
100
AcDbSymbolTableRecord
100
AcDbLinetypeTableRecord
  2
BYBLOCK
 70
     0
  3

 72
    65
 73
     0
 40
0.0
  0
LTYPE
  5
14
330
5
100
AcDbSymbolTableRecord
100
AcDbLinetypeTableRecord
  2
BYLAYER
 70
     0
  3

 72
    65
 73
     0
 40
0.0
  0
LTYPE
  5
15
330
5
100
AcDbSymbolTableRecord
100
AcDbLinetypeTableRecord
  2
CONTINUOUS
 70
     0
  3
Solid line
 72
    65
 73
     0
 40
0.0
  0
ENDTAB
  0
TABLE
  2
LAYER
  5
2
330
0
100
AcDbSymbolTable
 70
     1
  0
LAYER
  5
10
330
2
100
AcDbSymbolTableRecord
100
AcDbLayerTableRecord
  2
0
 70
     0
 62
     7
  6
CONTINUOUS
  0
ENDTAB
  0
TABLE
  2
STYLE
  5
3
330
0
100
AcDbSymbolTable
 70
     1
  0
STYLE
  5
11
330
3
100
AcDbSymbolTableRecord
100
AcDbTextStyleTableRecord
  2
STANDARD
 70
     0
 40
0.0
 41
1.0
 50
0.0
 71
     0
 42
0.2
  3
txt
  4

  0
ENDTAB
  0
TABLE
  2
VIEW
  5
6
330
0
100
AcDbSymbolTable
 70
     0
  0
ENDTAB
  0
TABLE
  2
UCS
  5
7
330
0
100
AcDbSymbolTable
 70
     0
  0
ENDTAB
  0
TABLE
  2
APPID
  5
9
330
0
100
AcDbSymbolTable
 70
     1
  0
APPID
  5
12
330
9
100
AcDbSymbolTableRecord
100
AcDbRegAppTableRecord
  2
ACAD
 70
     0
  0
ENDTAB
  0
TABLE
  2
DIMSTYLE
  5
A
330
0
100
AcDbSymbolTable
 70
     1
  0
DIMSTYLE
105
958
330
A
100
AcDbSymbolTableRecord
100
AcDbDimStyleTableRecord
  2
STANDARD
 70
     0
  3

  4

  5

  6

  7

 40
1.0
 41
0.18
 42
0.0625
 43
0.38
 44
0.18
 45
0.0
 46
0.0
 47
0.0
 48
0.0
140
0.18
141
0.09
142
0.0
143
25.4
144
1.0
145
0.0
146
1.0
147
0.09
 71
     0
 72
     0
 73
     1
 74
     1
 75
     0
 76
     0
 77
     0
 78
     0
170
     0
171
     2
172
     0
173
     0
174
     0
175
     0
176
     0
177
     0
178
     0
270
     2
271
     4
272
     4
273
     2
274
     2
340
11
275
     0
280
     0
281
     0
282
     0
283
     1
284
     0
285
     0
286
     0
287
     3
288
     0
  0
ENDTAB
  0
TABLE
  2
BLOCK_RECORD
  5
1
330
0
100
AcDbSymbolTable
 70
     0
  0
BLOCK_RECORD
  5
1E
102
{ACAD_XDICTIONARY
360
981
102
}
330
1
100
AcDbSymbolTableRecord
100
AcDbBlockTableRecord
  2
*MODEL_SPACE
  0
BLOCK_RECORD
  5
1A
102
{ACAD_XDICTIONARY
360
97F
102
}
330
1
100
AcDbSymbolTableRecord
100
AcDbBlockTableRecord
  2
*PAPER_SPACE
  0
ENDTAB
  0
ENDSEC
  0
SECTION
  2
BLOCKS
  0
BLOCK
  5
1F
330
1E
100
AcDbEntity
  8
0
100
AcDbBlockBegin
  2
*MODEL_SPACE
 70
     0
 10
0.0
 20
0.0
 30
0.0
  3
*MODEL_SPACE
  1

  0
ENDBLK
  5
20
330
1E
100
AcDbEntity
  8
0
100
AcDbBlockEnd
  0
BLOCK
  5
1B
330
1A
100
AcDbEntity
 67
     1
  8
0
100
AcDbBlockBegin
  2
*PAPER_SPACE
 70
     0
 10
0.0
 20
0.0
 30
0.0
  3
*PAPER_SPACE
  1

  0
ENDBLK
  5
1C
330
1A
100
AcDbEntity
 67
     1
  8
0
100
AcDbBlockEnd
  0
ENDSEC
  0
SECTION
  2
ENTITIES
  0
LINE
  5
22
330
1E
100
AcDbEntity
  8
0
100
AcDbLine
 10
1.034379999999999
 20
9.137699999999989
 30
0.0
 11
1.23838
 21
8.83009999999999
 31
0.0
  0
LINE
  5
23
330
1E
100
AcDbEntity
  8
0
100
AcDbLine
 10
1.034379999999999
 20
9.137699999999989
 30
0.0
 11
1.034379999999999
 21
16.5224
 31
0.0
  0
LINE
  5
24
330
1E
100
AcDbEntity
  8
0
100
AcDbLine
 10
1.23838
 20
8.83009999999999
 30
0.0
 11
1.544379999999999
 21
8.83009999999999
 31
0.0
  0
LINE
  5
25
330
1E
100
AcDbEntity
  8
0
100
AcDbLine
 10
1.23838
 20
8.83009999999999
 30
0.0
 11
1.544379999999999
 21
8.83009999999998
 31
0.0
  0
LINE
  5
27
330
1E
100
AcDbEntity
  8
0
100
AcDbLine
 10
1.544379999999999
 20
8.83009999999998
 30
0.0
 11
1.748363147361719
 21
8.83009999999998
 31
0.0
  0
LINE
  5
28
330
1E
100
AcDbEntity
  8
0
100
AcDbLine
 10
1.544379999999999
 20
8.83009999999999
 30
0.0
 11
2.36038
 21
8.83009999999999
 31
0.0
  0
LINE
  5
2A
330
1E
100
AcDbEntity
  8
0
100
AcDbLine
 10
1.034379999999999
 20
25.1377
 30
0.0
 11
1.23838
 21
24.83
 31
0.0
  0
LINE
  5
2B
330
1E
100
AcDbEntity
  8
0
100
AcDbLine
 10
1.034379999999999
 20
25.1377
 30
0.0
 11
1.034379999999999
 21
32.5224
 31
0.0
  0
LINE
  5
2C
330
1E
100
AcDbEntity
  8
0
100
AcDbLine
 10
1.23838
 20
24.83
 30
0.0
 11
1.544379999999999
 21
24.83
 31
0.0
  0
LINE
  5
2D
330
1E
100
AcDbEntity
  8
0
100
AcDbLine
 10
1.034379999999999
 20
41.1377
 30
0.0
 11
1.23838
 21
40.83
 31
0.0
  0
LINE
  5
2E
330
1E
100
AcDbEntity
  8
0
100
AcDbLine
 10
1.034379999999999
 20
41.1377
 30
0.0
 11
1.034379999999999
 21
48.5224
 31
0.0
  0
LINE
  5
2F
330
1E
100
AcDbEntity
  8
0
100
AcDbLine
 10
1.23838
 20
40.83
 30
0.0
 11
1.544379999999999
 21
40.83
 31
0.0
  0
LINE
  5
30
330
1E
100
AcDbEntity
  8
0
100
AcDbLine
 10
1.23838
 20
48.83
 30
0.0
 11
1.544379999999999
 21
48.83
 31
0.0
  0
LINE
  5
31
330
1E
100
AcDbEntity
  8
0
100
AcDbLine
 10
1.034379999999999
 20
48.5224
 30
0.0
 11
1.034379999999999
 21
41.1377
 31
0.0
  0
LINE
  5
32
330
1E
100
AcDbEntity
  8
0
100
AcDbLine
 10
1.034379999999999
 20
48.5224
 30
0.0
 11
1.23838
 21
48.83
 31
0.0
  0
LINE
  5
33
330
1E
100
AcDbEntity
  8
0
100
AcDbLine
 10
1.23838
 20
32.82999999999999
 30
0.0
 11
1.544379999999999
 21
32.82999999999999
 31
0.0
  0
LINE
  5
34
330
1E
100
AcDbEntity
  8
0
100
AcDbLine
 10
1.034379999999999
 20
32.5224
 30
0.0
 11
1.034379999999999
 21
25.1377
 31
0.0
  0
LINE
  5
35
330
1E
100
AcDbEntity
  8
0
100
AcDbLine
 10
1.034379999999999
 20
32.5224
 30
0.0
 11
1.23838
 21
32.82999999999999
 31
0.0
  0
LINE
  5
36
330
1E
100
AcDbEntity
  8
0
100
AcDbLine
 10
1.262929999999999
 20
73.13769999999999
 30
0.0
 11
1.466929999999999
 21
72.8297
 31
0.0
  0
LINE
  5
37
330
1E
100
AcDbEntity
  8
0
100
AcDbLine
 10
1.262929999999999
 20
73.13769999999999
 30
0.0
 11
1.262929999999999
 21
80.5227
 31
0.0
  0
LINE
  5
38
330
1E
100
AcDbEntity
  8
0
100
AcDbLine
 10
1.262929999999999
 20
80.5227
 30
0.0
 11
1.262929999999999
 21
73.13769999999999
 31
0.0
  0
LINE
  5
39
330
1E
100
AcDbEntity
  8
0
100
AcDbLine
 10
1.262929999999999
 20
80.5227
 30
0.0
 11
1.466929999999999
 21
80.82970000000001
 31
0.0
  0
LINE
  5
3A
330
1E
100
AcDbEntity
  8
0
100
AcDbLine
 10
1.262929999999999
 20
89.13769999999999
 30
0.0
 11
1.466929999999999
 21
88.8297
 31
0.0
  0
LINE
  5
3B
330
1E
100
AcDbEntity
  8
0
100
AcDbLine
 10
1.262929999999999
 20
89.13769999999999
 30
0.0
 11
1.262929999999999
 21
96.52270000000001
 31
0.0
  0
LINE
  5
3C
330
1E
100
AcDbEntity
  8
0
100
AcDbLine
 10
1.262929999999999
 20
96.52270000000001
 30
0.0
 11
1.262929999999999
 21
89.13769999999999
 31
0.0
  0
LINE
  5
3D
330
1E
100
AcDbEntity
  8
0
100
AcDbLine
 10
1.262929999999999
 20
96.52270000000001
 30
0.0
 11
1.466929999999999
 21
96.8297
 31
0.0
  0
LINE
  5
3E
330
1E
100
AcDbEntity
  8
0
100
AcDbLine
 10
1.262929999999999
 20
57.1377
 30
0.0
 11
1.466929999999999
 21
56.8297
 31
0.0
  0
LINE
  5
3F
330
1E
100
AcDbEntity
  8
0
100
AcDbLine
 10
1.262929999999999
 20
57.1377
 30
0.0
 11
1.262929999999999
 21
64.5227
 31
0.0
  0
LINE
  5
42
330
1E
100
AcDbEntity
  8
0
100
AcDbLine
 10
1.262929999999999
 20
64.5227
 30
0.0
 11
1.262929999999999
 21
57.1377
 31
0.0
  0
LINE
  5
43
330
1E
100
AcDbEntity
  8
0
100
AcDbLine
 10
1.262929999999999
 20
64.5227
 30
0.0
 11
1.466929999999999
 21
64.8297
 31
0.0
  0
LINE
  5
45
330
1E
100
AcDbEntity
  8
0
100
AcDbLine
 10
1.544379999999999
 20
48.83
 30
0.0
 11
2.36038
 21
48.83
 31
0.0
  0
LINE
  5
46
330
1E
100
AcDbEntity
  8
0
100
AcDbLine
 10
1.544379999999999
 20
40.83
 30
0.0
 11
2.36038
 21
40.83
 31
0.0
  0
LINE
  5
47
330
1E
100
AcDbEntity
  8
0
100
AcDbLine
 10
1.544379999999999
 20
40.83
 30
0.0
 11
1.802316663322839
 21
40.83
 31
0.0
  0
LINE
  5
48
330
1E
100
AcDbEntity
  8
0
100
AcDbLine
 10
1.466929999999999
 20
80.82970000000001
 30
0.0
 11
1.772929999999999
 21
80.82970000000001
 31
0.0
  0
LINE
  5
49
330
1E
100
AcDbEntity
  8
0
100
AcDbLine
 10
1.466929999999999
 20
72.8297
 30
0.0
 11
1.772929999999999
 21
72.8297
 31
0.0
  0
LINE
  5
4A
330
1E
100
AcDbEntity
  8
0
100
AcDbLine
 10
1.466929999999999
 20
96.8297
 30
0.0
 11
1.772929999999999
 21
96.8297
 31
0.0
  0
LINE
  5
4B
330
1E
100
AcDbEntity
  8
0
100
AcDbLine
 10
1.466929999999999
 20
88.8297
 30
0.0
 11
1.772929999999999
 21
88.8297
 31
0.0
  0
LINE
  5
4C
330
1E
100
AcDbEntity
  8
0
100
AcDbLine
 10
1.37721
 20
105.1377
 30
0.0
 11
1.58121
 21
104.8297
 31
0.0
  0
LINE
  5
4D
330
1E
100
AcDbEntity
  8
0
100
AcDbLine
 10
1.37721
 20
105.1377
 30
0.0
 11
1.37721
 21
112.5226999999999
 31
0.0
  0
LINE
  5
4E
330
1E
100
AcDbEntity
  8
0
100
AcDbLine
 10
1.37721
 20
137.1377
 30
0.0
 11
1.58121
 21
136.8297
 31
0.0
  0
LINE
  5
4F
330
1E
100
AcDbEntity
  8
0
100
AcDbLine
 10
1.37721
 20
137.1377
 30
0.0
 11
1.37721
 21
144.5226999999999
 31
0.0
  0
LINE
  5
50
330
1E
100
AcDbEntity
  8
0
100
AcDbLine
 10
1.37721
 20
144.5226999999999
 30
0.0
 11
1.37721
 21
137.1377
 31
0.0
  0
LINE
  5
51
330
1E
100
AcDbEntity
  8
0
100
AcDbLine
 10
1.37721
 20
144.5226999999999
 30
0.0
 11
1.58121
 21
144.8296999999999
 31
0.0
  0
LINE
  5
52
330
1E
100
AcDbEntity
  8
0
100
AcDbLine
 10
1.37721
 20
153.1376999999999
 30
0.0
 11
1.58121
 21
152.8297
 31
0.0
  0
LINE
  5
53
330
1E
100
AcDbEntity
  8
0
100
AcDbLine
 10
1.37721
 20
153.1376999999999
 30
0.0
 11
1.37721
 21
160.5227
 31
0.0
  0
LINE
  5
54
330
1E
100
AcDbEntity
  8
0
100
AcDbLine
 10
1.37721
 20
160.5227
 30
0.0
 11
1.37721
 21
153.1376999999999
 31
0.0
  0
LINE
  5
55
330
1E
100
AcDbEntity
  8
0
100
AcDbLine
 10
1.37721
 20
160.5227
 30
0.0
 11
1.58121
 21
160.8297
 31
0.0
  0
LINE
  5
56
330
1E
100
AcDbEntity
  8
0
100
AcDbLine
 10
1.37721
 20
169.1376999999999
 30
0.0
 11
1.58121
 21
168.8297
 31
0.0
  0
LINE
  5
57
330
1E
100
AcDbEntity
  8
0
100
AcDbLine
 10
1.37721
 20
169.1376999999999
 30
0.0
 11
1.37721
 21
176.5226999999999
 31
0.0
  0
LINE
  5
58
330
1E
100
AcDbEntity
  8
0
100
AcDbLine
 10
1.37721
 20
176.5226999999999
 30
0.0
 11
1.37721
 21
169.1376999999999
 31
0.0
  0
LINE
  5
59
330
1E
100
AcDbEntity
  8
0
100
AcDbLine
 10
1.37721
 20
176.5226999999999
 30
0.0
 11
1.58121
 21
176.8297
 31
0.0
  0
LINE
  5
5A
330
1E
100
AcDbEntity
  8
0
100
AcDbLine
 10
1.37721
 20
121.1376999999999
 30
0.0
 11
1.58121
 21
120.8296999999999
 31
0.0
  0
LINE
  5
5B
330
1E
100
AcDbEntity
  8
0
100
AcDbLine
 10
1.37721
 20
121.1376999999999
 30
0.0
 11
1.37721
 21
128.5226999999999
 31
0.0
  0
LINE
  5
5C
330
1E
100
AcDbEntity
  8
0
100
AcDbLine
 10
1.37721
 20
128.5226999999999
 30
0.0
 11
1.37721
 21
121.1376999999999
 31
0.0
  0
LINE
  5
5D
330
1E
100
AcDbEntity
  8
0
100
AcDbLine
 10
1.37721
 20
128.5226999999999
 30
0.0
 11
1.58121
 21
128.8297
 31
0.0
  0
LINE
  5
5E
330
1E
100
AcDbEntity
  8
0
100
AcDbLine
 10
1.37721
 20
112.5226999999999
 30
0.0
 11
1.37721
 21
105.1377
 31
0.0
  0
LINE
  5
5F
330
1E
100
AcDbEntity
  8
0
100
AcDbLine
 10
1.37721
 20
112.5226999999999
 30
0.0
 11
1.58121
 21
112.8297
 31
0.0
  0
LINE
  5
60
330
1E
100
AcDbEntity
  8
0
100
AcDbLine
 10
1.491479999999999
 20
185.1377
 30
0.0
 11
1.695479999999999
 21
184.8297
 31
0.0
  0
LINE
  5
61
330
1E
100
AcDbEntity
  8
0
100
AcDbLine
 10
1.491479999999999
 20
185.1377
 30
0.0
 11
1.491479999999999
 21
192.5226999999999
 31
0.0
  0
LINE
  5
62
330
1E
100
AcDbEntity
  8
0
100
AcDbLine
 10
1.491479999999999
 20
192.5226999999999
 30
0.0
 11
1.491479999999999
 21
185.1377
 31
0.0
  0
LINE
  5
63
330
1E
100
AcDbEntity
  8
0
100
AcDbLine
 10
1.491479999999999
 20
192.5226999999999
 30
0.0
 11
1.695479999999999
 21
192.8297
 31
0.0
  0
LINE
  5
64
330
1E
100
AcDbEntity
  8
0
100
AcDbLine
 10
1.491479999999999
 20
201.1376999999999
 30
0.0
 11
1.695479999999999
 21
200.8297
 31
0.0
  0
LINE
  5
65
330
1E
100
AcDbEntity
  8
0
100
AcDbLine
 10
1.491479999999999
 20
201.1376999999999
 30
0.0
 11
1.491479999999999
 21
208.5226999999999
 31
0.0
  0
LINE
  5
66
330
1E
100
AcDbEntity
  8
0
100
AcDbLine
 10
1.491479999999999
 20
233.1376999999999
 30
0.0
 11
1.695479999999999
 21
232.8297
 31
0.0
  0
LINE
  5
67
330
1E
100
AcDbEntity
  8
0
100
AcDbLine
 10
1.491479999999999
 20
233.1376999999999
 30
0.0
 11
1.491479999999999
 21
240.5227
 31
0.0
  0
LINE
  5
68
330
1E
100
AcDbEntity
  8
0
100
AcDbLine
 10
1.491479999999999
 20
240.5227
 30
0.0
 11
1.491479999999999
 21
233.1376999999999
 31
0.0
  0
LINE
  5
69
330
1E
100
AcDbEntity
  8
0
100
AcDbLine
 10
1.491479999999999
 20
240.5227
 30
0.0
 11
1.695479999999999
 21
240.8297
 31
0.0
  0
LINE
  5
6A
330
1E
100
AcDbEntity
  8
0
100
AcDbLine
 10
1.491479999999999
 20
249.1376999999999
 30
0.0
 11
1.695479999999999
 21
248.8297
 31
0.0
  0
LINE
  5
6B
330
1E
100
AcDbEntity
  8
0
100
AcDbLine
 10
1.491479999999999
 20
249.1376999999999
 30
0.0
 11
1.491479999999999
 21
256.5226999999999
 31
0.0
  0
LINE
  5
6C
330
1E
100
AcDbEntity
  8
0
100
AcDbLine
 10
1.491479999999999
 20
256.5226999999999
 30
0.0
 11
1.491479999999999
 21
249.1376999999999
 31
0.0
  0
LINE
  5
6D
330
1E
100
AcDbEntity
  8
0
100
AcDbLine
 10
1.491479999999999
 20
256.5226999999999
 30
0.0
 11
1.695479999999999
 21
256.8297
 31
0.0
  0
LINE
  5
6E
330
1E
100
AcDbEntity
  8
0
100
AcDbLine
 10
1.491479999999999
 20
217.1377
 30
0.0
 11
1.695479999999999
 21
216.8296999999999
 31
0.0
  0
LINE
  5
6F
330
1E
100
AcDbEntity
  8
0
100
AcDbLine
 10
1.491479999999999
 20
217.1377
 30
0.0
 11
1.491479999999999
 21
224.5226999999999
 31
0.0
  0
LINE
  5
70
330
1E
100
AcDbEntity
  8
0
100
AcDbLine
 10
1.491479999999999
 20
224.5226999999999
 30
0.0
 11
1.491479999999999
 21
217.1377
 31
0.0
  0
LINE
  5
71
330
1E
100
AcDbEntity
  8
0
100
AcDbLine
 10
1.491479999999999
 20
224.5226999999999
 30
0.0
 11
1.695479999999999
 21
224.8296999999999
 31
0.0
  0
LINE
  5
72
330
1E
100
AcDbEntity
  8
0
100
AcDbLine
 10
1.491479999999999
 20
208.5226999999999
 30
0.0
 11
1.491479999999999
 21
201.1376999999999
 31
0.0
  0
LINE
  5
73
330
1E
100
AcDbEntity
  8
0
100
AcDbLine
 10
1.491479999999999
 20
208.5226999999999
 30
0.0
 11
1.695479999999999
 21
208.8296999999999
 31
0.0
  0
LINE
  5
74
330
1E
100
AcDbEntity
  8
0
100
AcDbLine
 10
1.466929999999999
 20
64.8297
 30
0.0
 11
1.772929999999999
 21
64.8297
 31
0.0
  0
LINE
  5
75
330
1E
100
AcDbEntity
  8
0
100
AcDbLine
 10
1.466929999999999
 20
56.8297
 30
0.0
 11
1.772929999999999
 21
56.8297
 31
0.0
  0
LINE
  5
7A
330
1E
100
AcDbEntity
  8
0
100
AcDbLine
 10
1.58121
 20
104.8297
 30
0.0
 11
1.887209999999999
 21
104.8297
 31
0.0
  0
LINE
  5
7B
330
1E
100
AcDbEntity
  8
0
100
AcDbLine
 10
1.58121
 20
120.8296999999999
 30
0.0
 11
1.887209999999999
 21
120.8296999999999
 31
0.0
  0
LINE
  5
7C
330
1E
100
AcDbEntity
  8
0
100
AcDbLine
 10
1.58121
 20
144.8296999999999
 30
0.0
 11
1.887209999999999
 21
144.8296999999999
 31
0.0
  0
LINE
  5
7D
330
1E
100
AcDbEntity
  8
0
100
AcDbLine
 10
1.58121
 20
136.8297
 30
0.0
 11
1.887209999999999
 21
136.8297
 31
0.0
  0
LINE
  5
7E
330
1E
100
AcDbEntity
  8
0
100
AcDbLine
 10
1.58121
 20
160.8297
 30
0.0
 11
1.887209999999999
 21
160.8297
 31
0.0
  0
LINE
  5
7F
330
1E
100
AcDbEntity
  8
0
100
AcDbLine
 10
1.58121
 20
152.8297
 30
0.0
 11
1.887209999999999
 21
152.8297
 31
0.0
  0
LINE
  5
80
330
1E
100
AcDbEntity
  8
0
100
AcDbLine
 10
1.58121
 20
176.8297
 30
0.0
 11
1.887209999999999
 21
176.8297
 31
0.0
  0
LINE
  5
81
330
1E
100
AcDbEntity
  8
0
100
AcDbLine
 10
1.58121
 20
168.8297
 30
0.0
 11
1.887209999999999
 21
168.8297
 31
0.0
  0
LINE
  5
86
330
1E
100
AcDbEntity
  8
0
100
AcDbLine
 10
1.60576
 20
265.0237
 30
0.0
 11
1.809759999999999
 21
264.7157
 31
0.0
  0
LINE
  5
87
330
1E
100
AcDbEntity
  8
0
100
AcDbLine
 10
1.60576
 20
265.0237
 30
0.0
 11
1.60576
 21
272.4076999999999
 31
0.0
  0
LINE
  5
88
330
1E
100
AcDbEntity
  8
0
100
AcDbLine
 10
1.60576
 20
296.9627
 30
0.0
 11
1.809759999999999
 21
296.6557
 31
0.0
  0
LINE
  5
89
330
1E
100
AcDbEntity
  8
0
100
AcDbLine
 10
1.60576
 20
296.9627
 30
0.0
 11
1.60576
 21
304.3476999999999
 31
0.0
  0
LINE
  5
8A
330
1E
100
AcDbEntity
  8
0
100
AcDbLine
 10
1.60576
 20
304.3476999999999
 30
0.0
 11
1.60576
 21
296.9627
 31
0.0
  0
LINE
  5
8B
330
1E
100
AcDbEntity
  8
0
100
AcDbLine
 10
1.60576
 20
304.3476999999999
 30
0.0
 11
1.809759999999999
 21
304.6557
 31
0.0
  0
LINE
  5
8C
330
1E
100
AcDbEntity
  8
0
100
AcDbLine
 10
1.60576
 20
328.9626999999999
 30
0.0
 11
1.809759999999999
 21
328.6557
 31
0.0
  0
LINE
  5
8D
330
1E
100
AcDbEntity
  8
0
100
AcDbLine
 10
1.60576
 20
328.9626999999999
 30
0.0
 11
1.60576
 21
336.3476999999999
 31
0.0
  0
LINE
  5
8E
330
1E
100
AcDbEntity
  8
0
100
AcDbLine
 10
1.60576
 20
336.3476999999999
 30
0.0
 11
1.60576
 21
328.9626999999999
 31
0.0
  0
LINE
  5
8F
330
1E
100
AcDbEntity
  8
0
100
AcDbLine
 10
1.60576
 20
336.3476999999999
 30
0.0
 11
1.809759999999999
 21
336.6557
 31
0.0
  0
LINE
  5
90
330
1E
100
AcDbEntity
  8
0
100
AcDbLine
 10
1.60576
 20
345.0237
 30
0.0
 11
1.809759999999999
 21
344.7157
 31
0.0
  0
LINE
  5
91
330
1E
100
AcDbEntity
  8
0
100
AcDbLine
 10
1.60576
 20
345.0237
 30
0.0
 11
1.60576
 21
352.4076999999999
 31
0.0
  0
LINE
  5
92
330
1E
100
AcDbEntity
  8
0
100
AcDbLine
 10
1.60576
 20
352.4076999999999
 30
0.0
 11
1.60576
 21
345.0237
 31
0.0
  0
LINE
  5
93
330
1E
100
AcDbEntity
  8
0
100
AcDbLine
 10
1.60576
 20
352.4076999999999
 30
0.0
 11
1.809759999999999
 21
352.7157
 31
0.0
  0
LINE
  5
94
330
1E
100
AcDbEntity
  8
0
100
AcDbLine
 10
1.60576
 20
377.0237
 30
0.0
 11
1.809759999999999
 21
376.7157
 31
0.0
  0
LINE
  5
95
330
1E
100
AcDbEntity
  8
0
100
AcDbLine
 10
1.60576
 20
377.0237
 30
0.0
 11
1.60576
 21
384.4077
 31
0.0
  0
LINE
  5
96
330
1E
100
AcDbEntity
  8
0
100
AcDbLine
 10
1.60576
 20
384.4077
 30
0.0
 11
1.60576
 21
377.0237
 31
0.0
  0
LINE
  5
97
330
1E
100
AcDbEntity
  8
0
100
AcDbLine
 10
1.60576
 20
384.4077
 30
0.0
 11
1.809759999999999
 21
384.7157
 31
0.0
  0
LINE
  5
98
330
1E
100
AcDbEntity
  8
0
100
AcDbLine
 10
1.60576
 20
361.0237
 30
0.0
 11
1.809759999999999
 21
360.7157
 31
0.0
  0
LINE
  5
99
330
1E
100
AcDbEntity
  8
0
100
AcDbLine
 10
1.60576
 20
361.0237
 30
0.0
 11
1.60576
 21
368.4076999999999
 31
0.0
  0
LINE
  5
9A
330
1E
100
AcDbEntity
  8
0
100
AcDbLine
 10
1.60576
 20
368.4076999999999
 30
0.0
 11
1.60576
 21
361.0237
 31
0.0
  0
LINE
  5
9B
330
1E
100
AcDbEntity
  8
0
100
AcDbLine
 10
1.60576
 20
368.4076999999999
 30
0.0
 11
1.809759999999999
 21
368.7157
 31
0.0
  0
LINE
  5
9C
330
1E
100
AcDbEntity
  8
0
100
AcDbLine
 10
1.60576
 20
312.9626999999999
 30
0.0
 11
1.809759999999999
 21
312.6557
 31
0.0
  0
LINE
  5
9D
330
1E
100
AcDbEntity
  8
0
100
AcDbLine
 10
1.60576
 20
312.9626999999999
 30
0.0
 11
1.60576
 21
320.3476999999999
 31
0.0
  0
LINE
  5
9E
330
1E
100
AcDbEntity
  8
0
100
AcDbLine
 10
1.60576
 20
320.3476999999999
 30
0.0
 11
1.60576
 21
312.9626999999999
 31
0.0
  0
LINE
  5
9F
330
1E
100
AcDbEntity
  8
0
100
AcDbLine
 10
1.60576
 20
320.3476999999999
 30
0.0
 11
1.809759999999999
 21
320.6557
 31
0.0
  0
LINE
  5
A0
330
1E
100
AcDbEntity
  8
0
100
AcDbLine
 10
1.60576
 20
281.0237
 30
0.0
 11
1.809759999999999
 21
280.7157
 31
0.0
  0
LINE
  5
A1
330
1E
100
AcDbEntity
  8
0
100
AcDbLine
 10
1.60576
 20
281.0237
 30
0.0
 11
1.60576
 21
288.4076999999999
 31
0.0
  0
LINE
  5
A2
330
1E
100
AcDbEntity
  8
0
100
AcDbLine
 10
1.60576
 20
288.4076999999999
 30
0.0
 11
1.60576
 21
281.0237
 31
0.0
  0
LINE
  5
A3
330
1E
100
AcDbEntity
  8
0
100
AcDbLine
 10
1.60576
 20
288.4076999999999
 30
0.0
 11
1.809759999999999
 21
288.7157
 31
0.0
  0
LINE
  5
A4
330
1E
100
AcDbEntity
  8
0
100
AcDbLine
 10
1.60576
 20
272.4076999999999
 30
0.0
 11
1.60576
 21
265.0237
 31
0.0
  0
LINE
  5
A5
330
1E
100
AcDbEntity
  8
0
100
AcDbLine
 10
1.60576
 20
272.4076999999999
 30
0.0
 11
1.809759999999999
 21
272.7157
 31
0.0
  0
LINE
  5
A8
330
1E
100
AcDbEntity
  8
0
100
AcDbLine
 10
1.58121
 20
128.8297
 30
0.0
 11
1.887209999999999
 21
128.8297
 31
0.0
  0
LINE
  5
AB
330
1E
100
AcDbEntity
  8
0
100
AcDbLine
 10
1.58121
 20
112.8297
 30
0.0
 11
1.887209999999999
 21
112.8297
 31
0.0
  0
LINE
  5
AC
330
1E
100
AcDbEntity
  8
0
100
AcDbLine
 10
1.695479999999999
 20
192.8297
 30
0.0
 11
2.001479999999999
 21
192.8297
 31
0.0
  0
LINE
  5
AD
330
1E
100
AcDbEntity
  8
0
100
AcDbLine
 10
1.695479999999999
 20
184.8297
 30
0.0
 11
2.001479999999999
 21
184.8297
 31
0.0
  0
LINE
  5
AE
330
1E
100
AcDbEntity
  8
0
100
AcDbLine
 10
1.695479999999999
 20
240.8297
 30
0.0
 11
2.001479999999999
 21
240.8297
 31
0.0
  0
LINE
  5
AF
330
1E
100
AcDbEntity
  8
0
100
AcDbLine
 10
1.695479999999999
 20
232.8297
 30
0.0
 11
2.001479999999999
 21
232.8297
 31
0.0
  0
LINE
  5
B0
330
1E
100
AcDbEntity
  8
0
100
AcDbLine
 10
1.695479999999999
 20
256.8297
 30
0.0
 11
2.001479999999999
 21
256.8297
 31
0.0
  0
LINE
  5
B1
330
1E
100
AcDbEntity
  8
0
100
AcDbLine
 10
1.695479999999999
 20
248.8297
 30
0.0
 11
2.001479999999999
 21
248.8297
 31
0.0
  0
LINE
  5
B2
330
1E
100
AcDbEntity
  8
0
100
AcDbLine
 10
1.695479999999999
 20
224.8296999999999
 30
0.0
 11
2.001479999999999
 21
224.8296999999999
 31
0.0
  0
LINE
  5
B3
330
1E
100
AcDbEntity
  8
0
100
AcDbLine
 10
1.695479999999999
 20
216.8296999999999
 30
0.0
 11
2.001479999999999
 21
216.8296999999999
 31
0.0
  0
LINE
  5
B4
330
1E
100
AcDbEntity
  8
0
100
AcDbLine
 10
1.695479999999999
 20
208.8296999999999
 30
0.0
 11
2.001479999999999
 21
208.8296999999999
 31
0.0
  0
LINE
  5
B5
330
1E
100
AcDbEntity
  8
0
100
AcDbLine
 10
1.695479999999999
 20
200.8297
 30
0.0
 11
2.001479999999999
 21
200.8297
 31
0.0
  0
LINE
  5
BA
330
1E
100
AcDbEntity
  8
0
100
AcDbLine
 10
1.544379999999999
 20
32.82999999999999
 30
0.0
 11
2.36038
 21
32.82999999999999
 31
0.0
  0
LINE
  5
BB
330
1E
100
AcDbEntity
  8
0
100
AcDbLine
 10
1.544379999999999
 20
24.83
 30
0.0
 11
2.36038
 21
24.83
 31
0.0
  0
LINE
  5
BC
330
1E
100
AcDbEntity
  8
0
100
AcDbLine
 10
1.544379999999999
 20
24.83
 30
0.0
 11
1.77533982103964
 21
24.83
 31
0.0
  0
LINE
  5
BE
330
1E
100
AcDbEntity
  8
0
100
AcDbLine
 10
1.544379999999999
 20
16.82999999999999
 30
0.0
 11
2.36038
 21
16.82999999999999
 31
0.0
  0
LINE
  5
BF
330
1E
100
AcDbEntity
  8
0
100
AcDbLine
 10
1.23838
 20
16.82999999999999
 30
0.0
 11
1.544379999999999
 21
16.82999999999999
 31
0.0
  0
LINE
  5
C0
330
1E
100
AcDbEntity
  8
0
100
AcDbLine
 10
1.034379999999999
 20
16.5224
 30
0.0
 11
1.034379999999999
 21
9.137699999999989
 31
0.0
  0
LINE
  5
C1
330
1E
100
AcDbEntity
  8
0
100
AcDbLine
 10
1.034379999999999
 20
16.5224
 30
0.0
 11
1.23838
 21
16.82999999999999
 31
0.0
  0
LINE
  5
C2
330
1E
100
AcDbEntity
  8
0
100
AcDbLine
 10
1.76185139989805
 20
16.82999999999999
 30
0.0
 11
1.77533982103964
 21
24.83
 31
0.0
  0
LINE
  5
C3
330
1E
100
AcDbEntity
  8
0
100
AcDbLine
 10
1.78882824218124
 20
32.82999999999999
 30
0.0
 11
1.802316663322839
 21
40.83
 31
0.0
  0
LINE
  5
C4
330
1E
100
AcDbEntity
  8
0
100
AcDbLine
 10
1.772929999999999
 20
80.82970000000001
 30
0.0
 11
2.588929999999999
 21
80.82970000000001
 31
0.0
  0
LINE
  5
C5
330
1E
100
AcDbEntity
  8
0
100
AcDbLine
 10
1.772929999999999
 20
72.8297
 30
0.0
 11
2.588929999999999
 21
72.8297
 31
0.0
  0
LINE
  5
C6
330
1E
100
AcDbEntity
  8
0
100
AcDbLine
 10
1.772929999999999
 20
72.8297
 30
0.0
 11
1.856269842073429
 21
72.8297
 31
0.0
  0
LINE
  5
C7
330
1E
100
AcDbEntity
  8
0
100
AcDbLine
 10
1.772929999999999
 20
96.8297
 30
0.0
 11
2.588929999999999
 21
96.8297
 31
0.0
  0
LINE
  5
C8
330
1E
100
AcDbEntity
  8
0
100
AcDbLine
 10
1.772929999999999
 20
88.8297
 30
0.0
 11
2.588929999999999
 21
88.8297
 31
0.0
  0
LINE
  5
C9
330
1E
100
AcDbEntity
  8
0
100
AcDbLine
 10
1.772929999999999
 20
88.8297
 30
0.0
 11
1.88324668435662
 21
88.8297
 31
0.0
  0
LINE
  5
D2
330
1E
100
AcDbEntity
  8
0
100
AcDbLine
 10
1.809759999999999
 20
304.6557
 30
0.0
 11
2.115759999999999
 21
304.6557
 31
0.0
  0
LINE
  5
D3
330
1E
100
AcDbEntity
  8
0
100
AcDbLine
 10
1.809759999999999
 20
296.6557
 30
0.0
 11
2.115759999999999
 21
296.6557
 31
0.0
  0
LINE
  5
D4
330
1E
100
AcDbEntity
  8
0
100
AcDbLine
 10
1.809759999999999
 20
336.6557
 30
0.0
 11
2.115759999999999
 21
336.6557
 31
0.0
  0
LINE
  5
D5
330
1E
100
AcDbEntity
  8
0
100
AcDbLine
 10
1.809759999999999
 20
328.6557
 30
0.0
 11
2.115759999999999
 21
328.6557
 31
0.0
  0
LINE
  5
D6
330
1E
100
AcDbEntity
  8
0
100
AcDbLine
 10
1.809759999999999
 20
352.7157
 30
0.0
 11
2.115759999999999
 21
352.7157
 31
0.0
  0
LINE
  5
D7
330
1E
100
AcDbEntity
  8
0
100
AcDbLine
 10
1.809759999999999
 20
344.7157
 30
0.0
 11
2.115759999999999
 21
344.7157
 31
0.0
  0
LINE
  5
D8
330
1E
100
AcDbEntity
  8
0
100
AcDbLine
 10
1.809759999999999
 20
384.7157
 30
0.0
 11
2.115759999999999
 21
384.7157
 31
0.0
  0
LINE
  5
D9
330
1E
100
AcDbEntity
  8
0
100
AcDbLine
 10
1.809759999999999
 20
376.7157
 30
0.0
 11
2.115759999999999
 21
376.7157
 31
0.0
  0
LINE
  5
DA
330
1E
100
AcDbEntity
  8
0
100
AcDbLine
 10
1.809759999999999
 20
368.7157
 30
0.0
 11
2.115759999999999
 21
368.7157
 31
0.0
  0
LINE
  5
DB
330
1E
100
AcDbEntity
  8
0
100
AcDbLine
 10
1.809759999999999
 20
360.7157
 30
0.0
 11
2.115759999999999
 21
360.7157
 31
0.0
  0
LINE
  5
DC
330
1E
100
AcDbEntity
  8
0
100
AcDbLine
 10
1.809759999999999
 20
320.6557
 30
0.0
 11
2.115759999999999
 21
320.6557
 31
0.0
  0
LINE
  5
DD
330
1E
100
AcDbEntity
  8
0
100
AcDbLine
 10
1.809759999999999
 20
312.6557
 30
0.0
 11
2.115759999999999
 21
312.6557
 31
0.0
  0
LINE
  5
DE
330
1E
100
AcDbEntity
  8
0
100
AcDbLine
 10
1.809759999999999
 20
288.7157
 30
0.0
 11
2.115759999999999
 21
288.7157
 31
0.0
  0
LINE
  5
DF
330
1E
100
AcDbEntity
  8
0
100
AcDbLine
 10
1.809759999999999
 20
280.7157
 30
0.0
 11
2.115759999999999
 21
280.7157
 31
0.0
  0
LINE
  5
E0
330
1E
100
AcDbEntity
  8
0
100
AcDbLine
 10
1.809759999999999
 20
272.7157
 30
0.0
 11
2.115759999999999
 21
272.7157
 31
0.0
  0
LINE
  5
E1
330
1E
100
AcDbEntity
  8
0
100
AcDbLine
 10
1.809759999999999
 20
264.7157
 30
0.0
 11
2.115759999999999
 21
264.7157
 31
0.0
  0
LINE
  5
E4
330
1E
100
AcDbEntity
  8
0
100
AcDbLine
 10
1.772929999999999
 20
64.8297
 30
0.0
 11
2.588929999999999
 21
64.8297
 31
0.0
  0
LINE
  5
E5
330
1E
100
AcDbEntity
  8
0
100
AcDbLine
 10
1.772929999999999
 20
56.8297
 30
0.0
 11
2.588929999999999
 21
56.8297
 31
0.0
  0
LINE
  5
E6
330
1E
100
AcDbEntity
  8
0
100
AcDbLine
 10
1.772929999999999
 20
56.8297
 30
0.0
 11
1.82929299979023
 21
56.8297
 31
0.0
  0
LINE
  5
E7
330
1E
100
AcDbEntity
  8
0
100
AcDbLine
 10
1.81580508446443
 20
48.83
 30
0.0
 11
1.82929299979023
 21
56.8297
 31
0.0
  0
LINE
  5
E8
330
1E
100
AcDbEntity
  8
0
100
AcDbLine
 10
1.78882824218124
 20
32.82999999999999
 30
0.0
 11
1.802316663322839
 21
40.83
 31
0.0
  0
LINE
  5
E9
330
1E
100
AcDbEntity
  8
0
100
AcDbLine
 10
1.84278142093183
 20
64.8297
 30
0.0
 11
1.856269842073429
 21
72.8297
 31
0.0
  0
LINE
  5
EA
330
1E
100
AcDbEntity
  8
0
100
AcDbLine
 10
1.86975826321502
 20
80.82970000000001
 30
0.0
 11
1.88324668435662
 21
88.8297
 31
0.0
  0
LINE
  5
EB
330
1E
100
AcDbEntity
  8
0
100
AcDbLine
 10
1.84278142093183
 20
64.8297
 30
0.0
 11
1.856269842073429
 21
72.8297
 31
0.0
  0
LINE
  5
EC
330
1E
100
AcDbEntity
  8
0
100
AcDbLine
 10
1.86975826321502
 20
80.82970000000001
 30
0.0
 11
1.88324668435662
 21
88.8297
 31
0.0
  0
LINE
  5
ED
330
1E
100
AcDbEntity
  8
0
100
AcDbLine
 10
1.887209999999999
 20
112.8297
 30
0.0
 11
2.703209999999999
 21
112.8297
 31
0.0
  0
LINE
  5
EE
330
1E
100
AcDbEntity
  8
0
100
AcDbLine
 10
1.887209999999999
 20
104.8297
 30
0.0
 11
2.703209999999999
 21
104.8297
 31
0.0
  0
LINE
  5
EF
330
1E
100
AcDbEntity
  8
0
100
AcDbLine
 10
1.887209999999999
 20
144.8296999999999
 30
0.0
 11
2.703209999999999
 21
144.8296999999999
 31
0.0
  0
LINE
  5
F0
330
1E
100
AcDbEntity
  8
0
100
AcDbLine
 10
1.887209999999999
 20
136.8297
 30
0.0
 11
2.703209999999999
 21
136.8297
 31
0.0
  0
LINE
  5
F1
330
1E
100
AcDbEntity
  8
0
100
AcDbLine
 10
1.887209999999999
 20
136.8297
 30
0.0
 11
1.964177211206189
 21
136.8297
 31
0.0
  0
LINE
  5
F2
330
1E
100
AcDbEntity
  8
0
100
AcDbLine
 10
1.887209999999999
 20
160.8297
 30
0.0
 11
2.703209999999999
 21
160.8297
 31
0.0
  0
LINE
  5
F3
330
1E
100
AcDbEntity
  8
0
100
AcDbLine
 10
1.887209999999999
 20
152.8297
 30
0.0
 11
2.703209999999999
 21
152.8297
 31
0.0
  0
LINE
  5
F4
330
1E
100
AcDbEntity
  8
0
100
AcDbLine
 10
1.887209999999999
 20
152.8297
 30
0.0
 11
1.991154053489379
 21
152.8297
 31
0.0
  0
LINE
  5
F5
330
1E
100
AcDbEntity
  8
0
100
AcDbLine
 10
1.887209999999999
 20
152.8297
 30
0.0
 11
1.991154053489379
 21
152.8297
 31
0.0
  0
LINE
  5
F6
330
1E
100
AcDbEntity
  8
0
100
AcDbLine
 10
1.887209999999999
 20
176.8297
 30
0.0
 11
2.703209999999999
 21
176.8297
 31
0.0
  0
LINE
  5
F7
330
1E
100
AcDbEntity
  8
0
100
AcDbLine
 10
1.887209999999999
 20
168.8297
 30
0.0
 11
2.703209999999999
 21
168.8297
 31
0.0
  0
LINE
  5
F8
330
1E
100
AcDbEntity
  8
0
100
AcDbLine
 10
1.887209999999999
 20
168.8297
 30
0.0
 11
2.01813089577257
 21
168.8297
 31
0.0
  0
LINE
  5
F9
330
1E
100
AcDbEntity
  8
0
100
AcDbLine
 10
1.887209999999999
 20
128.8297
 30
0.0
 11
2.703209999999999
 21
128.8297
 31
0.0
  0
LINE
  5
108
330
1E
100
AcDbEntity
  8
0
100
AcDbLine
 10
1.922759999999999
 20
456.9626999999999
 30
0.0
 11
2.126759999999999
 21
456.6557
 31
0.0
  0
LINE
  5
109
330
1E
100
AcDbEntity
  8
0
100
AcDbLine
 10
1.922759999999999
 20
456.9626999999999
 30
0.0
 11
1.922759999999999
 21
464.3476999999999
 31
0.0
  0
LINE
  5
10A
330
1E
100
AcDbEntity
  8
0
100
AcDbLine
 10
1.922759999999999
 20
473.0237
 30
0.0
 11
2.126759999999999
 21
472.7157
 31
0.0
  0
LINE
  5
10B
330
1E
100
AcDbEntity
  8
0
100
AcDbLine
 10
1.922759999999999
 20
473.0237
 30
0.0
 11
1.922759999999999
 21
480.4076999999999
 31
0.0
  0
LINE
  5
10C
330
1E
100
AcDbEntity
  8
0
100
AcDbLine
 10
1.922759999999999
 20
480.4076999999999
 30
0.0
 11
1.922759999999999
 21
473.0237
 31
0.0
  0
LINE
  5
10D
330
1E
100
AcDbEntity
  8
0
100
AcDbLine
 10
1.922759999999999
 20
480.4076999999999
 30
0.0
 11
2.126759999999999
 21
480.7157
 31
0.0
  0
LINE
  5
10E
330
1E
100
AcDbEntity
  8
0
100
AcDbLine
 10
1.922759999999999
 20
489.0236999999999
 30
0.0
 11
2.126759999999999
 21
488.7157
 31
0.0
  0
LINE
  5
10F
330
1E
100
AcDbEntity
  8
0
100
AcDbLine
 10
1.922759999999999
 20
489.0236999999999
 30
0.0
 11
1.922759999999999
 21
496.4076999999999
 31
0.0
  0
LINE
  5
110
330
1E
100
AcDbEntity
  8
0
100
AcDbLine
 10
1.922759999999999
 20
496.4076999999999
 30
0.0
 11
1.922759999999999
 21
489.0236999999999
 31
0.0
  0
LINE
  5
111
330
1E
100
AcDbEntity
  8
0
100
AcDbLine
 10
1.922759999999999
 20
496.4076999999999
 30
0.0
 11
2.126759999999999
 21
496.7157
 31
0.0
  0
LINE
  5
112
330
1E
100
AcDbEntity
  8
0
100
AcDbLine
 10
1.922759999999999
 20
464.3476999999999
 30
0.0
 11
1.922759999999999
 21
456.9626999999999
 31
0.0
  0
LINE
  5
113
330
1E
100
AcDbEntity
  8
0
100
AcDbLine
 10
1.922759999999999
 20
464.3476999999999
 30
0.0
 11
2.126759999999999
 21
464.6557
 31
0.0
  0
LINE
  5
116
330
1E
100
AcDbEntity
  8
0
100
AcDbLine
 10
1.887209999999999
 20
120.8296999999999
 30
0.0
 11
2.703209999999999
 21
120.8296999999999
 31
0.0
  0
LINE
  5
117
330
1E
100
AcDbEntity
  8
0
100
AcDbLine
 10
1.923711947781399
 20
112.8297
 30
0.0
 11
1.937200368923
 21
120.8296999999999
 31
0.0
  0
LINE
  5
118
330
1E
100
AcDbEntity
  8
0
100
AcDbLine
 10
1.9506887900646
 20
128.8297
 30
0.0
 11
1.964177211206189
 21
136.8297
 31
0.0
  0
LINE
  5
119
330
1E
100
AcDbEntity
  8
0
100
AcDbLine
 10
1.9506887900646
 20
128.8297
 30
0.0
 11
1.964177211206189
 21
136.8297
 31
0.0
  0
LINE
  5
11A
330
1E
100
AcDbEntity
  8
0
100
AcDbLine
 10
1.977665632347789
 20
144.8296999999999
 30
0.0
 11
1.991154053489379
 21
152.8297
 31
0.0
  0
LINE
  5
11B
330
1E
100
AcDbEntity
  8
0
100
AcDbLine
 10
1.977665632347789
 20
144.8296999999999
 30
0.0
 11
1.991154053489379
 21
152.8297
 31
0.0
  0
LINE
  5
11C
330
1E
100
AcDbEntity
  8
0
100
AcDbLine
 10
1.923711947781399
 20
112.8297
 30
0.0
 11
1.937200368923
 21
120.8296999999999
 31
0.0
  0
LINE
  5
11D
330
1E
100
AcDbEntity
  8
0
100
AcDbLine
 10
1.896735105498209
 20
96.8297
 30
0.0
 11
1.91022352663981
 21
104.8297
 31
0.0
  0
LINE
  5
11E
330
1E
100
AcDbEntity
  8
0
100
AcDbLine
 10
1.81580508446443
 20
48.83
 30
0.0
 11
1.82929299979023
 21
56.8297
 31
0.0
  0
LINE
  5
11F
330
1E
100
AcDbEntity
  8
0
100
AcDbLine
 10
1.76185139989805
 20
16.82999999999999
 30
0.0
 11
1.77533982103964
 21
24.83
 31
0.0
  0
LINE
  5
120
330
1E
100
AcDbEntity
  8
0
100
AcDbLine
 10
1.73342
 20
-0.0326999999999911
 30
0.0
 11
1.748363147361719
 21
8.83009999999999
 31
0.0
  0
LINE
  5
121
330
1E
100
AcDbEntity
  8
0
100
AcDbLine
 10
1.73342
 20
-0.0327000000000232
 30
0.0
 11
1.996529999999999
 21
0.0961999999999857
 31
0.0
  0
LINE
  5
122
330
1E
100
AcDbEntity
  8
0
100
AcDbLine
 10
1.73342
 20
-0.0327000000000232
 30
0.0
 11
1.748363147361719
 21
8.83009999999999
 31
0.0
  0
LINE
  5
123
330
1E
100
AcDbEntity
  8
0
100
AcDbLine
 10
2.001479999999999
 20
192.8297
 30
0.0
 11
2.817479999999999
 21
192.8297
 31
0.0
  0
LINE
  5
124
330
1E
100
AcDbEntity
  8
0
100
AcDbLine
 10
2.001479999999999
 20
184.8297
 30
0.0
 11
2.817479999999999
 21
184.8297
 31
0.0
  0
LINE
  5
125
330
1E
100
AcDbEntity
  8
0
100
AcDbLine
 10
2.004642474630979
 20
160.8297
 30
0.0
 11
2.01813089577257
 21
168.8297
 31
0.0
  0
LINE
  5
126
330
1E
100
AcDbEntity
  8
0
100
AcDbLine
 10
2.36038
 20
8.83009999999999
 30
0.0
 11
3.68638
 21
8.83009999999999
 31
0.0
  0
LINE
  5
12B
330
1E
100
AcDbEntity
  8
0
100
AcDbLine
 10
2.36038
 20
48.83
 30
0.0
 11
3.68638
 21
48.83
 31
0.0
  0
LINE
  5
12C
330
1E
100
AcDbEntity
  8
0
100
AcDbLine
 10
2.36038
 20
40.83
 30
0.0
 11
3.68638
 21
40.83
 31
0.0
  0
LINE
  5
12D
330
1E
100
AcDbEntity
  8
0
100
AcDbLine
 10
2.36038
 20
32.82999999999999
 30
0.0
 11
3.68638
 21
32.82999999999999
 31
0.0
  0
LINE
  5
134
330
1E
100
AcDbEntity
  8
0
100
AcDbLine
 10
2.36038
 20
24.83
 30
0.0
 11
3.68638
 21
24.83
 31
0.0
  0
LINE
  5
135
330
1E
100
AcDbEntity
  8
0
100
AcDbLine
 10
2.36038
 20
16.82999999999999
 30
0.0
 11
3.68638
 21
16.82999999999999
 31
0.0
  0
LINE
  5
138
330
1E
100
AcDbEntity
  8
0
100
AcDbLine
 10
2.031619316914169
 20
176.8297
 30
0.0
 11
2.045107738055759
 21
184.8297
 31
0.0
  0
LINE
  5
139
330
1E
100
AcDbEntity
  8
0
100
AcDbLine
 10
2.058596159197359
 20
192.8297
 30
0.0
 11
2.072084580338959
 21
200.8297
 31
0.0
  0
LINE
  5
13A
330
1E
100
AcDbEntity
  8
0
100
AcDbLine
 10
2.031619316914169
 20
176.8297
 30
0.0
 11
2.045107738055759
 21
184.8297
 31
0.0
  0
LINE
  5
13B
330
1E
100
AcDbEntity
  8
0
100
AcDbLine
 10
2.004642474630979
 20
160.8297
 30
0.0
 11
2.01813089577257
 21
168.8297
 31
0.0
  0
LINE
  5
13C
330
1E
100
AcDbEntity
  8
0
100
AcDbLine
 10
2.001479999999999
 20
240.8297
 30
0.0
 11
2.817479999999999
 21
240.8297
 31
0.0
  0
LINE
  5
13D
330
1E
100
AcDbEntity
  8
0
100
AcDbLine
 10
2.001479999999999
 20
232.8297
 30
0.0
 11
2.817479999999999
 21
232.8297
 31
0.0
  0
LINE
  5
13E
330
1E
100
AcDbEntity
  8
0
100
AcDbLine
 10
2.001479999999999
 20
232.8297
 30
0.0
 11
2.12603826490534
 21
232.8297
 31
0.0
  0
LINE
  5
13F
330
1E
100
AcDbEntity
  8
0
100
AcDbLine
 10
2.001479999999999
 20
256.8297
 30
0.0
 11
2.817479999999999
 21
256.8297
 31
0.0
  0
LINE
  5
140
330
1E
100
AcDbEntity
  8
0
100
AcDbLine
 10
2.001479999999999
 20
248.8297
 30
0.0
 11
2.817479999999999
 21
248.8297
 31
0.0
  0
LINE
  5
141
330
1E
100
AcDbEntity
  8
0
100
AcDbLine
 10
2.001479999999999
 20
248.8297
 30
0.0
 11
2.153015107188529
 21
248.8297
 31
0.0
  0
LINE
  5
142
330
1E
100
AcDbEntity
  8
0
100
AcDbLine
 10
2.001479999999999
 20
224.8296999999999
 30
0.0
 11
2.817479999999999
 21
224.8296999999999
 31
0.0
  0
LINE
  5
143
330
1E
100
AcDbEntity
  8
0
100
AcDbLine
 10
2.001479999999999
 20
216.8296999999999
 30
0.0
 11
2.817479999999999
 21
216.8296999999999
 31
0.0
  0
LINE
  5
144
330
1E
100
AcDbEntity
  8
0
100
AcDbLine
 10
2.001479999999999
 20
216.8296999999999
 30
0.0
 11
2.09906142262215
 21
216.8296999999999
 31
0.0
  0
LINE
  5
145
330
1E
100
AcDbEntity
  8
0
100
AcDbLine
 10
2.028429999999999
 20
392.8577
 30
0.0
 11
2.232429999999999
 21
392.5497
 31
0.0
  0
LINE
  5
146
330
1E
100
AcDbEntity
  8
0
100
AcDbLine
 10
2.028429999999999
 20
392.8577
 30
0.0
 11
2.028429999999999
 21
400.2416999999999
 31
0.0
  0
LINE
  5
147
330
1E
100
AcDbEntity
  8
0
100
AcDbLine
 10
2.028429999999999
 20
400.2416999999999
 30
0.0
 11
2.028429999999999
 21
392.8577
 31
0.0
  0
LINE
  5
148
330
1E
100
AcDbEntity
  8
0
100
AcDbLine
 10
2.028429999999999
 20
400.2416999999999
 30
0.0
 11
2.232429999999999
 21
400.5497
 31
0.0
  0
LINE
  5
149
330
1E
100
AcDbEntity
  8
0
100
AcDbLine
 10
2.028429999999999
 20
408.9177
 30
0.0
 11
2.232429999999999
 21
408.6096999999999
 31
0.0
  0
LINE
  5
14A
330
1E
100
AcDbEntity
  8
0
100
AcDbLine
 10
2.028429999999999
 20
408.9177
 30
0.0
 11
2.028429999999999
 21
416.3027
 31
0.0
  0
LINE
  5
14B
330
1E
100
AcDbEntity
  8
0
100
AcDbLine
 10
2.028429999999999
 20
424.9177
 30
0.0
 11
2.232429999999999
 21
424.6096999999999
 31
0.0
  0
LINE
  5
14C
330
1E
100
AcDbEntity
  8
0
100
AcDbLine
 10
2.028429999999999
 20
424.9177
 30
0.0
 11
2.028429999999999
 21
432.3027
 31
0.0
  0
LINE
  5
14D
330
1E
100
AcDbEntity
  8
0
100
AcDbLine
 10
2.028429999999999
 20
432.3027
 30
0.0
 11
2.028429999999999
 21
424.9177
 31
0.0
  0
LINE
  5
14E
330
1E
100
AcDbEntity
  8
0
100
AcDbLine
 10
2.028429999999999
 20
432.3027
 30
0.0
 11
2.232429999999999
 21
432.6096999999999
 31
0.0
  0
LINE
  5
14F
330
1E
100
AcDbEntity
  8
0
100
AcDbLine
 10
2.028429999999999
 20
416.3027
 30
0.0
 11
2.028429999999999
 21
408.9177
 31
0.0
  0
LINE
  5
150
330
1E
100
AcDbEntity
  8
0
100
AcDbLine
 10
2.028429999999999
 20
416.3027
 30
0.0
 11
2.232429999999999
 21
416.6096999999999
 31
0.0
  0
LINE
  5
151
330
1E
100
AcDbEntity
  8
0
100
AcDbLine
 10
2.028429999999999
 20
440.9177
 30
0.0
 11
2.232429999999999
 21
440.6096999999999
 31
0.0
  0
LINE
  5
152
330
1E
100
AcDbEntity
  8
0
100
AcDbLine
 10
2.028429999999999
 20
440.9177
 30
0.0
 11
2.028429999999999
 21
448.3026999999999
 31
0.0
  0
LINE
  5
153
330
1E
100
AcDbEntity
  8
0
100
AcDbLine
 10
2.028429999999999
 20
521.0596999999999
 30
0.0
 11
2.232429999999999
 21
520.7526999999999
 31
0.0
  0
LINE
  5
154
330
1E
100
AcDbEntity
  8
0
100
AcDbLine
 10
2.028429999999999
 20
521.0596999999999
 30
0.0
 11
2.028429999999999
 21
528.4376999999999
 31
0.0
  0
LINE
  5
155
330
1E
100
AcDbEntity
  8
0
100
AcDbLine
 10
2.028429999999999
 20
528.4376999999999
 30
0.0
 11
2.028429999999999
 21
521.0596999999999
 31
0.0
  0
LINE
  5
156
330
1E
100
AcDbEntity
  8
0
100
AcDbLine
 10
2.028429999999999
 20
528.4376999999999
 30
0.0
 11
2.232429999999999
 21
528.7446999999999
 31
0.0
  0
LINE
  5
157
330
1E
100
AcDbEntity
  8
0
100
AcDbLine
 10
2.028429999999999
 20
607.6926999999999
 30
0.0
 11
2.028429999999999
 21
600.4887
 31
0.0
  0
LINE
  5
158
330
1E
100
AcDbEntity
  8
0
100
AcDbLine
 10
2.028429999999999
 20
607.6926999999999
 30
0.0
 11
2.334429999999999
 21
608.1707
 31
0.0
  0
LINE
  5
159
330
1E
100
AcDbEntity
  8
0
100
AcDbLine
 10
2.028429999999999
 20
600.4887
 30
0.0
 11
2.334429999999999
 21
600.0107
 31
0.0
  0
LINE
  5
15A
330
1E
100
AcDbEntity
  8
0
100
AcDbLine
 10
2.028429999999999
 20
600.4887
 30
0.0
 11
2.028429999999999
 21
607.6926999999999
 31
0.0
  0
LINE
  5
15B
330
1E
100
AcDbEntity
  8
0
100
AcDbLine
 10
2.028429999999999
 20
636.3126999999999
 30
0.0
 11
2.028429999999999
 21
629.2807
 31
0.0
  0
LINE
  5
15C
330
1E
100
AcDbEntity
  8
0
100
AcDbLine
 10
2.028429999999999
 20
636.3126999999999
 30
0.0
 11
2.334429999999999
 21
636.9777
 31
0.0
  0
LINE
  5
15D
330
1E
100
AcDbEntity
  8
0
100
AcDbLine
 10
2.028429999999999
 20
629.2807
 30
0.0
 11
2.334429999999999
 21
628.6167
 31
0.0
  0
LINE
  5
15E
330
1E
100
AcDbEntity
  8
0
100
AcDbLine
 10
2.028429999999999
 20
629.2807
 30
0.0
 11
2.028429999999999
 21
636.3126999999999
 31
0.0
  0
LINE
  5
15F
330
1E
100
AcDbEntity
  8
0
100
AcDbLine
 10
2.028429999999999
 20
622.2197
 30
0.0
 11
2.028429999999999
 21
615.0357
 31
0.0
  0
LINE
  5
160
330
1E
100
AcDbEntity
  8
0
100
AcDbLine
 10
2.028429999999999
 20
622.2197
 30
0.0
 11
2.334429999999999
 21
622.7237
 31
0.0
  0
LINE
  5
161
330
1E
100
AcDbEntity
  8
0
100
AcDbLine
 10
2.028429999999999
 20
615.0357
 30
0.0
 11
2.334429999999999
 21
614.5317
 31
0.0
  0
LINE
  5
162
330
1E
100
AcDbEntity
  8
0
100
AcDbLine
 10
2.028429999999999
 20
615.0357
 30
0.0
 11
2.028429999999999
 21
622.2197
 31
0.0
  0
LINE
  5
163
330
1E
100
AcDbEntity
  8
0
100
AcDbLine
 10
2.028429999999999
 20
585.9827
 30
0.0
 11
2.232429999999999
 21
585.6787
 31
0.0
  0
LINE
  5
164
330
1E
100
AcDbEntity
  8
0
100
AcDbLine
 10
2.028429999999999
 20
585.9827
 30
0.0
 11
2.028429999999999
 21
593.2667
 31
0.0
  0
LINE
  5
165
330
1E
100
AcDbEntity
  8
0
100
AcDbLine
 10
2.028429999999999
 20
593.2667
 30
0.0
 11
2.028429999999999
 21
585.9827
 31
0.0
  0
LINE
  5
166
330
1E
100
AcDbEntity
  8
0
100
AcDbLine
 10
2.028429999999999
 20
593.2667
 30
0.0
 11
2.232429999999999
 21
593.5706999999999
 31
0.0
  0
LINE
  5
167
330
1E
100
AcDbEntity
  8
0
100
AcDbLine
 10
2.028429999999999
 20
571.2347
 30
0.0
 11
2.232429999999999
 21
570.9306999999999
 31
0.0
  0
LINE
  5
168
330
1E
100
AcDbEntity
  8
0
100
AcDbLine
 10
2.028429999999999
 20
571.2347
 30
0.0
 11
2.028429999999999
 21
578.5336999999999
 31
0.0
  0
LINE
  5
169
330
1E
100
AcDbEntity
  8
0
100
AcDbLine
 10
2.028429999999999
 20
578.5336999999999
 30
0.0
 11
2.028429999999999
 21
571.2347
 31
0.0
  0
LINE
  5
16A
330
1E
100
AcDbEntity
  8
0
100
AcDbLine
 10
2.028429999999999
 20
578.5336999999999
 30
0.0
 11
2.232429999999999
 21
578.8377
 31
0.0
  0
LINE
  5
16B
330
1E
100
AcDbEntity
  8
0
100
AcDbLine
 10
2.028429999999999
 20
554.1726999999999
 30
0.0
 11
2.232429999999999
 21
553.8676999999999
 31
0.0
  0
LINE
  5
16C
330
1E
100
AcDbEntity
  8
0
100
AcDbLine
 10
2.028429999999999
 20
554.1726999999999
 30
0.0
 11
2.028429999999999
 21
561.4847
 31
0.0
  0
LINE
  5
16D
330
1E
100
AcDbEntity
  8
0
100
AcDbLine
 10
2.028429999999999
 20
561.4847
 30
0.0
 11
2.028429999999999
 21
554.1726999999999
 31
0.0
  0
LINE
  5
16E
330
1E
100
AcDbEntity
  8
0
100
AcDbLine
 10
2.028429999999999
 20
561.4847
 30
0.0
 11
2.232429999999999
 21
561.7897
 31
0.0
  0
LINE
  5
16F
330
1E
100
AcDbEntity
  8
0
100
AcDbLine
 10
2.028429999999999
 20
537.3907
 30
0.0
 11
2.232429999999999
 21
537.0837
 31
0.0
  0
LINE
  5
170
330
1E
100
AcDbEntity
  8
0
100
AcDbLine
 10
2.028429999999999
 20
537.3907
 30
0.0
 11
2.028429999999999
 21
544.7657
 31
0.0
  0
LINE
  5
171
330
1E
100
AcDbEntity
  8
0
100
AcDbLine
 10
2.028429999999999
 20
544.7657
 30
0.0
 11
2.028429999999999
 21
537.3907
 31
0.0
  0
LINE
  5
172
330
1E
100
AcDbEntity
  8
0
100
AcDbLine
 10
2.028429999999999
 20
544.7657
 30
0.0
 11
2.232429999999999
 21
545.0727
 31
0.0
  0
LINE
  5
173
330
1E
100
AcDbEntity
  8
0
100
AcDbLine
 10
2.028429999999999
 20
504.9177
 30
0.0
 11
2.232429999999999
 21
504.6096999999999
 31
0.0
  0
LINE
  5
174
330
1E
100
AcDbEntity
  8
0
100
AcDbLine
 10
2.028429999999999
 20
504.9177
 30
0.0
 11
2.028429999999999
 21
512.3026999999999
 31
0.0
  0
LINE
  5
175
330
1E
100
AcDbEntity
  8
0
100
AcDbLine
 10
2.028429999999999
 20
512.3026999999999
 30
0.0
 11
2.028429999999999
 21
504.9177
 31
0.0
  0
LINE
  5
176
330
1E
100
AcDbEntity
  8
0
100
AcDbLine
 10
2.028429999999999
 20
512.3026999999999
 30
0.0
 11
2.232429999999999
 21
512.6096999999999
 31
0.0
  0
LINE
  5
177
330
1E
100
AcDbEntity
  8
0
100
AcDbLine
 10
2.028429999999999
 20
448.3026999999999
 30
0.0
 11
2.028429999999999
 21
440.9177
 31
0.0
  0
LINE
  5
178
330
1E
100
AcDbEntity
  8
0
100
AcDbLine
 10
2.028429999999999
 20
448.3026999999999
 30
0.0
 11
2.232429999999999
 21
448.6097
 31
0.0
  0
LINE
  5
179
330
1E
100
AcDbEntity
  8
0
100
AcDbLine
 10
2.001479999999999
 20
208.8296999999999
 30
0.0
 11
2.817479999999999
 21
208.8296999999999
 31
0.0
  0
LINE
  5
17A
330
1E
100
AcDbEntity
  8
0
100
AcDbLine
 10
2.001479999999999
 20
200.8297
 30
0.0
 11
2.817479999999999
 21
200.8297
 31
0.0
  0
LINE
  5
17B
330
1E
100
AcDbEntity
  8
0
100
AcDbLine
 10
2.001479999999999
 20
200.8297
 30
0.0
 11
2.072084580338959
 21
200.8297
 31
0.0
  0
LINE
  5
17C
330
1E
100
AcDbEntity
  8
0
100
AcDbLine
 10
2.11254984376374
 20
224.8296999999999
 30
0.0
 11
2.12603826490534
 21
232.8297
 31
0.0
  0
LINE
  5
17D
330
1E
100
AcDbEntity
  8
0
100
AcDbLine
 10
2.115759999999999
 20
304.6557
 30
0.0
 11
2.931759999999999
 21
304.6557
 31
0.0
  0
LINE
  5
17E
330
1E
100
AcDbEntity
  8
0
100
AcDbLine
 10
2.115759999999999
 20
296.6557
 30
0.0
 11
2.931759999999999
 21
296.6557
 31
0.0
  0
LINE
  5
17F
330
1E
100
AcDbEntity
  8
0
100
AcDbLine
 10
2.115759999999999
 20
296.6557
 30
0.0
 11
2.233652260878269
 21
296.6557
 31
0.0
  0
LINE
  5
180
330
1E
100
AcDbEntity
  8
0
100
AcDbLine
 10
2.115759999999999
 20
336.6557
 30
0.0
 11
2.931759999999999
 21
336.6557
 31
0.0
  0
LINE
  5
181
330
1E
100
AcDbEntity
  8
0
100
AcDbLine
 10
2.115759999999999
 20
328.6557
 30
0.0
 11
2.931759999999999
 21
328.6557
 31
0.0
  0
LINE
  5
182
330
1E
100
AcDbEntity
  8
0
100
AcDbLine
 10
2.115759999999999
 20
328.6557
 30
0.0
 11
2.28760594544466
 21
328.6557
 31
0.0
  0
LINE
  5
183
330
1E
100
AcDbEntity
  8
0
100
AcDbLine
 10
2.115759999999999
 20
352.7157
 30
0.0
 11
2.931759999999999
 21
352.7157
 31
0.0
  0
LINE
  5
184
330
1E
100
AcDbEntity
  8
0
100
AcDbLine
 10
2.115759999999999
 20
344.7157
 30
0.0
 11
2.931759999999999
 21
344.7157
 31
0.0
  0
LINE
  5
185
330
1E
100
AcDbEntity
  8
0
100
AcDbLine
 10
2.115759999999999
 20
344.7157
 30
0.0
 11
2.31468395088641
 21
344.7157
 31
0.0
  0
LINE
  5
186
330
1E
100
AcDbEntity
  8
0
100
AcDbLine
 10
2.115759999999999
 20
384.7157
 30
0.0
 11
2.931759999999999
 21
384.7157
 31
0.0
  0
LINE
  5
187
330
1E
100
AcDbEntity
  8
0
100
AcDbLine
 10
2.115759999999999
 20
376.7157
 30
0.0
 11
2.931759999999999
 21
376.7157
 31
0.0
  0
LINE
  5
188
330
1E
100
AcDbEntity
  8
0
100
AcDbLine
 10
2.115759999999999
 20
376.7157
 30
0.0
 11
2.36863763545279
 21
376.7157
 31
0.0
  0
LINE
  5
189
330
1E
100
AcDbEntity
  8
0
100
AcDbLine
 10
2.115759999999999
 20
368.7157
 30
0.0
 11
2.931759999999999
 21
368.7157
 31
0.0
  0
LINE
  5
18A
330
1E
100
AcDbEntity
  8
0
100
AcDbLine
 10
2.115759999999999
 20
360.7157
 30
0.0
 11
2.931759999999999
 21
360.7157
 31
0.0
  0
LINE
  5
18B
330
1E
100
AcDbEntity
  8
0
100
AcDbLine
 10
2.115759999999999
 20
360.7157
 30
0.0
 11
2.341660793169599
 21
360.7157
 31
0.0
  0
LINE
  5
18C
330
1E
100
AcDbEntity
  8
0
100
AcDbLine
 10
2.115759999999999
 20
320.6557
 30
0.0
 11
2.931759999999999
 21
320.6557
 31
0.0
  0
LINE
  5
18D
330
1E
100
AcDbEntity
  8
0
100
AcDbLine
 10
2.115759999999999
 20
312.6557
 30
0.0
 11
2.931759999999999
 21
312.6557
 31
0.0
  0
LINE
  5
18E
330
1E
100
AcDbEntity
  8
0
100
AcDbLine
 10
2.115759999999999
 20
312.6557
 30
0.0
 11
2.26062910316146
 21
312.6557
 31
0.0
  0
LINE
  5
18F
330
1E
100
AcDbEntity
  8
0
100
AcDbLine
 10
2.115759999999999
 20
288.7157
 30
0.0
 11
2.931759999999999
 21
288.7157
 31
0.0
  0
LINE
  5
190
330
1E
100
AcDbEntity
  8
0
100
AcDbLine
 10
2.115759999999999
 20
280.7157
 30
0.0
 11
2.931759999999999
 21
280.7157
 31
0.0
  0
LINE
  5
191
330
1E
100
AcDbEntity
  8
0
100
AcDbLine
 10
2.115759999999999
 20
280.7157
 30
0.0
 11
2.206776581753639
 21
280.7157
 31
0.0
  0
LINE
  5
192
330
1E
100
AcDbEntity
  8
0
100
AcDbLine
 10
2.126759999999999
 20
480.7157
 30
0.0
 11
2.43276
 21
480.7157
 31
0.0
  0
LINE
  5
193
330
1E
100
AcDbEntity
  8
0
100
AcDbLine
 10
2.126759999999999
 20
472.7157
 30
0.0
 11
2.43276
 21
472.7157
 31
0.0
  0
LINE
  5
194
330
1E
100
AcDbEntity
  8
0
100
AcDbLine
 10
2.126759999999999
 20
496.7157
 30
0.0
 11
2.43276
 21
496.7157
 31
0.0
  0
LINE
  5
195
330
1E
100
AcDbEntity
  8
0
100
AcDbLine
 10
2.126759999999999
 20
488.7157
 30
0.0
 11
2.43276
 21
488.7157
 31
0.0
  0
LINE
  5
196
330
1E
100
AcDbEntity
  8
0
100
AcDbLine
 10
2.126759999999999
 20
464.6557
 30
0.0
 11
2.43276
 21
464.6557
 31
0.0
  0
LINE
  5
197
330
1E
100
AcDbEntity
  8
0
100
AcDbLine
 10
2.126759999999999
 20
456.6557
 30
0.0
 11
2.43276
 21
456.6557
 31
0.0
  0
LINE
  5
198
330
1E
100
AcDbEntity
  8
0
100
AcDbLine
 10
2.115759999999999
 20
272.7157
 30
0.0
 11
2.931759999999999
 21
272.7157
 31
0.0
  0
LINE
  5
199
330
1E
100
AcDbEntity
  8
0
100
AcDbLine
 10
2.115759999999999
 20
264.7157
 30
0.0
 11
2.931759999999999
 21
264.7157
 31
0.0
  0
LINE
  5
19A
330
1E
100
AcDbEntity
  8
0
100
AcDbLine
 10
2.115759999999999
 20
264.7157
 30
0.0
 11
2.179799739470449
 21
264.7157
 31
0.0
  0
LINE
  5
19B
330
1E
100
AcDbEntity
  8
0
100
AcDbLine
 10
2.193288160612049
 20
272.7157
 30
0.0
 11
2.206776581753639
 21
280.7157
 31
0.0
  0
LINE
  5
19C
330
1E
100
AcDbEntity
  8
0
100
AcDbLine
 10
2.232429999999999
 20
400.5497
 30
0.0
 11
2.538429999999999
 21
400.5497
 31
0.0
  0
LINE
  5
19D
330
1E
100
AcDbEntity
  8
0
100
AcDbLine
 10
2.232429999999999
 20
392.5497
 30
0.0
 11
2.538429999999999
 21
392.5497
 31
0.0
  0
LINE
  5
19E
330
1E
100
AcDbEntity
  8
0
100
AcDbLine
 10
2.232429999999999
 20
392.5497
 30
0.0
 11
2.39533459299729
 21
392.5497
 31
0.0
  0
LINE
  5
19F
330
1E
100
AcDbEntity
  8
0
100
AcDbLine
 10
2.232429999999999
 20
432.6096999999999
 30
0.0
 11
2.538429999999999
 21
432.6096999999999
 31
0.0
  0
LINE
  5
1A0
330
1E
100
AcDbEntity
  8
0
100
AcDbLine
 10
2.232429999999999
 20
424.6096999999999
 30
0.0
 11
2.538429999999999
 21
424.6096999999999
 31
0.0
  0
LINE
  5
1A1
330
1E
100
AcDbEntity
  8
0
100
AcDbLine
 10
2.232429999999999
 20
424.6096999999999
 30
0.0
 11
2.44938944072224
 21
424.6096999999999
 31
0.0
  0
LINE
  5
1A2
330
1E
100
AcDbEntity
  8
0
100
AcDbLine
 10
2.232429999999999
 20
424.6096999999999
 30
0.0
 11
2.44938944072224
 21
424.6096999999999
 31
0.0
  0
LINE
  5
1A3
330
1E
100
AcDbEntity
  8
0
100
AcDbLine
 10
2.232429999999999
 20
416.6096999999999
 30
0.0
 11
2.538429999999999
 21
416.6096999999999
 31
0.0
  0
LINE
  5
1A4
330
1E
100
AcDbEntity
  8
0
100
AcDbLine
 10
2.232429999999999
 20
408.6096999999999
 30
0.0
 11
2.538429999999999
 21
408.6096999999999
 31
0.0
  0
LINE
  5
1A5
330
1E
100
AcDbEntity
  8
0
100
AcDbLine
 10
2.232429999999999
 20
408.6096999999999
 30
0.0
 11
2.422412598439049
 21
408.6096999999999
 31
0.0
  0
LINE
  5
1AA
330
1E
100
AcDbEntity
  8
0
100
AcDbLine
 10
2.232429999999999
 20
528.7446999999999
 30
0.0
 11
2.538429999999999
 21
528.6516999999999
 31
0.0
  0
LINE
  5
1AB
330
1E
100
AcDbEntity
  8
0
100
AcDbLine
 10
2.232429999999999
 20
528.7446999999999
 30
0.0
 11
2.538429999999999
 21
528.8377
 31
0.0
  0
LINE
  5
1AC
330
1E
100
AcDbEntity
  8
0
100
AcDbLine
 10
2.232429999999999
 20
520.7526999999999
 30
0.0
 11
2.538429999999999
 21
520.6597
 31
0.0
  0
LINE
  5
1AD
330
1E
100
AcDbEntity
  8
0
100
AcDbLine
 10
2.232429999999999
 20
607.9927
 30
0.0
 11
2.538429999999999
 21
607.5226999999999
 31
0.0
  0
LINE
  5
1AE
330
1E
100
AcDbEntity
  8
0
100
AcDbLine
 10
2.232429999999999
 20
607.9927
 30
0.0
 11
2.528254665777379
 21
608.448037965951
 31
0.0
  0
LINE
  5
1AF
330
1E
100
AcDbEntity
  8
0
100
AcDbLine
 10
2.232429999999999
 20
636.6056999999999
 30
0.0
 11
2.538429999999999
 21
635.9516999999999
 31
0.0
  0
LINE
  5
1B0
330
1E
100
AcDbEntity
  8
0
100
AcDbLine
 10
2.232429999999999
 20
636.6056999999999
 30
0.0
 11
2.461501043714999
 21
637.095283211077
 31
0.0
  0
LINE
  5
1B1
330
1E
100
AcDbEntity
  8
0
100
AcDbLine
 10
2.232429999999999
 20
622.5196999999999
 30
0.0
 11
2.538429999999999
 21
622.0227
 31
0.0
  0
LINE
  5
1B2
330
1E
100
AcDbEntity
  8
0
100
AcDbLine
 10
2.232429999999999
 20
622.5196999999999
 30
0.0
 11
2.49711777140972
 21
622.948736387645
 31
0.0
  0
LINE
  5
1B3
330
1E
100
AcDbEntity
  8
0
100
AcDbLine
 10
2.232429999999999
 20
593.5706999999999
 30
0.0
 11
2.538429999999999
 21
593.2197
 31
0.0
  0
LINE
  5
1B4
330
1E
100
AcDbEntity
  8
0
100
AcDbLine
 10
2.232429999999999
 20
593.5706999999999
 30
0.0
 11
2.538429999999999
 21
593.9217
 31
0.0
  0
LINE
  5
1B5
330
1E
100
AcDbEntity
  8
0
100
AcDbLine
 10
2.232429999999999
 20
585.6787
 30
0.0
 11
2.538429999999999
 21
585.3277
 31
0.0
  0
LINE
  5
1B6
330
1E
100
AcDbEntity
  8
0
100
AcDbLine
 10
2.232429999999999
 20
578.8377
 30
0.0
 11
2.538429999999999
 21
578.5127
 31
0.0
  0
LINE
  5
1B7
330
1E
100
AcDbEntity
  8
0
100
AcDbLine
 10
2.232429999999999
 20
578.8377
 30
0.0
 11
2.538429999999999
 21
579.1627
 31
0.0
  0
LINE
  5
1B8
330
1E
100
AcDbEntity
  8
0
100
AcDbLine
 10
2.232429999999999
 20
570.9306999999999
 30
0.0
 11
2.538429999999999
 21
570.6056999999999
 31
0.0
  0
LINE
  5
1B9
330
1E
100
AcDbEntity
  8
0
100
AcDbLine
 10
2.232429999999999
 20
561.7897
 30
0.0
 11
2.538429999999999
 21
561.4917
 31
0.0
  0
LINE
  5
1BA
330
1E
100
AcDbEntity
  8
0
100
AcDbLine
 10
2.232429999999999
 20
561.7897
 30
0.0
 11
2.538429999999999
 21
562.0877
 31
0.0
  0
LINE
  5
1BB
330
1E
100
AcDbEntity
  8
0
100
AcDbLine
 10
2.232429999999999
 20
553.8676999999999
 30
0.0
 11
2.538429999999999
 21
553.5696999999999
 31
0.0
  0
LINE
  5
1BC
330
1E
100
AcDbEntity
  8
0
100
AcDbLine
 10
2.232429999999999
 20
545.0727
 30
0.0
 11
2.538429999999999
 21
544.9616999999999
 31
0.0
  0
LINE
  5
1BD
330
1E
100
AcDbEntity
  8
0
100
AcDbLine
 10
2.232429999999999
 20
545.0727
 30
0.0
 11
2.538429999999999
 21
545.1837
 31
0.0
  0
LINE
  5
1BE
330
1E
100
AcDbEntity
  8
0
100
AcDbLine
 10
2.232429999999999
 20
537.0837
 30
0.0
 11
2.538429999999999
 21
536.9727
 31
0.0
  0
LINE
  5
1BF
330
1E
100
AcDbEntity
  8
0
100
AcDbLine
 10
2.232429999999999
 20
512.6096999999999
 30
0.0
 11
2.538429999999999
 21
512.6096999999999
 31
0.0
  0
LINE
  5
1C0
330
1E
100
AcDbEntity
  8
0
100
AcDbLine
 10
2.232429999999999
 20
504.6096999999999
 30
0.0
 11
2.538429999999999
 21
504.6096999999999
 31
0.0
  0
LINE
  5
1C3
330
1E
100
AcDbEntity
  8
0
100
AcDbLine
 10
2.232429999999999
 20
448.6097
 30
0.0
 11
2.538429999999999
 21
448.6097
 31
0.0
  0
LINE
  5
1C4
330
1E
100
AcDbEntity
  8
0
100
AcDbLine
 10
2.232429999999999
 20
440.6096999999999
 30
0.0
 11
2.538429999999999
 21
440.6096999999999
 31
0.0
  0
LINE
  5
1C5
330
1E
100
AcDbEntity
  8
0
100
AcDbLine
 10
2.232429999999999
 20
440.6096999999999
 30
0.0
 11
2.47636628300543
 21
440.6096999999999
 31
0.0
  0
LINE
  5
1C6
330
1E
100
AcDbEntity
  8
0
100
AcDbLine
 10
2.220265002895239
 20
288.7157
 30
0.0
 11
2.233652260878269
 21
296.6557
 31
0.0
  0
LINE
  5
1C7
330
1E
100
AcDbEntity
  8
0
100
AcDbLine
 10
2.220265002895239
 20
288.7157
 30
0.0
 11
2.233652260878269
 21
296.6557
 31
0.0
  0
LINE
  5
1C8
330
1E
100
AcDbEntity
  8
0
100
AcDbLine
 10
2.247140682019869
 20
304.6557
 30
0.0
 11
2.26062910316146
 21
312.6557
 31
0.0
  0
LINE
  5
1C9
330
1E
100
AcDbEntity
  8
0
100
AcDbLine
 10
2.27411752430306
 20
320.6557
 30
0.0
 11
2.28760594544466
 21
328.6557
 31
0.0
  0
LINE
  5
1CA
330
1E
100
AcDbEntity
  8
0
100
AcDbLine
 10
2.27411752430306
 20
320.6557
 30
0.0
 11
2.28760594544466
 21
328.6557
 31
0.0
  0
LINE
  5
1CB
330
1E
100
AcDbEntity
  8
0
100
AcDbLine
 10
2.30109436658625
 20
336.6557
 30
0.0
 11
2.31468395088641
 21
344.7157
 31
0.0
  0
LINE
  5
1D5
330
1E
100
AcDbEntity
  8
0
100
AcDbLine
 10
2.334429999999999
 20
608.1707
 30
0.0
 11
2.52825242351283
 21
608.44908220632
 31
0.0
  0
LINE
  5
1D7
330
1E
100
AcDbEntity
  8
0
100
AcDbLine
 10
2.334429999999999
 20
600.0107
 30
0.0
 11
2.538429999999999
 21
599.7177
 31
0.0
  0
LINE
  5
1DA
330
1E
100
AcDbEntity
  8
0
100
AcDbLine
 10
2.334429999999999
 20
628.6167
 30
0.0
 11
2.538429999999999
 21
628.3337
 31
0.0
  0
LINE
  5
1DB
330
1E
100
AcDbEntity
  8
0
100
AcDbLine
 10
2.334429999999999
 20
636.9777
 30
0.0
 11
2.42296261600534
 21
637.045292916386
 31
0.0
  0
LINE
  5
1DC
330
1E
100
AcDbEntity
  8
0
100
AcDbLine
 10
2.334429999999999
 20
636.9777
 30
0.0
 11
2.46132541814947
 21
637.153114254501
 31
0.0
  0
LINE
  5
1DE
330
1E
100
AcDbEntity
  8
0
100
AcDbLine
 10
2.334429999999999
 20
622.7237
 30
0.0
 11
2.49710100890981
 21
622.956542816675
 31
0.0
  0
LINE
  5
1E0
330
1E
100
AcDbEntity
  8
0
100
AcDbLine
 10
2.334429999999999
 20
614.5317
 30
0.0
 11
2.538429999999999
 21
614.2406999999999
 31
0.0
  0
LINE
  5
1ED
330
1E
100
AcDbEntity
  8
0
100
AcDbLine
 10
2.38212605659439
 20
384.7157
 30
0.0
 11
2.39533459299729
 21
392.5497
 31
0.0
  0
LINE
  5
1EE
330
1E
100
AcDbEntity
  8
0
100
AcDbLine
 10
2.43276
 20
480.7157
 30
0.0
 11
3.248759999999999
 21
480.7157
 31
0.0
  0
LINE
  5
1EF
330
1E
100
AcDbEntity
  8
0
100
AcDbLine
 10
2.43276
 20
472.7157
 30
0.0
 11
3.248759999999999
 21
472.7157
 31
0.0
  0
LINE
  5
1F0
330
1E
100
AcDbEntity
  8
0
100
AcDbLine
 10
2.43276
 20
472.7157
 30
0.0
 11
2.53049868915194
 21
472.7157
 31
0.0
  0
LINE
  5
1F1
330
1E
100
AcDbEntity
  8
0
100
AcDbLine
 10
2.43276
 20
496.7157
 30
0.0
 11
3.248759999999999
 21
496.7157
 31
0.0
  0
LINE
  5
1F2
330
1E
100
AcDbEntity
  8
0
100
AcDbLine
 10
2.43276
 20
488.7157
 30
0.0
 11
3.248759999999999
 21
488.7157
 31
0.0
  0
LINE
  5
1F3
330
1E
100
AcDbEntity
  8
0
100
AcDbLine
 10
2.43276
 20
488.7157
 30
0.0
 11
2.557475531435129
 21
488.7157
 31
0.0
  0
LINE
  5
1F4
330
1E
100
AcDbEntity
  8
0
100
AcDbLine
 10
2.43276
 20
464.6557
 30
0.0
 11
3.248759999999999
 21
464.6557
 31
0.0
  0
LINE
  5
1F5
330
1E
100
AcDbEntity
  8
0
100
AcDbLine
 10
2.43276
 20
456.6557
 30
0.0
 11
3.248759999999999
 21
456.6557
 31
0.0
  0
LINE
  5
1F6
330
1E
100
AcDbEntity
  8
0
100
AcDbLine
 10
2.43276
 20
456.6557
 30
0.0
 11
2.503420683710189
 21
456.6557
 31
0.0
  0
LINE
  5
1F7
330
1E
100
AcDbEntity
  8
0
100
AcDbLine
 10
2.43590101958064
 20
416.6096999999999
 30
0.0
 11
2.44938944072224
 21
424.6096999999999
 31
0.0
  0
LINE
  5
1F8
330
1E
100
AcDbEntity
  8
0
100
AcDbLine
 10
2.43590101958064
 20
416.6096999999999
 30
0.0
 11
2.44938944072224
 21
424.6096999999999
 31
0.0
  0
LINE
  5
1F9
330
1E
100
AcDbEntity
  8
0
100
AcDbLine
 10
2.408823014138889
 20
400.5497
 30
0.0
 11
2.422412598439049
 21
408.6096999999999
 31
0.0
  0
LINE
  5
1FA
330
1E
100
AcDbEntity
  8
0
100
AcDbLine
 10
2.3551492143112
 20
368.7157
 30
0.0
 11
2.36863763545279
 21
376.7157
 31
0.0
  0
LINE
  5
1FB
330
1E
100
AcDbEntity
  8
0
100
AcDbLine
 10
2.328172372027999
 20
352.7157
 30
0.0
 11
2.341660793169599
 21
360.7157
 31
0.0
  0
LINE
  5
1FC
330
1E
100
AcDbEntity
  8
0
100
AcDbLine
 10
2.247140682019869
 20
304.6557
 30
0.0
 11
2.26062910316146
 21
312.6557
 31
0.0
  0
LINE
  5
1FD
330
1E
100
AcDbEntity
  8
0
100
AcDbLine
 10
2.193288160612049
 20
272.7157
 30
0.0
 11
2.206776581753639
 21
280.7157
 31
0.0
  0
LINE
  5
1FE
330
1E
100
AcDbEntity
  8
0
100
AcDbLine
 10
2.16650352833012
 20
256.8297
 30
0.0
 11
2.179799739470449
 21
264.7157
 31
0.0
  0
LINE
  5
1FF
330
1E
100
AcDbEntity
  8
0
100
AcDbLine
 10
2.139526686046929
 20
240.8297
 30
0.0
 11
2.153015107188529
 21
248.8297
 31
0.0
  0
LINE
  5
200
330
1E
100
AcDbEntity
  8
0
100
AcDbLine
 10
2.08557300148055
 20
208.8296999999999
 30
0.0
 11
2.09906142262215
 21
216.8296999999999
 31
0.0
  0
LINE
  5
201
330
1E
100
AcDbEntity
  8
0
100
AcDbLine
 10
2.058596159197359
 20
192.8297
 30
0.0
 11
2.072084580338959
 21
200.8297
 31
0.0
  0
LINE
  5
203
330
1E
100
AcDbEntity
  8
0
100
AcDbLine
 10
2.028429999999999
 20
650.4727
 30
0.0
 11
2.028429999999999
 21
643.4696999999999
 31
0.0
  0
LINE
  5
204
330
1E
100
AcDbEntity
  8
0
100
AcDbLine
 10
2.028429999999999
 20
650.4727
 30
0.0
 11
2.334429999999999
 21
651.1626999999999
 31
0.0
  0
LINE
  5
206
330
1E
100
AcDbEntity
  8
0
100
AcDbLine
 10
2.334429999999999
 20
642.7797
 30
0.0
 11
2.538429999999999
 21
642.4986999999999
 31
0.0
  0
LINE
  5
207
330
1E
100
AcDbEntity
  8
0
100
AcDbLine
 10
2.232429999999999
 20
650.7646999999999
 30
0.0
 11
2.538429999999999
 21
650.0856999999999
 31
0.0
  0
LINE
  5
208
330
1E
100
AcDbEntity
  8
0
100
AcDbLine
 10
2.232429999999999
 20
650.7646999999999
 30
0.0
 11
2.41873331450985
 21
651.1780985312159
 31
0.0
  0
LINE
  5
209
330
1E
100
AcDbEntity
  8
0
100
AcDbLine
 10
2.334429999999999
 20
651.1626999999999
 30
0.0
 11
2.41857745812577
 21
651.229419859568
 31
0.0
  0
LINE
  5
20A
330
1E
100
AcDbEntity
  8
0
100
AcDbLine
 10
2.334429999999999
 20
651.1626999999999
 30
0.0
 11
2.41842869921077
 21
651.27840409058
 31
0.0
  0
LINE
  5
20C
330
1E
100
AcDbEntity
  8
0
100
AcDbLine
 10
2.028429999999999
 20
643.4696999999999
 30
0.0
 11
2.334429999999999
 21
642.7797
 31
0.0
  0
LINE
  5
20D
330
1E
100
AcDbEntity
  8
0
100
AcDbLine
 10
2.028429999999999
 20
643.4696999999999
 30
0.0
 11
2.028429999999999
 21
650.4727
 31
0.0
  0
LINE
  5
20E
330
1E
100
AcDbEntity
  8
0
100
AcDbLine
 10
2.444699461867799
 20
642.6278092216429
 30
0.0
 11
2.46298784601402
 21
636.6056999999999
 31
0.0
  0
LINE
  5
217
330
1E
100
AcDbEntity
  8
0
100
AcDbLine
 10
2.538429999999999
 20
400.5497
 30
0.0
 11
3.35443
 21
400.5497
 31
0.0
  0
LINE
  5
218
330
1E
100
AcDbEntity
  8
0
100
AcDbLine
 10
2.538429999999999
 20
392.5497
 30
0.0
 11
3.35443
 21
392.5497
 31
0.0
  0
LINE
  5
219
330
1E
100
AcDbEntity
  8
0
100
AcDbLine
 10
2.538429999999999
 20
432.6096999999999
 30
0.0
 11
3.35443
 21
432.6096999999999
 31
0.0
  0
LINE
  5
21A
330
1E
100
AcDbEntity
  8
0
100
AcDbLine
 10
2.538429999999999
 20
424.6096999999999
 30
0.0
 11
3.35443
 21
424.6096999999999
 31
0.0
  0
LINE
  5
21B
330
1E
100
AcDbEntity
  8
0
100
AcDbLine
 10
2.538429999999999
 20
416.6096999999999
 30
0.0
 11
3.35443
 21
416.6096999999999
 31
0.0
  0
LINE
  5
21C
330
1E
100
AcDbEntity
  8
0
100
AcDbLine
 10
2.538429999999999
 20
408.6096999999999
 30
0.0
 11
3.35443
 21
408.6096999999999
 31
0.0
  0
LINE
  5
220
330
1E
100
AcDbEntity
  8
0
100
AcDbLine
 10
2.538429999999999
 20
448.6097
 30
0.0
 11
3.35443
 21
448.6097
 31
0.0
  0
LINE
  5
221
330
1E
100
AcDbEntity
  8
0
100
AcDbLine
 10
2.538429999999999
 20
440.6096999999999
 30
0.0
 11
3.35443
 21
440.6096999999999
 31
0.0
  0
LINE
  5
222
330
1E
100
AcDbEntity
  8
0
100
AcDbLine
 10
2.516909104851779
 20
464.6557
 30
0.0
 11
2.53049868915194
 21
472.7157
 31
0.0
  0
LINE
  5
223
330
1E
100
AcDbEntity
  8
0
100
AcDbLine
 10
2.516909104851779
 20
464.6557
 30
0.0
 11
2.53049868915194
 21
472.7157
 31
0.0
  0
LINE
  5
224
330
1E
100
AcDbEntity
  8
0
100
AcDbLine
 10
2.538429999999999
 20
528.8377
 30
0.0
 11
2.617481910947569
 21
528.8460314513989
 31
0.0
  0
LINE
  5
225
330
1E
100
AcDbEntity
  8
0
100
AcDbLine
 10
2.538429999999999
 20
528.6516999999999
 30
0.0
 11
3.35443
 21
528.5667
 31
0.0
  0
LINE
  5
226
330
1E
100
AcDbEntity
  8
0
100
AcDbLine
 10
2.538429999999999
 20
520.6597
 30
0.0
 11
3.35443
 21
520.5737
 31
0.0
  0
LINE
  5
227
330
1E
100
AcDbEntity
  8
0
100
AcDbLine
 10
2.538429999999999
 20
607.5226999999999
 30
0.0
 11
3.35443
 21
607.0897
 31
0.0
  0
LINE
  5
228
330
1E
100
AcDbEntity
  8
0
100
AcDbLine
 10
2.538429999999999
 20
599.7177
 30
0.0
 11
3.35443
 21
599.2847
 31
0.0
  0
LINE
  5
229
330
1E
100
AcDbEntity
  8
0
100
AcDbLine
 10
2.538429999999999
 20
614.2406999999999
 30
0.0
 11
3.35443
 21
613.7836999999999
 31
0.0
  0
LINE
  5
22A
330
1E
100
AcDbEntity
  8
0
100
AcDbLine
 10
2.538429999999999
 20
593.2197
 30
0.0
 11
3.35443
 21
592.8957
 31
0.0
  0
LINE
  5
22B
330
1E
100
AcDbEntity
  8
0
100
AcDbLine
 10
2.538429999999999
 20
585.3277
 30
0.0
 11
3.35443
 21
585.0036999999999
 31
0.0
  0
LINE
  5
22C
330
1E
100
AcDbEntity
  8
0
100
AcDbLine
 10
2.538429999999999
 20
578.5127
 30
0.0
 11
3.35443
 21
578.2127
 31
0.0
  0
LINE
  5
22D
330
1E
100
AcDbEntity
  8
0
100
AcDbLine
 10
2.538429999999999
 20
570.6056999999999
 30
0.0
 11
3.35443
 21
570.3057
 31
0.0
  0
LINE
  5
22E
330
1E
100
AcDbEntity
  8
0
100
AcDbLine
 10
2.538429999999999
 20
562.0877
 30
0.0
 11
2.59868218401694
 21
562.107931738261
 31
0.0
  0
LINE
  5
22F
330
1E
100
AcDbEntity
  8
0
100
AcDbLine
 10
2.538429999999999
 20
561.4917
 30
0.0
 11
3.35443
 21
561.2177
 31
0.0
  0
LINE
  5
230
330
1E
100
AcDbEntity
  8
0
100
AcDbLine
 10
2.538429999999999
 20
553.5696999999999
 30
0.0
 11
3.35443
 21
553.2957
 31
0.0
  0
LINE
  5
231
330
1E
100
AcDbEntity
  8
0
100
AcDbLine
 10
2.538429999999999
 20
545.1837
 30
0.0
 11
2.609625931270259
 21
545.1925122414929
 31
0.0
  0
LINE
  5
232
330
1E
100
AcDbEntity
  8
0
100
AcDbLine
 10
2.538429999999999
 20
544.9616999999999
 30
0.0
 11
3.35443
 21
544.8606999999999
 31
0.0
  0
LINE
  5
233
330
1E
100
AcDbEntity
  8
0
100
AcDbLine
 10
2.538429999999999
 20
536.9727
 30
0.0
 11
3.35443
 21
536.8707
 31
0.0
  0
LINE
  5
234
330
1E
100
AcDbEntity
  8
0
100
AcDbLine
 10
2.538429999999999
 20
512.6096999999999
 30
0.0
 11
3.35443
 21
512.6096999999999
 31
0.0
  0
LINE
  5
235
330
1E
100
AcDbEntity
  8
0
100
AcDbLine
 10
2.538429999999999
 20
504.6096999999999
 30
0.0
 11
3.35443
 21
504.6096999999999
 31
0.0
  0
LINE
  5
236
330
1E
100
AcDbEntity
  8
0
100
AcDbLine
 10
2.543987110293529
 20
480.7157
 30
0.0
 11
2.557475531435129
 21
488.7157
 31
0.0
  0
LINE
  5
237
330
1E
100
AcDbEntity
  8
0
100
AcDbLine
 10
2.489854704147029
 20
448.6097
 30
0.0
 11
2.503420683710189
 21
456.6557
 31
0.0
  0
LINE
  5
238
330
1E
100
AcDbEntity
  8
0
100
AcDbLine
 10
2.46287786186383
 20
432.6096999999999
 30
0.0
 11
2.47636628300543
 21
440.6096999999999
 31
0.0
  0
LINE
  5
239
330
1E
100
AcDbEntity
  8
0
100
AcDbLine
 10
2.570963952576729
 20
496.7157
 30
0.0
 11
2.58427365213819
 21
504.6096999999999
 31
0.0
  0
LINE
  5
23A
330
1E
100
AcDbEntity
  8
0
100
AcDbLine
 10
2.570963952576729
 20
496.7157
 30
0.0
 11
2.58427365213819
 21
504.6096999999999
 31
0.0
  0
LINE
  5
23B
330
1E
100
AcDbEntity
  8
0
100
AcDbLine
 10
2.588929999999999
 20
80.82970000000001
 30
0.0
 11
3.91493
 21
80.82970000000001
 31
0.0
  0
LINE
  5
23C
330
1E
100
AcDbEntity
  8
0
100
AcDbLine
 10
2.588929999999999
 20
72.8297
 30
0.0
 11
3.91493
 21
72.8297
 31
0.0
  0
LINE
  5
23D
330
1E
100
AcDbEntity
  8
0
100
AcDbLine
 10
2.588929999999999
 20
96.8297
 30
0.0
 11
3.91493
 21
96.8297
 31
0.0
  0
LINE
  5
23E
330
1E
100
AcDbEntity
  8
0
100
AcDbLine
 10
2.588929999999999
 20
88.8297
 30
0.0
 11
3.91493
 21
88.8297
 31
0.0
  0
LINE
  5
23F
330
1E
100
AcDbEntity
  8
0
100
AcDbLine
 10
2.588929999999999
 20
64.8297
 30
0.0
 11
3.91493
 21
64.8297
 31
0.0
  0
LINE
  5
240
330
1E
100
AcDbEntity
  8
0
100
AcDbLine
 10
2.588929999999999
 20
56.8297
 30
0.0
 11
3.91493
 21
56.8297
 31
0.0
  0
LINE
  5
241
330
1E
100
AcDbEntity
  8
0
100
AcDbLine
 10
2.59776207327979
 20
512.6096999999999
 30
0.0
 11
2.61132184441152
 21
520.6520177712999
 31
0.0
  0
LINE
  5
243
330
1E
100
AcDbEntity
  8
0
100
AcDbLine
 10
3.68638
 20
8.83009999999999
 30
0.0
 11
5.42038
 21
8.83009999999999
 31
0.0
  0
LINE
  5
244
330
1E
100
AcDbEntity
  8
0
100
AcDbLine
 10
2.703209999999999
 20
144.8296999999999
 30
0.0
 11
4.029209999999999
 21
144.8296999999999
 31
0.0
  0
LINE
  5
245
330
1E
100
AcDbEntity
  8
0
100
AcDbLine
 10
2.703209999999999
 20
136.8297
 30
0.0
 11
4.029209999999999
 21
136.8297
 31
0.0
  0
LINE
  5
246
330
1E
100
AcDbEntity
  8
0
100
AcDbLine
 10
2.703209999999999
 20
160.8297
 30
0.0
 11
4.029209999999999
 21
160.8297
 31
0.0
  0
LINE
  5
247
330
1E
100
AcDbEntity
  8
0
100
AcDbLine
 10
2.703209999999999
 20
152.8297
 30
0.0
 11
4.029209999999999
 21
152.8297
 31
0.0
  0
LINE
  5
24A
330
1E
100
AcDbEntity
  8
0
100
AcDbLine
 10
2.703209999999999
 20
176.8297
 30
0.0
 11
4.029209999999999
 21
176.8297
 31
0.0
  0
LINE
  5
24B
330
1E
100
AcDbEntity
  8
0
100
AcDbLine
 10
2.703209999999999
 20
168.8297
 30
0.0
 11
4.029209999999999
 21
168.8297
 31
0.0
  0
LINE
  5
254
330
1E
100
AcDbEntity
  8
0
100
AcDbLine
 10
2.703209999999999
 20
128.8297
 30
0.0
 11
4.029209999999999
 21
128.8297
 31
0.0
  0
LINE
  5
255
330
1E
100
AcDbEntity
  8
0
100
AcDbLine
 10
2.703209999999999
 20
120.8296999999999
 30
0.0
 11
4.029209999999999
 21
120.8296999999999
 31
0.0
  0
LINE
  5
256
330
1E
100
AcDbEntity
  8
0
100
AcDbLine
 10
2.817479999999999
 20
192.8297
 30
0.0
 11
4.14348
 21
192.8297
 31
0.0
  0
LINE
  5
257
330
1E
100
AcDbEntity
  8
0
100
AcDbLine
 10
2.817479999999999
 20
184.8297
 30
0.0
 11
4.14348
 21
184.8297
 31
0.0
  0
LINE
  5
258
330
1E
100
AcDbEntity
  8
0
100
AcDbLine
 10
2.817479999999999
 20
240.8297
 30
0.0
 11
4.14348
 21
240.8297
 31
0.0
  0
LINE
  5
259
330
1E
100
AcDbEntity
  8
0
100
AcDbLine
 10
2.817479999999999
 20
232.8297
 30
0.0
 11
4.14348
 21
232.8297
 31
0.0
  0
LINE
  5
26A
330
1E
100
AcDbEntity
  8
0
100
AcDbLine
 10
2.817479999999999
 20
256.8297
 30
0.0
 11
4.14348
 21
256.8297
 31
0.0
  0
LINE
  5
26B
330
1E
100
AcDbEntity
  8
0
100
AcDbLine
 10
2.817479999999999
 20
248.8297
 30
0.0
 11
4.14348
 21
248.8297
 31
0.0
  0
LINE
  5
26C
330
1E
100
AcDbEntity
  8
0
100
AcDbLine
 10
2.817479999999999
 20
224.8296999999999
 30
0.0
 11
4.14348
 21
224.8296999999999
 31
0.0
  0
LINE
  5
26D
330
1E
100
AcDbEntity
  8
0
100
AcDbLine
 10
2.817479999999999
 20
216.8296999999999
 30
0.0
 11
4.14348
 21
216.8296999999999
 31
0.0
  0
LINE
  5
26E
330
1E
100
AcDbEntity
  8
0
100
AcDbLine
 10
2.931759999999999
 20
304.6557
 30
0.0
 11
4.25776
 21
304.6557
 31
0.0
  0
LINE
  5
26F
330
1E
100
AcDbEntity
  8
0
100
AcDbLine
 10
2.931759999999999
 20
296.6557
 30
0.0
 11
4.25776
 21
296.6557
 31
0.0
  0
LINE
  5
270
330
1E
100
AcDbEntity
  8
0
100
AcDbLine
 10
2.931759999999999
 20
336.6557
 30
0.0
 11
4.25776
 21
336.6557
 31
0.0
  0
LINE
  5
271
330
1E
100
AcDbEntity
  8
0
100
AcDbLine
 10
2.931759999999999
 20
328.6557
 30
0.0
 11
4.25776
 21
328.6557
 31
0.0
  0
LINE
  5
272
330
1E
100
AcDbEntity
  8
0
100
AcDbLine
 10
2.931759999999999
 20
352.7157
 30
0.0
 11
4.25776
 21
352.7157
 31
0.0
  0
LINE
  5
273
330
1E
100
AcDbEntity
  8
0
100
AcDbLine
 10
2.931759999999999
 20
344.7157
 30
0.0
 11
4.25776
 21
344.7157
 31
0.0
  0
LINE
  5
274
330
1E
100
AcDbEntity
  8
0
100
AcDbLine
 10
2.931759999999999
 20
384.7157
 30
0.0
 11
4.25776
 21
384.7157
 31
0.0
  0
LINE
  5
275
330
1E
100
AcDbEntity
  8
0
100
AcDbLine
 10
2.931759999999999
 20
376.7157
 30
0.0
 11
4.25776
 21
376.7157
 31
0.0
  0
LINE
  5
276
330
1E
100
AcDbEntity
  8
0
100
AcDbLine
 10
2.931759999999999
 20
368.7157
 30
0.0
 11
4.25776
 21
368.7157
 31
0.0
  0
LINE
  5
277
330
1E
100
AcDbEntity
  8
0
100
AcDbLine
 10
2.931759999999999
 20
360.7157
 30
0.0
 11
4.25776
 21
360.7157
 31
0.0
  0
LINE
  5
278
330
1E
100
AcDbEntity
  8
0
100
AcDbLine
 10
2.931759999999999
 20
320.6557
 30
0.0
 11
4.25776
 21
320.6557
 31
0.0
  0
LINE
  5
279
330
1E
100
AcDbEntity
  8
0
100
AcDbLine
 10
2.931759999999999
 20
312.6557
 30
0.0
 11
4.25776
 21
312.6557
 31
0.0
  0
LINE
  5
27A
330
1E
100
AcDbEntity
  8
0
100
AcDbLine
 10
2.931759999999999
 20
288.7157
 30
0.0
 11
4.25776
 21
288.7157
 31
0.0
  0
LINE
  5
27B
330
1E
100
AcDbEntity
  8
0
100
AcDbLine
 10
2.931759999999999
 20
280.7157
 30
0.0
 11
4.25776
 21
280.7157
 31
0.0
  0
LINE
  5
27C
330
1E
100
AcDbEntity
  8
0
100
AcDbLine
 10
3.35443
 20
392.5497
 30
0.0
 11
4.68043
 21
392.5497
 31
0.0
  0
LINE
  5
27D
330
1E
100
AcDbEntity
  8
0
100
AcDbLine
 10
3.35443
 20
400.5497
 30
0.0
 11
4.68043
 21
400.5497
 31
0.0
  0
LINE
  5
280
330
1E
100
AcDbEntity
  8
0
100
AcDbLine
 10
3.35443
 20
408.6096999999999
 30
0.0
 11
4.68043
 21
408.6096999999999
 31
0.0
  0
LINE
  5
283
330
1E
100
AcDbEntity
  8
0
100
AcDbLine
 10
3.35443
 20
432.6096999999999
 30
0.0
 11
4.68043
 21
432.6096999999999
 31
0.0
  0
LINE
  5
284
330
1E
100
AcDbEntity
  8
0
100
AcDbLine
 10
3.35443
 20
424.6096999999999
 30
0.0
 11
4.68043
 21
424.6096999999999
 31
0.0
  0
LINE
  5
285
330
1E
100
AcDbEntity
  8
0
100
AcDbLine
 10
3.35443
 20
416.6096999999999
 30
0.0
 11
4.68043
 21
416.6096999999999
 31
0.0
  0
LINE
  5
288
330
1E
100
AcDbEntity
  8
0
100
AcDbLine
 10
3.35443
 20
440.6096999999999
 30
0.0
 11
4.68043
 21
440.6096999999999
 31
0.0
  0
LINE
  5
293
330
1E
100
AcDbEntity
  8
0
100
AcDbLine
 10
3.248759999999999
 20
480.7157
 30
0.0
 11
4.574759999999999
 21
480.7157
 31
0.0
  0
LINE
  5
294
330
1E
100
AcDbEntity
  8
0
100
AcDbLine
 10
3.248759999999999
 20
472.7157
 30
0.0
 11
4.574759999999999
 21
472.7157
 31
0.0
  0
LINE
  5
295
330
1E
100
AcDbEntity
  8
0
100
AcDbLine
 10
3.248759999999999
 20
496.7157
 30
0.0
 11
4.574759999999999
 21
496.7157
 31
0.0
  0
LINE
  5
296
330
1E
100
AcDbEntity
  8
0
100
AcDbLine
 10
3.248759999999999
 20
488.7157
 30
0.0
 11
4.574759999999999
 21
488.7157
 31
0.0
  0
LINE
  5
297
330
1E
100
AcDbEntity
  8
0
100
AcDbLine
 10
3.248759999999999
 20
464.6557
 30
0.0
 11
4.574759999999999
 21
464.6557
 31
0.0
  0
LINE
  5
298
330
1E
100
AcDbEntity
  8
0
100
AcDbLine
 10
3.35443
 20
528.5667
 30
0.0
 11
4.68043
 21
528.4917
 31
0.0
  0
LINE
  5
299
330
1E
100
AcDbEntity
  8
0
100
AcDbLine
 10
3.35443
 20
520.5737
 30
0.0
 11
4.68043
 21
520.4987
 31
0.0
  0
LINE
  5
29A
330
1E
100
AcDbEntity
  8
0
100
AcDbLine
 10
3.35443
 20
536.8707
 30
0.0
 11
4.68043
 21
536.7817
 31
0.0
  0
LINE
  5
29B
330
1E
100
AcDbEntity
  8
0
100
AcDbLine
 10
3.35443
 20
512.6096999999999
 30
0.0
 11
4.68043
 21
512.6096999999999
 31
0.0
  0
LINE
  5
29C
330
1E
100
AcDbEntity
  8
0
100
AcDbLine
 10
3.35443
 20
504.6096999999999
 30
0.0
 11
4.68043
 21
504.6096999999999
 31
0.0
  0
LINE
  5
29D
330
1E
100
AcDbEntity
  8
0
100
AcDbLine
 10
3.248759999999999
 20
456.6557
 30
0.0
 11
4.574759999999999
 21
456.6557
 31
0.0
  0
LINE
  5
29E
330
1E
100
AcDbEntity
  8
0
100
AcDbLine
 10
3.35443
 20
448.6097
 30
0.0
 11
4.68043
 21
448.6097
 31
0.0
  0
LINE
  5
2A1
330
1E
100
AcDbEntity
  8
0
100
AcDbLine
 10
2.931759999999999
 20
272.7157
 30
0.0
 11
4.25776
 21
272.7157
 31
0.0
  0
LINE
  5
2A2
330
1E
100
AcDbEntity
  8
0
100
AcDbLine
 10
2.931759999999999
 20
264.7157
 30
0.0
 11
4.25776
 21
264.7157
 31
0.0
  0
LINE
  5
2A3
330
1E
100
AcDbEntity
  8
0
100
AcDbLine
 10
2.817479999999999
 20
208.8296999999999
 30
0.0
 11
4.14348
 21
208.8296999999999
 31
0.0
  0
LINE
  5
2A4
330
1E
100
AcDbEntity
  8
0
100
AcDbLine
 10
2.817479999999999
 20
200.8297
 30
0.0
 11
4.14348
 21
200.8297
 31
0.0
  0
LINE
  5
2A5
330
1E
100
AcDbEntity
  8
0
100
AcDbLine
 10
2.703209999999999
 20
112.8297
 30
0.0
 11
4.029209999999999
 21
112.8297
 31
0.0
  0
LINE
  5
2A6
330
1E
100
AcDbEntity
  8
0
100
AcDbLine
 10
2.703209999999999
 20
104.8297
 30
0.0
 11
4.029209999999999
 21
104.8297
 31
0.0
  0
LINE
  5
2AB
330
1E
100
AcDbEntity
  8
0
100
AcDbLine
 10
3.68638
 20
48.83
 30
0.0
 11
5.42038
 21
48.83
 31
0.0
  0
LINE
  5
2AC
330
1E
100
AcDbEntity
  8
0
100
AcDbLine
 10
3.68638
 20
40.83
 30
0.0
 11
5.42038
 21
40.83
 31
0.0
  0
LINE
  5
2AD
330
1E
100
AcDbEntity
  8
0
100
AcDbLine
 10
3.68638
 20
32.82999999999999
 30
0.0
 11
5.42038
 21
32.82999999999999
 31
0.0
  0
LINE
  5
2AE
330
1E
100
AcDbEntity
  8
0
100
AcDbLine
 10
3.91493
 20
56.8297
 30
0.0
 11
5.64893
 21
56.8297
 31
0.0
  0
LINE
  5
2BC
330
1E
100
AcDbEntity
  8
0
100
AcDbLine
 10
3.91493
 20
80.82970000000001
 30
0.0
 11
5.64893
 21
80.82970000000001
 31
0.0
  0
LINE
  5
2BD
330
1E
100
AcDbEntity
  8
0
100
AcDbLine
 10
3.91493
 20
72.8297
 30
0.0
 11
5.64893
 21
72.8297
 31
0.0
  0
LINE
  5
2BE
330
1E
100
AcDbEntity
  8
0
100
AcDbLine
 10
3.91493
 20
96.8297
 30
0.0
 11
5.64893
 21
96.8297
 31
0.0
  0
LINE
  5
2BF
330
1E
100
AcDbEntity
  8
0
100
AcDbLine
 10
3.91493
 20
88.8297
 30
0.0
 11
5.64893
 21
88.8297
 31
0.0
  0
LINE
  5
2C0
330
1E
100
AcDbEntity
  8
0
100
AcDbLine
 10
4.029209999999999
 20
144.8296999999999
 30
0.0
 11
5.763209999999999
 21
144.8296999999999
 31
0.0
  0
LINE
  5
2C1
330
1E
100
AcDbEntity
  8
0
100
AcDbLine
 10
4.029209999999999
 20
136.8297
 30
0.0
 11
5.763209999999999
 21
136.8297
 31
0.0
  0
LINE
  5
2C2
330
1E
100
AcDbEntity
  8
0
100
AcDbLine
 10
4.029209999999999
 20
160.8297
 30
0.0
 11
5.763209999999999
 21
160.8297
 31
0.0
  0
LINE
  5
2C3
330
1E
100
AcDbEntity
  8
0
100
AcDbLine
 10
4.029209999999999
 20
152.8297
 30
0.0
 11
5.763209999999999
 21
152.8297
 31
0.0
  0
LINE
  5
2C6
330
1E
100
AcDbEntity
  8
0
100
AcDbLine
 10
4.029209999999999
 20
176.8297
 30
0.0
 11
5.763209999999999
 21
176.8297
 31
0.0
  0
LINE
  5
2C7
330
1E
100
AcDbEntity
  8
0
100
AcDbLine
 10
4.029209999999999
 20
168.8297
 30
0.0
 11
5.763209999999999
 21
168.8297
 31
0.0
  0
LINE
  5
2D0
330
1E
100
AcDbEntity
  8
0
100
AcDbLine
 10
4.029209999999999
 20
128.8297
 30
0.0
 11
5.763209999999999
 21
128.8297
 31
0.0
  0
LINE
  5
2D1
330
1E
100
AcDbEntity
  8
0
100
AcDbLine
 10
4.029209999999999
 20
120.8296999999999
 30
0.0
 11
5.763209999999999
 21
120.8296999999999
 31
0.0
  0
LINE
  5
2D2
330
1E
100
AcDbEntity
  8
0
100
AcDbLine
 10
4.14348
 20
192.8297
 30
0.0
 11
5.87748
 21
192.8297
 31
0.0
  0
LINE
  5
2D3
330
1E
100
AcDbEntity
  8
0
100
AcDbLine
 10
4.14348
 20
184.8297
 30
0.0
 11
5.87748
 21
184.8297
 31
0.0
  0
LINE
  5
2D4
330
1E
100
AcDbEntity
  8
0
100
AcDbLine
 10
4.14348
 20
240.8297
 30
0.0
 11
5.87748
 21
240.8297
 31
0.0
  0
LINE
  5
2D5
330
1E
100
AcDbEntity
  8
0
100
AcDbLine
 10
4.14348
 20
232.8297
 30
0.0
 11
5.87748
 21
232.8297
 31
0.0
  0
LINE
  5
2E6
330
1E
100
AcDbEntity
  8
0
100
AcDbLine
 10
4.14348
 20
256.8297
 30
0.0
 11
5.87748
 21
256.8297
 31
0.0
  0
LINE
  5
2E7
330
1E
100
AcDbEntity
  8
0
100
AcDbLine
 10
4.14348
 20
248.8297
 30
0.0
 11
5.87748
 21
248.8297
 31
0.0
  0
LINE
  5
2E8
330
1E
100
AcDbEntity
  8
0
100
AcDbLine
 10
4.14348
 20
224.8296999999999
 30
0.0
 11
5.87748
 21
224.8296999999999
 31
0.0
  0
LINE
  5
2E9
330
1E
100
AcDbEntity
  8
0
100
AcDbLine
 10
4.14348
 20
216.8296999999999
 30
0.0
 11
5.87748
 21
216.8296999999999
 31
0.0
  0
LINE
  5
2EA
330
1E
100
AcDbEntity
  8
0
100
AcDbLine
 10
4.25776
 20
304.6557
 30
0.0
 11
5.99176
 21
304.6557
 31
0.0
  0
LINE
  5
2EB
330
1E
100
AcDbEntity
  8
0
100
AcDbLine
 10
4.25776
 20
296.6557
 30
0.0
 11
5.99176
 21
296.6557
 31
0.0
  0
LINE
  5
2EC
330
1E
100
AcDbEntity
  8
0
100
AcDbLine
 10
4.25776
 20
336.6557
 30
0.0
 11
5.99176
 21
336.6557
 31
0.0
  0
LINE
  5
2ED
330
1E
100
AcDbEntity
  8
0
100
AcDbLine
 10
4.25776
 20
328.6557
 30
0.0
 11
5.99176
 21
328.6557
 31
0.0
  0
LINE
  5
2EE
330
1E
100
AcDbEntity
  8
0
100
AcDbLine
 10
4.25776
 20
352.7157
 30
0.0
 11
5.99176
 21
352.7157
 31
0.0
  0
LINE
  5
2EF
330
1E
100
AcDbEntity
  8
0
100
AcDbLine
 10
4.25776
 20
344.7157
 30
0.0
 11
5.99176
 21
344.7157
 31
0.0
  0
LINE
  5
2F0
330
1E
100
AcDbEntity
  8
0
100
AcDbLine
 10
4.25776
 20
384.7157
 30
0.0
 11
5.99176
 21
384.7157
 31
0.0
  0
LINE
  5
2F1
330
1E
100
AcDbEntity
  8
0
100
AcDbLine
 10
4.25776
 20
376.7157
 30
0.0
 11
5.99176
 21
376.7157
 31
0.0
  0
LINE
  5
2F2
330
1E
100
AcDbEntity
  8
0
100
AcDbLine
 10
4.25776
 20
368.7157
 30
0.0
 11
5.99176
 21
368.7157
 31
0.0
  0
LINE
  5
2F3
330
1E
100
AcDbEntity
  8
0
100
AcDbLine
 10
4.25776
 20
360.7157
 30
0.0
 11
5.99176
 21
360.7157
 31
0.0
  0
LINE
  5
2F4
330
1E
100
AcDbEntity
  8
0
100
AcDbLine
 10
4.25776
 20
320.6557
 30
0.0
 11
5.99176
 21
320.6557
 31
0.0
  0
LINE
  5
2F5
330
1E
100
AcDbEntity
  8
0
100
AcDbLine
 10
4.25776
 20
312.6557
 30
0.0
 11
5.99176
 21
312.6557
 31
0.0
  0
LINE
  5
2F6
330
1E
100
AcDbEntity
  8
0
100
AcDbLine
 10
4.25776
 20
288.7157
 30
0.0
 11
5.99176
 21
288.7157
 31
0.0
  0
LINE
  5
2F7
330
1E
100
AcDbEntity
  8
0
100
AcDbLine
 10
4.25776
 20
280.7157
 30
0.0
 11
5.99176
 21
280.7157
 31
0.0
  0
LINE
  5
2F8
330
1E
100
AcDbEntity
  8
0
100
AcDbLine
 10
4.68043
 20
392.5497
 30
0.0
 11
6.41443
 21
392.5497
 31
0.0
  0
LINE
  5
2F9
330
1E
100
AcDbEntity
  8
0
100
AcDbLine
 10
4.68043
 20
400.5497
 30
0.0
 11
6.41443
 21
400.5497
 31
0.0
  0
LINE
  5
2FC
330
1E
100
AcDbEntity
  8
0
100
AcDbLine
 10
4.68043
 20
408.6096999999999
 30
0.0
 11
6.41443
 21
408.6096999999999
 31
0.0
  0
LINE
  5
2FF
330
1E
100
AcDbEntity
  8
0
100
AcDbLine
 10
4.68043
 20
432.6096999999999
 30
0.0
 11
6.41443
 21
432.6096999999999
 31
0.0
  0
LINE
  5
300
330
1E
100
AcDbEntity
  8
0
100
AcDbLine
 10
4.68043
 20
424.6096999999999
 30
0.0
 11
6.41443
 21
424.6096999999999
 31
0.0
  0
LINE
  5
301
330
1E
100
AcDbEntity
  8
0
100
AcDbLine
 10
4.68043
 20
416.6096999999999
 30
0.0
 11
6.41443
 21
416.6096999999999
 31
0.0
  0
LINE
  5
304
330
1E
100
AcDbEntity
  8
0
100
AcDbLine
 10
4.68043
 20
440.6096999999999
 30
0.0
 11
6.41443
 21
440.6096999999999
 31
0.0
  0
LINE
  5
30F
330
1E
100
AcDbEntity
  8
0
100
AcDbLine
 10
4.574759999999999
 20
480.7157
 30
0.0
 11
6.308759999999999
 21
480.7157
 31
0.0
  0
LINE
  5
310
330
1E
100
AcDbEntity
  8
0
100
AcDbLine
 10
4.574759999999999
 20
472.7157
 30
0.0
 11
6.308759999999999
 21
472.7157
 31
0.0
  0
LINE
  5
311
330
1E
100
AcDbEntity
  8
0
100
AcDbLine
 10
4.574759999999999
 20
496.7157
 30
0.0
 11
6.308759999999999
 21
496.7157
 31
0.0
  0
LINE
  5
312
330
1E
100
AcDbEntity
  8
0
100
AcDbLine
 10
4.574759999999999
 20
488.7157
 30
0.0
 11
6.308759999999999
 21
488.7157
 31
0.0
  0
LINE
  5
313
330
1E
100
AcDbEntity
  8
0
100
AcDbLine
 10
4.574759999999999
 20
464.6557
 30
0.0
 11
6.308759999999999
 21
464.6557
 31
0.0
  0
LINE
  5
314
330
1E
100
AcDbEntity
  8
0
100
AcDbLine
 10
4.68043
 20
528.4917
 30
0.0
 11
6.41443
 21
528.4337
 31
0.0
  0
LINE
  5
315
330
1E
100
AcDbEntity
  8
0
100
AcDbLine
 10
4.68043
 20
520.4987
 30
0.0
 11
6.41443
 21
520.4416999999999
 31
0.0
  0
LINE
  5
316
330
1E
100
AcDbEntity
  8
0
100
AcDbLine
 10
4.68043
 20
536.7817
 30
0.0
 11
6.41443
 21
536.7127
 31
0.0
  0
LINE
  5
317
330
1E
100
AcDbEntity
  8
0
100
AcDbLine
 10
4.68043
 20
512.6096999999999
 30
0.0
 11
6.41443
 21
512.6096999999999
 31
0.0
  0
LINE
  5
318
330
1E
100
AcDbEntity
  8
0
100
AcDbLine
 10
4.68043
 20
504.6096999999999
 30
0.0
 11
6.41443
 21
504.6096999999999
 31
0.0
  0
LINE
  5
319
330
1E
100
AcDbEntity
  8
0
100
AcDbLine
 10
4.574759999999999
 20
456.6557
 30
0.0
 11
6.308759999999999
 21
456.6557
 31
0.0
  0
LINE
  5
31A
330
1E
100
AcDbEntity
  8
0
100
AcDbLine
 10
4.68043
 20
448.6097
 30
0.0
 11
6.41443
 21
448.6097
 31
0.0
  0
LINE
  5
31D
330
1E
100
AcDbEntity
  8
0
100
AcDbLine
 10
4.25776
 20
272.7157
 30
0.0
 11
5.99176
 21
272.7157
 31
0.0
  0
LINE
  5
31E
330
1E
100
AcDbEntity
  8
0
100
AcDbLine
 10
4.25776
 20
264.7157
 30
0.0
 11
5.99176
 21
264.7157
 31
0.0
  0
LINE
  5
31F
330
1E
100
AcDbEntity
  8
0
100
AcDbLine
 10
4.14348
 20
208.8296999999999
 30
0.0
 11
5.87748
 21
208.8296999999999
 31
0.0
  0
LINE
  5
320
330
1E
100
AcDbEntity
  8
0
100
AcDbLine
 10
4.14348
 20
200.8297
 30
0.0
 11
5.87748
 21
200.8297
 31
0.0
  0
LINE
  5
321
330
1E
100
AcDbEntity
  8
0
100
AcDbLine
 10
4.029209999999999
 20
112.8297
 30
0.0
 11
5.763209999999999
 21
112.8297
 31
0.0
  0
LINE
  5
322
330
1E
100
AcDbEntity
  8
0
100
AcDbLine
 10
4.029209999999999
 20
104.8297
 30
0.0
 11
5.763209999999999
 21
104.8297
 31
0.0
  0
LINE
  5
324
330
1E
100
AcDbEntity
  8
0
100
AcDbLine
 10
3.91493
 20
64.8297
 30
0.0
 11
5.64893
 21
64.8297
 31
0.0
  0
LINE
  5
327
330
1E
100
AcDbEntity
  8
0
100
AcDbLine
 10
3.68638
 20
24.83
 30
0.0
 11
5.42038
 21
24.83
 31
0.0
  0
LINE
  5
328
330
1E
100
AcDbEntity
  8
0
100
AcDbLine
 10
3.68638
 20
16.82999999999999
 30
0.0
 11
5.42038
 21
16.82999999999999
 31
0.0
  0
LINE
  5
32B
330
1E
100
AcDbEntity
  8
0
100
AcDbLine
 10
5.42038
 20
8.83009999999999
 30
0.0
 11
7.39238
 21
8.83009999999999
 31
0.0
  0
LINE
  5
330
330
1E
100
AcDbEntity
  8
0
100
AcDbLine
 10
5.42038
 20
48.83
 30
0.0
 11
7.39238
 21
48.83
 31
0.0
  0
LINE
  5
331
330
1E
100
AcDbEntity
  8
0
100
AcDbLine
 10
5.42038
 20
40.83
 30
0.0
 11
7.39238
 21
40.83
 31
0.0
  0
LINE
  5
332
330
1E
100
AcDbEntity
  8
0
100
AcDbLine
 10
5.42038
 20
32.82999999999999
 30
0.0
 11
7.39238
 21
32.82999999999999
 31
0.0
  0
LINE
  5
333
330
1E
100
AcDbEntity
  8
0
100
AcDbLine
 10
5.64893
 20
56.8297
 30
0.0
 11
7.62093
 21
56.8297
 31
0.0
  0
LINE
  5
338
330
1E
100
AcDbEntity
  8
0
100
AcDbLine
 10
5.64893
 20
80.82970000000001
 30
0.0
 11
7.62093
 21
80.82970000000001
 31
0.0
  0
LINE
  5
339
330
1E
100
AcDbEntity
  8
0
100
AcDbLine
 10
5.64893
 20
72.8297
 30
0.0
 11
7.62093
 21
72.8297
 31
0.0
  0
LINE
  5
33A
330
1E
100
AcDbEntity
  8
0
100
AcDbLine
 10
5.64893
 20
96.8297
 30
0.0
 11
7.62093
 21
96.8297
 31
0.0
  0
LINE
  5
33B
330
1E
100
AcDbEntity
  8
0
100
AcDbLine
 10
5.64893
 20
88.8297
 30
0.0
 11
7.62093
 21
88.8297
 31
0.0
  0
LINE
  5
345
330
1E
100
AcDbEntity
  8
0
100
AcDbLine
 10
5.763209999999999
 20
144.8296999999999
 30
0.0
 11
7.73521
 21
144.8296999999999
 31
0.0
  0
LINE
  5
346
330
1E
100
AcDbEntity
  8
0
100
AcDbLine
 10
5.763209999999999
 20
136.8297
 30
0.0
 11
7.73521
 21
136.8297
 31
0.0
  0
LINE
  5
347
330
1E
100
AcDbEntity
  8
0
100
AcDbLine
 10
5.763209999999999
 20
160.8297
 30
0.0
 11
7.73521
 21
160.8297
 31
0.0
  0
LINE
  5
348
330
1E
100
AcDbEntity
  8
0
100
AcDbLine
 10
5.763209999999999
 20
152.8297
 30
0.0
 11
7.73521
 21
152.8297
 31
0.0
  0
LINE
  5
349
330
1E
100
AcDbEntity
  8
0
100
AcDbLine
 10
5.763209999999999
 20
176.8297
 30
0.0
 11
7.73521
 21
176.8297
 31
0.0
  0
LINE
  5
34A
330
1E
100
AcDbEntity
  8
0
100
AcDbLine
 10
5.763209999999999
 20
168.8297
 30
0.0
 11
7.73521
 21
168.8297
 31
0.0
  0
LINE
  5
34B
330
1E
100
AcDbEntity
  8
0
100
AcDbLine
 10
5.763209999999999
 20
128.8297
 30
0.0
 11
7.73521
 21
128.8297
 31
0.0
  0
LINE
  5
34C
330
1E
100
AcDbEntity
  8
0
100
AcDbLine
 10
5.763209999999999
 20
120.8296999999999
 30
0.0
 11
7.73521
 21
120.8296999999999
 31
0.0
  0
LINE
  5
357
330
1E
100
AcDbEntity
  8
0
100
AcDbLine
 10
5.763209999999999
 20
112.8297
 30
0.0
 11
7.73521
 21
112.8297
 31
0.0
  0
LINE
  5
358
330
1E
100
AcDbEntity
  8
0
100
AcDbLine
 10
5.763209999999999
 20
104.8297
 30
0.0
 11
7.73521
 21
104.8297
 31
0.0
  0
LINE
  5
35A
330
1E
100
AcDbEntity
  8
0
100
AcDbLine
 10
5.64893
 20
64.8297
 30
0.0
 11
7.62093
 21
64.8297
 31
0.0
  0
LINE
  5
35D
330
1E
100
AcDbEntity
  8
0
100
AcDbLine
 10
5.42038
 20
24.83
 30
0.0
 11
7.39238
 21
24.83
 31
0.0
  0
LINE
  5
35E
330
1E
100
AcDbEntity
  8
0
100
AcDbLine
 10
5.42038
 20
16.82999999999999
 30
0.0
 11
7.39238
 21
16.82999999999999
 31
0.0
  0
LINE
  5
363
330
1E
100
AcDbEntity
  8
0
100
AcDbLine
 10
5.87748
 20
192.8297
 30
0.0
 11
7.84948
 21
192.8297
 31
0.0
  0
LINE
  5
364
330
1E
100
AcDbEntity
  8
0
100
AcDbLine
 10
5.87748
 20
184.8297
 30
0.0
 11
7.84948
 21
184.8297
 31
0.0
  0
LINE
  5
365
330
1E
100
AcDbEntity
  8
0
100
AcDbLine
 10
5.87748
 20
240.8297
 30
0.0
 11
7.84948
 21
240.8297
 31
0.0
  0
LINE
  5
366
330
1E
100
AcDbEntity
  8
0
100
AcDbLine
 10
5.87748
 20
232.8297
 30
0.0
 11
7.84948
 21
232.8297
 31
0.0
  0
LINE
  5
367
330
1E
100
AcDbEntity
  8
0
100
AcDbLine
 10
5.87748
 20
256.8297
 30
0.0
 11
7.84948
 21
256.8297
 31
0.0
  0
LINE
  5
368
330
1E
100
AcDbEntity
  8
0
100
AcDbLine
 10
5.87748
 20
248.8297
 30
0.0
 11
7.84948
 21
248.8297
 31
0.0
  0
LINE
  5
369
330
1E
100
AcDbEntity
  8
0
100
AcDbLine
 10
5.87748
 20
224.8296999999999
 30
0.0
 11
7.84948
 21
224.8296999999999
 31
0.0
  0
LINE
  5
36A
330
1E
100
AcDbEntity
  8
0
100
AcDbLine
 10
5.87748
 20
216.8296999999999
 30
0.0
 11
7.84948
 21
216.8296999999999
 31
0.0
  0
LINE
  5
36B
330
1E
100
AcDbEntity
  8
0
100
AcDbLine
 10
5.99176
 20
264.7157
 30
0.0
 11
7.96376
 21
264.7157
 31
0.0
  0
LINE
  5
37A
330
1E
100
AcDbEntity
  8
0
100
AcDbLine
 10
5.99176
 20
304.6557
 30
0.0
 11
7.96376
 21
304.6557
 31
0.0
  0
LINE
  5
37B
330
1E
100
AcDbEntity
  8
0
100
AcDbLine
 10
5.99176
 20
296.6557
 30
0.0
 11
7.96376
 21
296.6557
 31
0.0
  0
LINE
  5
37C
330
1E
100
AcDbEntity
  8
0
100
AcDbLine
 10
5.99176
 20
336.6557
 30
0.0
 11
7.96376
 21
336.6557
 31
0.0
  0
LINE
  5
37D
330
1E
100
AcDbEntity
  8
0
100
AcDbLine
 10
5.99176
 20
328.6557
 30
0.0
 11
7.96376
 21
328.6557
 31
0.0
  0
LINE
  5
37E
330
1E
100
AcDbEntity
  8
0
100
AcDbLine
 10
5.99176
 20
352.7157
 30
0.0
 11
7.96376
 21
352.7157
 31
0.0
  0
LINE
  5
37F
330
1E
100
AcDbEntity
  8
0
100
AcDbLine
 10
5.99176
 20
344.7157
 30
0.0
 11
7.96376
 21
344.7157
 31
0.0
  0
LINE
  5
380
330
1E
100
AcDbEntity
  8
0
100
AcDbLine
 10
5.99176
 20
384.7157
 30
0.0
 11
7.96376
 21
384.7157
 31
0.0
  0
LINE
  5
381
330
1E
100
AcDbEntity
  8
0
100
AcDbLine
 10
5.99176
 20
376.7157
 30
0.0
 11
7.96376
 21
376.7157
 31
0.0
  0
LINE
  5
382
330
1E
100
AcDbEntity
  8
0
100
AcDbLine
 10
5.99176
 20
368.7157
 30
0.0
 11
7.96376
 21
368.7157
 31
0.0
  0
LINE
  5
383
330
1E
100
AcDbEntity
  8
0
100
AcDbLine
 10
5.99176
 20
360.7157
 30
0.0
 11
7.96376
 21
360.7157
 31
0.0
  0
LINE
  5
384
330
1E
100
AcDbEntity
  8
0
100
AcDbLine
 10
5.99176
 20
320.6557
 30
0.0
 11
7.96376
 21
320.6557
 31
0.0
  0
LINE
  5
385
330
1E
100
AcDbEntity
  8
0
100
AcDbLine
 10
5.99176
 20
312.6557
 30
0.0
 11
7.96376
 21
312.6557
 31
0.0
  0
LINE
  5
386
330
1E
100
AcDbEntity
  8
0
100
AcDbLine
 10
5.99176
 20
288.7157
 30
0.0
 11
7.96376
 21
288.7157
 31
0.0
  0
LINE
  5
387
330
1E
100
AcDbEntity
  8
0
100
AcDbLine
 10
6.41443
 20
392.5497
 30
0.0
 11
8.38643
 21
392.5497
 31
0.0
  0
LINE
  5
388
330
1E
100
AcDbEntity
  8
0
100
AcDbLine
 10
6.41443
 20
400.5497
 30
0.0
 11
8.38643
 21
400.5497
 31
0.0
  0
LINE
  5
38B
330
1E
100
AcDbEntity
  8
0
100
AcDbLine
 10
6.41443
 20
408.6096999999999
 30
0.0
 11
8.38643
 21
408.6096999999999
 31
0.0
  0
LINE
  5
38E
330
1E
100
AcDbEntity
  8
0
100
AcDbLine
 10
6.41443
 20
432.6096999999999
 30
0.0
 11
8.38643
 21
432.6096999999999
 31
0.0
  0
LINE
  5
38F
330
1E
100
AcDbEntity
  8
0
100
AcDbLine
 10
6.41443
 20
424.6096999999999
 30
0.0
 11
8.38643
 21
424.6096999999999
 31
0.0
  0
LINE
  5
390
330
1E
100
AcDbEntity
  8
0
100
AcDbLine
 10
6.41443
 20
416.6096999999999
 30
0.0
 11
8.38643
 21
416.6096999999999
 31
0.0
  0
LINE
  5
393
330
1E
100
AcDbEntity
  8
0
100
AcDbLine
 10
6.41443
 20
440.6096999999999
 30
0.0
 11
8.38643
 21
440.6096999999999
 31
0.0
  0
LINE
  5
394
330
1E
100
AcDbEntity
  8
0
100
AcDbLine
 10
6.308759999999999
 20
456.6557
 30
0.0
 11
8.28076
 21
456.6557
 31
0.0
  0
LINE
  5
399
330
1E
100
AcDbEntity
  8
0
100
AcDbLine
 10
6.308759999999999
 20
480.7157
 30
0.0
 11
8.28076
 21
480.7157
 31
0.0
  0
LINE
  5
39A
330
1E
100
AcDbEntity
  8
0
100
AcDbLine
 10
6.308759999999999
 20
472.7157
 30
0.0
 11
8.28076
 21
472.7157
 31
0.0
  0
LINE
  5
39B
330
1E
100
AcDbEntity
  8
0
100
AcDbLine
 10
6.308759999999999
 20
496.7157
 30
0.0
 11
8.28076
 21
496.7157
 31
0.0
  0
LINE
  5
3A0
330
1E
100
AcDbEntity
  8
0
100
AcDbLine
 10
6.308759999999999
 20
488.7157
 30
0.0
 11
8.28076
 21
488.7157
 31
0.0
  0
LINE
  5
3A1
330
1E
100
AcDbEntity
  8
0
100
AcDbLine
 10
6.308759999999999
 20
464.6557
 30
0.0
 11
8.28076
 21
464.6557
 31
0.0
  0
LINE
  5
3A4
330
1E
100
AcDbEntity
  8
0
100
AcDbLine
 10
6.41443
 20
528.4337
 30
0.0
 11
8.38643
 21
528.3986999999999
 31
0.0
  0
LINE
  5
3A5
330
1E
100
AcDbEntity
  8
0
100
AcDbLine
 10
6.41443
 20
520.4416999999999
 30
0.0
 11
8.38643
 21
520.4057
 31
0.0
  0
LINE
  5
3A6
330
1E
100
AcDbEntity
  8
0
100
AcDbLine
 10
6.41443
 20
536.7127
 30
0.0
 11
8.38643
 21
536.6706999999999
 31
0.0
  0
LINE
  5
3A7
330
1E
100
AcDbEntity
  8
0
100
AcDbLine
 10
6.41443
 20
512.6096999999999
 30
0.0
 11
8.38643
 21
512.6096999999999
 31
0.0
  0
LINE
  5
3A8
330
1E
100
AcDbEntity
  8
0
100
AcDbLine
 10
6.41443
 20
504.6096999999999
 30
0.0
 11
8.38643
 21
504.6096999999999
 31
0.0
  0
LINE
  5
3A9
330
1E
100
AcDbEntity
  8
0
100
AcDbLine
 10
6.41443
 20
448.6097
 30
0.0
 11
8.38643
 21
448.6097
 31
0.0
  0
LINE
  5
3AC
330
1E
100
AcDbEntity
  8
0
100
AcDbLine
 10
5.99176
 20
280.7157
 30
0.0
 11
7.96376
 21
280.7157
 31
0.0
  0
LINE
  5
3AD
330
1E
100
AcDbEntity
  8
0
100
AcDbLine
 10
5.99176
 20
272.7157
 30
0.0
 11
7.96376
 21
272.7157
 31
0.0
  0
LINE
  5
3B0
330
1E
100
AcDbEntity
  8
0
100
AcDbLine
 10
5.87748
 20
208.8296999999999
 30
0.0
 11
7.84948
 21
208.8296999999999
 31
0.0
  0
LINE
  5
3B1
330
1E
100
AcDbEntity
  8
0
100
AcDbLine
 10
5.87748
 20
200.8297
 30
0.0
 11
7.84948
 21
200.8297
 31
0.0
  0
LINE
  5
3B7
330
1E
100
AcDbEntity
  8
0
100
AcDbLine
 10
3.35443
 20
553.2957
 30
0.0
 11
4.68043
 21
553.0547
 31
0.0
  0
LINE
  5
3B8
330
1E
100
AcDbEntity
  8
0
100
AcDbLine
 10
3.35443
 20
570.3057
 30
0.0
 11
4.68043
 21
570.0426999999999
 31
0.0
  0
LINE
  5
3BA
330
1E
100
AcDbEntity
  8
0
100
AcDbLine
 10
3.35443
 20
561.2177
 30
0.0
 11
4.68043
 21
560.9767
 31
0.0
  0
LINE
  5
3BD
330
1E
100
AcDbEntity
  8
0
100
AcDbLine
 10
3.35443
 20
544.8606999999999
 30
0.0
 11
4.68043
 21
544.7707
 31
0.0
  0
LINE
  5
3BE
330
1E
100
AcDbEntity
  8
0
100
AcDbLine
 10
4.68043
 20
570.0426999999999
 30
0.0
 11
6.41443
 21
569.8416999999999
 31
0.0
  0
LINE
  5
3BF
330
1E
100
AcDbEntity
  8
0
100
AcDbLine
 10
4.68043
 20
560.9767
 30
0.0
 11
6.41443
 21
560.7927
 31
0.0
  0
LINE
  5
3C0
330
1E
100
AcDbEntity
  8
0
100
AcDbLine
 10
4.68043
 20
553.0547
 30
0.0
 11
6.41443
 21
552.8707
 31
0.0
  0
LINE
  5
3C3
330
1E
100
AcDbEntity
  8
0
100
AcDbLine
 10
6.41443
 20
569.8416999999999
 30
0.0
 11
8.38643
 21
569.7177
 31
0.0
  0
LINE
  5
3C4
330
1E
100
AcDbEntity
  8
0
100
AcDbLine
 10
6.41443
 20
560.7927
 30
0.0
 11
8.38643
 21
560.6787
 31
0.0
  0
LINE
  5
3C5
330
1E
100
AcDbEntity
  8
0
100
AcDbLine
 10
6.41443
 20
552.8707
 30
0.0
 11
7.11477995901636
 21
552.8302132376629
 31
0.0
  0
LINE
  5
3C7
330
1E
100
AcDbEntity
  8
0
100
AcDbLine
 10
6.41443
 20
544.7027
 30
0.0
 11
8.38643
 21
544.6597
 31
0.0
  0
LINE
  5
3C8
330
1E
100
AcDbEntity
  8
0
100
AcDbLine
 10
4.68043
 20
544.7707
 30
0.0
 11
6.41443
 21
544.7027
 31
0.0
  0
LINE
  5
3CD
330
1E
100
AcDbEntity
  8
0
100
AcDbLine
 10
2.61358081774783
 20
536.9633061477819
 30
0.0
 11
2.61757486226315
 21
528.652621213996
 31
0.0
  0
LINE
  5
3CE
330
1E
100
AcDbEntity
  8
0
100
AcDbLine
 10
2.60561076736496
 20
553.5471417521349
 30
0.0
 11
2.609736381588379
 21
544.9626906180319
 31
0.0
  0
LINE
  5
3D2
330
1E
100
AcDbEntity
  8
0
100
AcDbLine
 10
3.35443
 20
585.0036999999999
 30
0.0
 11
4.68043
 21
584.7197
 31
0.0
  0
LINE
  5
3D3
330
1E
100
AcDbEntity
  8
0
100
AcDbLine
 10
6.41443
 20
577.7486999999999
 30
0.0
 11
8.38643
 21
577.6246999999999
 31
0.0
  0
LINE
  5
3D4
330
1E
100
AcDbEntity
  8
0
100
AcDbLine
 10
6.41443
 20
584.5026999999999
 30
0.0
 11
8.38643
 21
584.3687
 31
0.0
  0
LINE
  5
3D5
330
1E
100
AcDbEntity
  8
0
100
AcDbLine
 10
4.68043
 20
584.7197
 30
0.0
 11
6.41443
 21
584.5026999999999
 31
0.0
  0
LINE
  5
3D8
330
1E
100
AcDbEntity
  8
0
100
AcDbLine
 10
4.68043
 20
577.9497
 30
0.0
 11
6.41443
 21
577.7486999999999
 31
0.0
  0
LINE
  5
3D9
330
1E
100
AcDbEntity
  8
0
100
AcDbLine
 10
3.35443
 20
578.2127
 30
0.0
 11
4.68043
 21
577.9497
 31
0.0
  0
LINE
  5
3DC
330
1E
100
AcDbEntity
  8
0
100
AcDbLine
 10
2.588317497294229
 20
570.587359008348
 30
0.0
 11
2.59907116928295
 21
561.7897
 31
0.0
  0
LINE
  5
3DD
330
1E
100
AcDbEntity
  8
0
100
AcDbLine
 10
2.575209999999999
 20
581.3107
 30
0.0
 11
2.578232830369179
 21
578.8377
 31
0.0
  0
LINE
  5
3E2
330
1E
100
AcDbEntity
  8
0
100
AcDbLine
 10
3.35443
 20
607.0897
 30
0.0
 11
4.68043
 21
606.7087
 31
0.0
  0
LINE
  5
3E3
330
1E
100
AcDbEntity
  8
0
100
AcDbLine
 10
3.35443
 20
599.2847
 30
0.0
 11
4.68043
 21
598.9036999999999
 31
0.0
  0
LINE
  5
3E4
330
1E
100
AcDbEntity
  8
0
100
AcDbLine
 10
3.35443
 20
613.7836999999999
 30
0.0
 11
4.68043
 21
613.3827
 31
0.0
  0
LINE
  5
3E5
330
1E
100
AcDbEntity
  8
0
100
AcDbLine
 10
6.41443
 20
592.3936999999999
 30
0.0
 11
8.38643
 21
592.2607
 31
0.0
  0
LINE
  5
3E8
330
1E
100
AcDbEntity
  8
0
100
AcDbLine
 10
4.68043
 20
598.9036999999999
 30
0.0
 11
6.41443
 21
598.6127
 31
0.0
  0
LINE
  5
3E9
330
1E
100
AcDbEntity
  8
0
100
AcDbLine
 10
6.41443
 20
598.6127
 30
0.0
 11
8.38643
 21
598.4326999999999
 31
0.0
  0
LINE
  5
3EB
330
1E
100
AcDbEntity
  8
0
100
AcDbLine
 10
6.41443
 20
606.4167
 30
0.0
 11
8.38643
 21
606.2377
 31
0.0
  0
LINE
  5
3EC
330
1E
100
AcDbEntity
  8
0
100
AcDbLine
 10
4.68043
 20
606.7087
 30
0.0
 11
6.41443
 21
606.4167
 31
0.0
  0
LINE
  5
3EE
330
1E
100
AcDbEntity
  8
0
100
AcDbLine
 10
6.41443
 20
613.0747
 30
0.0
 11
8.38643
 21
612.8857
 31
0.0
  0
LINE
  5
3EF
330
1E
100
AcDbEntity
  8
0
100
AcDbLine
 10
4.68043
 20
613.3827
 30
0.0
 11
6.41443
 21
613.0747
 31
0.0
  0
LINE
  5
3F2
330
1E
100
AcDbEntity
  8
0
100
AcDbLine
 10
4.68043
 20
592.6117
 30
0.0
 11
6.41443
 21
592.3936999999999
 31
0.0
  0
LINE
  5
3F3
330
1E
100
AcDbEntity
  8
0
100
AcDbLine
 10
3.35443
 20
592.8957
 30
0.0
 11
4.68043
 21
592.6117
 31
0.0
  0
LINE
  5
3F6
330
1E
100
AcDbEntity
  8
0
100
AcDbLine
 10
2.56843767988684
 20
585.3157851859269
 30
0.0
 11
2.575209999999999
 21
581.3107
 31
0.0
  0
LINE
  5
3F7
330
1E
100
AcDbEntity
  8
0
100
AcDbLine
 10
2.54409012362788
 20
599.714696527536
 30
0.0
 11
2.5544791938541
 21
593.5706999999999
 31
0.0
  0
LINE
  5
3F8
330
1E
100
AcDbEntity
  8
0
100
AcDbLine
 10
6.41443
 20
620.8577
 30
0.0
 11
8.38643
 21
620.6686999999999
 31
0.0
  0
LINE
  5
3F9
330
1E
100
AcDbEntity
  8
0
100
AcDbLine
 10
4.68043
 20
621.1647
 30
0.0
 11
6.41443
 21
620.8577
 31
0.0
  0
LINE
  5
3FC
330
1E
100
AcDbEntity
  8
0
100
AcDbLine
 10
2.538429999999999
 20
635.9516999999999
 30
0.0
 11
3.35443
 21
635.3496999999999
 31
0.0
  0
LINE
  5
3FD
330
1E
100
AcDbEntity
  8
0
100
AcDbLine
 10
2.538429999999999
 20
628.3337
 30
0.0
 11
3.35443
 21
627.7317
 31
0.0
  0
LINE
  5
3FE
330
1E
100
AcDbEntity
  8
0
100
AcDbLine
 10
2.538429999999999
 20
650.0856999999999
 30
0.0
 11
3.35443
 21
649.4607
 31
0.0
  0
LINE
  5
3FF
330
1E
100
AcDbEntity
  8
0
100
AcDbLine
 10
2.538429999999999
 20
642.4986999999999
 30
0.0
 11
3.35443
 21
641.8737
 31
0.0
  0
LINE
  5
403
330
1E
100
AcDbEntity
  8
0
100
AcDbLine
 10
3.35443
 20
635.3496999999999
 30
0.0
 11
4.68043
 21
634.8196999999999
 31
0.0
  0
LINE
  5
404
330
1E
100
AcDbEntity
  8
0
100
AcDbLine
 10
3.35443
 20
627.7317
 30
0.0
 11
4.68043
 21
627.2016999999999
 31
0.0
  0
LINE
  5
407
330
1E
100
AcDbEntity
  8
0
100
AcDbLine
 10
3.35443
 20
641.8737
 30
0.0
 11
4.68043
 21
641.3237
 31
0.0
  0
LINE
  5
408
330
1E
100
AcDbEntity
  8
0
100
AcDbLine
 10
4.68043
 20
634.8196999999999
 30
0.0
 11
6.41443
 21
634.4147
 31
0.0
  0
LINE
  5
409
330
1E
100
AcDbEntity
  8
0
100
AcDbLine
 10
4.68043
 20
627.2016999999999
 30
0.0
 11
6.41443
 21
626.7977
 31
0.0
  0
LINE
  5
40C
330
1E
100
AcDbEntity
  8
0
100
AcDbLine
 10
4.68043
 20
641.3237
 30
0.0
 11
6.41443
 21
640.9027
 31
0.0
  0
LINE
  5
40D
330
1E
100
AcDbEntity
  8
0
100
AcDbLine
 10
6.41443
 20
634.4147
 30
0.0
 11
8.38643
 21
634.1657
 31
0.0
  0
LINE
  5
40E
330
1E
100
AcDbEntity
  8
0
100
AcDbLine
 10
6.41443
 20
626.7977
 30
0.0
 11
8.38643
 21
626.5476999999999
 31
0.0
  0
LINE
  5
40F
330
1E
100
AcDbEntity
  8
0
100
AcDbLine
 10
6.41443
 20
640.9027
 30
0.0
 11
8.38643
 21
640.6447
 31
0.0
  0
LINE
  5
411
330
1E
100
AcDbEntity
  8
0
100
AcDbLine
 10
6.41443
 20
648.4906999999999
 30
0.0
 11
8.38643
 21
648.2317
 31
0.0
  0
LINE
  5
414
330
1E
100
AcDbEntity
  8
0
100
AcDbLine
 10
4.68043
 20
648.9107
 30
0.0
 11
6.41443
 21
648.4906999999999
 31
0.0
  0
LINE
  5
415
330
1E
100
AcDbEntity
  8
0
100
AcDbLine
 10
3.35443
 20
649.4607
 30
0.0
 11
4.68043
 21
648.9107
 31
0.0
  0
LINE
  5
418
330
1E
100
AcDbEntity
  8
0
100
AcDbLine
 10
3.35443
 20
621.5666999999999
 30
0.0
 11
4.68043
 21
621.1647
 31
0.0
  0
LINE
  5
419
330
1E
100
AcDbEntity
  8
0
100
AcDbLine
 10
2.538429999999999
 20
622.0227
 30
0.0
 11
3.35443
 21
621.5666999999999
 31
0.0
  0
LINE
  5
41B
330
1E
100
AcDbEntity
  8
0
100
AcDbLine
 10
2.485396832473599
 20
628.4072705216179
 30
0.0
 11
2.49803902777224
 21
622.5196999999999
 31
0.0
  0
LINE
  5
41C
330
1E
100
AcDbEntity
  8
0
100
AcDbLine
 10
2.515746785456029
 20
614.273056938394
 30
0.0
 11
2.529232398693069
 21
607.9927
 31
0.0
  0
LINE
  5
41D
330
1E
100
AcDbEntity
  8
0
100
AcDbLine
 10
2.444699461867799
 20
642.6278092216429
 30
0.0
 11
2.46298784601402
 21
636.6056999999999
 31
0.0
  0
LINE
  5
41F
330
1E
100
AcDbEntity
  8
0
100
AcDbLine
 10
2.334429999999999
 20
656.6737
 30
0.0
 11
2.538429999999999
 21
656.4027
 31
0.0
  0
LINE
  5
420
330
1E
100
AcDbEntity
  8
0
100
AcDbLine
 10
2.028429999999999
 20
657.5077
 30
0.0
 11
2.334429999999999
 21
656.6737
 31
0.0
  0
LINE
  5
421
330
1E
100
AcDbEntity
  8
0
100
AcDbLine
 10
2.028429999999999
 20
657.5077
 30
0.0
 11
2.028429999999999
 21
664.3287
 31
0.0
  0
LINE
  5
422
330
1E
100
AcDbEntity
  8
0
100
AcDbLine
 10
3.35443
 20
655.6477
 30
0.0
 11
4.68043
 21
654.9837
 31
0.0
  0
LINE
  5
423
330
1E
100
AcDbEntity
  8
0
100
AcDbLine
 10
6.41443
 20
654.4756999999999
 30
0.0
 11
8.38643
 21
654.1627
 31
0.0
  0
LINE
  5
424
330
1E
100
AcDbEntity
  8
0
100
AcDbLine
 10
4.68043
 20
654.9837
 30
0.0
 11
6.41443
 21
654.4756999999999
 31
0.0
  0
LINE
  5
427
330
1E
100
AcDbEntity
  8
0
100
AcDbLine
 10
2.538429999999999
 20
656.4027
 30
0.0
 11
3.35443
 21
655.6477
 31
0.0
  0
LINE
  5
428
330
1E
100
AcDbEntity
  8
0
100
AcDbLine
 10
2.494539822485279
 20
656.520457633136
 30
0.0
 11
2.538429999999999
 21
656.4027
 31
0.0
  0
LINE
  5
42B
330
1E
100
AcDbEntity
  8
0
100
AcDbLine
 10
2.409219999999999
 20
654.3107
 30
0.0
 11
2.4479287299261
 21
656.5229247264219
 31
0.0
  0
LINE
  5
42C
330
1E
100
AcDbEntity
  8
0
100
AcDbLine
 10
2.409219999999999
 20
654.3107
 30
0.0
 11
2.419988753570499
 21
650.7646999999999
 31
0.0
  0
LINE
  5
42E
330
1E
100
AcDbEntity
  8
0
100
AcDbLine
 10
7.39238
 20
48.83
 30
0.0
 11
9.534399999999999
 21
48.83
 31
0.0
  0
LINE
  5
42F
330
1E
100
AcDbEntity
  8
0
100
AcDbLine
 10
7.39238
 20
40.83
 30
0.0
 11
9.534399999999999
 21
40.83
 31
0.0
  0
LINE
  5
430
330
1E
100
AcDbEntity
  8
0
100
AcDbLine
 10
7.39238
 20
32.82999999999999
 30
0.0
 11
9.534399999999999
 21
32.82999999999999
 31
0.0
  0
LINE
  5
431
330
1E
100
AcDbEntity
  8
0
100
AcDbLine
 10
7.39238
 20
24.83
 30
0.0
 11
9.534399999999999
 21
24.83
 31
0.0
  0
LINE
  5
432
330
1E
100
AcDbEntity
  8
0
100
AcDbLine
 10
7.39238
 20
16.82999999999999
 30
0.0
 11
9.534399999999999
 21
16.82999999999999
 31
0.0
  0
LINE
  5
433
330
1E
100
AcDbEntity
  8
0
100
AcDbLine
 10
7.62093
 20
80.82970000000001
 30
0.0
 11
9.7629
 21
80.82970000000001
 31
0.0
  0
LINE
  5
434
330
1E
100
AcDbEntity
  8
0
100
AcDbLine
 10
7.62093
 20
72.8297
 30
0.0
 11
9.7629
 21
72.8297
 31
0.0
  0
LINE
  5
435
330
1E
100
AcDbEntity
  8
0
100
AcDbLine
 10
7.11477995901636
 20
552.8302132376629
 30
0.0
 11
8.38643
 21
552.7567
 31
0.0
  0
LINE
  5
436
330
1E
100
AcDbEntity
  8
0
100
AcDbLine
 10
7.62093
 20
96.8297
 30
0.0
 11
9.7629
 21
96.8297
 31
0.0
  0
LINE
  5
437
330
1E
100
AcDbEntity
  8
0
100
AcDbLine
 10
7.62093
 20
88.8297
 30
0.0
 11
9.7629
 21
88.8297
 31
0.0
  0
LINE
  5
438
330
1E
100
AcDbEntity
  8
0
100
AcDbLine
 10
7.73521
 20
144.8296999999999
 30
0.0
 11
9.8772
 21
144.8296999999999
 31
0.0
  0
LINE
  5
439
330
1E
100
AcDbEntity
  8
0
100
AcDbLine
 10
7.73521
 20
136.8297
 30
0.0
 11
9.8772
 21
136.8297
 31
0.0
  0
LINE
  5
43A
330
1E
100
AcDbEntity
  8
0
100
AcDbLine
 10
7.73521
 20
160.8297
 30
0.0
 11
9.8772
 21
160.8297
 31
0.0
  0
LINE
  5
43B
330
1E
100
AcDbEntity
  8
0
100
AcDbLine
 10
7.73521
 20
152.8297
 30
0.0
 11
9.8772
 21
152.8297
 31
0.0
  0
LINE
  5
43C
330
1E
100
AcDbEntity
  8
0
100
AcDbLine
 10
7.73521
 20
176.8297
 30
0.0
 11
9.8772
 21
176.8297
 31
0.0
  0
LINE
  5
43D
330
1E
100
AcDbEntity
  8
0
100
AcDbLine
 10
7.73521
 20
168.8297
 30
0.0
 11
9.8772
 21
168.8297
 31
0.0
  0
LINE
  5
43E
330
1E
100
AcDbEntity
  8
0
100
AcDbLine
 10
7.73521
 20
128.8297
 30
0.0
 11
9.8772
 21
128.8297
 31
0.0
  0
LINE
  5
43F
330
1E
100
AcDbEntity
  8
0
100
AcDbLine
 10
7.73521
 20
120.8296999999999
 30
0.0
 11
9.8772
 21
120.8296999999999
 31
0.0
  0
LINE
  5
440
330
1E
100
AcDbEntity
  8
0
100
AcDbLine
 10
7.84948
 20
192.8297
 30
0.0
 11
9.9915
 21
192.8297
 31
0.0
  0
LINE
  5
441
330
1E
100
AcDbEntity
  8
0
100
AcDbLine
 10
7.84948
 20
184.8297
 30
0.0
 11
9.9915
 21
184.8297
 31
0.0
  0
LINE
  5
442
330
1E
100
AcDbEntity
  8
0
100
AcDbLine
 10
7.84948
 20
240.8297
 30
0.0
 11
9.9915
 21
240.8297
 31
0.0
  0
LINE
  5
443
330
1E
100
AcDbEntity
  8
0
100
AcDbLine
 10
7.84948
 20
232.8297
 30
0.0
 11
9.9915
 21
232.8297
 31
0.0
  0
LINE
  5
444
330
1E
100
AcDbEntity
  8
0
100
AcDbLine
 10
7.84948
 20
256.8297
 30
0.0
 11
9.9915
 21
256.8297
 31
0.0
  0
LINE
  5
445
330
1E
100
AcDbEntity
  8
0
100
AcDbLine
 10
7.84948
 20
248.8297
 30
0.0
 11
9.9915
 21
248.8297
 31
0.0
  0
LINE
  5
446
330
1E
100
AcDbEntity
  8
0
100
AcDbLine
 10
7.84948
 20
224.8296999999999
 30
0.0
 11
9.9915
 21
224.8296999999999
 31
0.0
  0
LINE
  5
447
330
1E
100
AcDbEntity
  8
0
100
AcDbLine
 10
7.84948
 20
216.8296999999999
 30
0.0
 11
9.9915
 21
216.8296999999999
 31
0.0
  0
LINE
  5
448
330
1E
100
AcDbEntity
  8
0
100
AcDbLine
 10
7.96376
 20
304.6557
 30
0.0
 11
10.1058
 21
304.6557
 31
0.0
  0
LINE
  5
449
330
1E
100
AcDbEntity
  8
0
100
AcDbLine
 10
7.96376
 20
296.6557
 30
0.0
 11
10.1058
 21
296.6557
 31
0.0
  0
LINE
  5
44A
330
1E
100
AcDbEntity
  8
0
100
AcDbLine
 10
7.96376
 20
336.6557
 30
0.0
 11
10.1058
 21
336.6557
 31
0.0
  0
LINE
  5
44B
330
1E
100
AcDbEntity
  8
0
100
AcDbLine
 10
7.96376
 20
328.6557
 30
0.0
 11
10.1058
 21
328.6557
 31
0.0
  0
LINE
  5
44C
330
1E
100
AcDbEntity
  8
0
100
AcDbLine
 10
7.96376
 20
352.7157
 30
0.0
 11
10.1058
 21
352.7157
 31
0.0
  0
LINE
  5
44D
330
1E
100
AcDbEntity
  8
0
100
AcDbLine
 10
7.96376
 20
344.7157
 30
0.0
 11
10.1058
 21
344.7157
 31
0.0
  0
LINE
  5
44E
330
1E
100
AcDbEntity
  8
0
100
AcDbLine
 10
7.96376
 20
384.7157
 30
0.0
 11
10.1058
 21
384.7157
 31
0.0
  0
LINE
  5
44F
330
1E
100
AcDbEntity
  8
0
100
AcDbLine
 10
7.96376
 20
376.7157
 30
0.0
 11
10.1058
 21
376.7157
 31
0.0
  0
LINE
  5
450
330
1E
100
AcDbEntity
  8
0
100
AcDbLine
 10
7.96376
 20
368.7157
 30
0.0
 11
10.1058
 21
368.7157
 31
0.0
  0
LINE
  5
451
330
1E
100
AcDbEntity
  8
0
100
AcDbLine
 10
7.96376
 20
360.7157
 30
0.0
 11
10.1058
 21
360.7157
 31
0.0
  0
LINE
  5
452
330
1E
100
AcDbEntity
  8
0
100
AcDbLine
 10
7.96376
 20
320.6557
 30
0.0
 11
10.1058
 21
320.6557
 31
0.0
  0
LINE
  5
453
330
1E
100
AcDbEntity
  8
0
100
AcDbLine
 10
7.96376
 20
312.6557
 30
0.0
 11
10.1058
 21
312.6557
 31
0.0
  0
LINE
  5
454
330
1E
100
AcDbEntity
  8
0
100
AcDbLine
 10
7.96376
 20
288.7157
 30
0.0
 11
10.1058
 21
288.7157
 31
0.0
  0
LINE
  5
455
330
1E
100
AcDbEntity
  8
0
100
AcDbLine
 10
7.96376
 20
280.7157
 30
0.0
 11
10.1058
 21
280.7157
 31
0.0
  0
LINE
  5
456
330
1E
100
AcDbEntity
  8
0
100
AcDbLine
 10
8.38643
 20
400.5497
 30
0.0
 11
10.52839999999999
 21
400.5497
 31
0.0
  0
LINE
  5
457
330
1E
100
AcDbEntity
  8
0
100
AcDbLine
 10
8.38643
 20
392.5497
 30
0.0
 11
10.52839999999999
 21
392.5497
 31
0.0
  0
LINE
  5
458
330
1E
100
AcDbEntity
  8
0
100
AcDbLine
 10
8.38643
 20
432.6096999999999
 30
0.0
 11
10.52839999999999
 21
432.6096999999999
 31
0.0
  0
LINE
  5
459
330
1E
100
AcDbEntity
  8
0
100
AcDbLine
 10
8.38643
 20
424.6096999999999
 30
0.0
 11
10.52839999999999
 21
424.6096999999999
 31
0.0
  0
LINE
  5
45A
330
1E
100
AcDbEntity
  8
0
100
AcDbLine
 10
8.38643
 20
416.6096999999999
 30
0.0
 11
10.52839999999999
 21
416.6096999999999
 31
0.0
  0
LINE
  5
45B
330
1E
100
AcDbEntity
  8
0
100
AcDbLine
 10
8.38643
 20
408.6096999999999
 30
0.0
 11
10.52839999999999
 21
408.6096999999999
 31
0.0
  0
LINE
  5
45C
330
1E
100
AcDbEntity
  8
0
100
AcDbLine
 10
8.28076
 20
480.7157
 30
0.0
 11
10.4228
 21
480.7157
 31
0.0
  0
LINE
  5
45D
330
1E
100
AcDbEntity
  8
0
100
AcDbLine
 10
8.28076
 20
472.7157
 30
0.0
 11
10.4228
 21
472.7157
 31
0.0
  0
LINE
  5
45E
330
1E
100
AcDbEntity
  8
0
100
AcDbLine
 10
8.28076
 20
496.7157
 30
0.0
 11
10.4228
 21
496.7157
 31
0.0
  0
LINE
  5
45F
330
1E
100
AcDbEntity
  8
0
100
AcDbLine
 10
8.28076
 20
488.7157
 30
0.0
 11
10.4228
 21
488.7157
 31
0.0
  0
LINE
  5
460
330
1E
100
AcDbEntity
  8
0
100
AcDbLine
 10
8.38643
 20
528.3986999999999
 30
0.0
 11
10.52839999999999
 21
528.3857
 31
0.0
  0
LINE
  5
461
330
1E
100
AcDbEntity
  8
0
100
AcDbLine
 10
8.38643
 20
520.4057
 30
0.0
 11
10.52839999999999
 21
520.3927
 31
0.0
  0
LINE
  5
462
330
1E
100
AcDbEntity
  8
0
100
AcDbLine
 10
8.38643
 20
606.2377
 30
0.0
 11
10.52839999999999
 21
606.1707
 31
0.0
  0
LINE
  5
463
330
1E
100
AcDbEntity
  8
0
100
AcDbLine
 10
8.38643
 20
598.4326999999999
 30
0.0
 11
10.52839999999999
 21
598.3657
 31
0.0
  0
LINE
  5
464
330
1E
100
AcDbEntity
  8
0
100
AcDbLine
 10
8.38643
 20
634.1657
 30
0.0
 11
10.52839999999999
 21
634.0727000000001
 31
0.0
  0
LINE
  5
465
330
1E
100
AcDbEntity
  8
0
100
AcDbLine
 10
8.38643
 20
626.5476999999999
 30
0.0
 11
10.52839999999999
 21
626.4547
 31
0.0
  0
LINE
  5
466
330
1E
100
AcDbEntity
  8
0
100
AcDbLine
 10
8.38643
 20
640.6447
 30
0.0
 11
10.52839999999999
 21
640.5476999999999
 31
0.0
  0
LINE
  5
467
330
1E
100
AcDbEntity
  8
0
100
AcDbLine
 10
8.38643
 20
620.6686999999999
 30
0.0
 11
10.52839999999999
 21
620.5977
 31
0.0
  0
LINE
  5
468
330
1E
100
AcDbEntity
  8
0
100
AcDbLine
 10
8.38643
 20
612.8857
 30
0.0
 11
10.52839999999999
 21
612.8156999999999
 31
0.0
  0
LINE
  5
469
330
1E
100
AcDbEntity
  8
0
100
AcDbLine
 10
8.38643
 20
592.2607
 30
0.0
 11
10.52839999999999
 21
592.2096999999999
 31
0.0
  0
LINE
  5
46A
330
1E
100
AcDbEntity
  8
0
100
AcDbLine
 10
8.38643
 20
584.3687
 30
0.0
 11
10.52839999999999
 21
584.3187
 31
0.0
  0
LINE
  5
46B
330
1E
100
AcDbEntity
  8
0
100
AcDbLine
 10
8.38643
 20
577.6246999999999
 30
0.0
 11
10.52839999999999
 21
577.5777
 31
0.0
  0
LINE
  5
46C
330
1E
100
AcDbEntity
  8
0
100
AcDbLine
 10
8.38643
 20
569.7177
 30
0.0
 11
10.52839999999999
 21
569.6706999999999
 31
0.0
  0
LINE
  5
46D
330
1E
100
AcDbEntity
  8
0
100
AcDbLine
 10
8.38643
 20
560.6787
 30
0.0
 11
10.52839999999999
 21
560.6367
 31
0.0
  0
LINE
  5
46E
330
1E
100
AcDbEntity
  8
0
100
AcDbLine
 10
8.38643
 20
552.7567
 30
0.0
 11
10.52839999999999
 21
552.7147
 31
0.0
  0
LINE
  5
46F
330
1E
100
AcDbEntity
  8
0
100
AcDbLine
 10
8.38643
 20
544.6597
 30
0.0
 11
10.52839999999999
 21
544.6446999999999
 31
0.0
  0
LINE
  5
470
330
1E
100
AcDbEntity
  8
0
100
AcDbLine
 10
8.38643
 20
536.6706999999999
 30
0.0
 11
10.52839999999999
 21
536.6547
 31
0.0
  0
LINE
  5
471
330
1E
100
AcDbEntity
  8
0
100
AcDbLine
 10
8.38643
 20
512.6096999999999
 30
0.0
 11
10.52839999999999
 21
512.6096999999999
 31
0.0
  0
LINE
  5
472
330
1E
100
AcDbEntity
  8
0
100
AcDbLine
 10
8.38643
 20
504.6096999999999
 30
0.0
 11
10.52839999999999
 21
504.6096999999999
 31
0.0
  0
LINE
  5
473
330
1E
100
AcDbEntity
  8
0
100
AcDbLine
 10
8.28076
 20
464.6557
 30
0.0
 11
10.4228
 21
464.6557
 31
0.0
  0
LINE
  5
474
330
1E
100
AcDbEntity
  8
0
100
AcDbLine
 10
8.28076
 20
456.6557
 30
0.0
 11
10.4228
 21
456.6557
 31
0.0
  0
LINE
  5
475
330
1E
100
AcDbEntity
  8
0
100
AcDbLine
 10
8.38643
 20
448.6097
 30
0.0
 11
10.52839999999999
 21
448.6097
 31
0.0
  0
LINE
  5
476
330
1E
100
AcDbEntity
  8
0
100
AcDbLine
 10
8.38643
 20
440.6096999999999
 30
0.0
 11
10.52839999999999
 21
440.6096999999999
 31
0.0
  0
LINE
  5
477
330
1E
100
AcDbEntity
  8
0
100
AcDbLine
 10
7.96376
 20
272.7157
 30
0.0
 11
10.1058
 21
272.7157
 31
0.0
  0
LINE
  5
478
330
1E
100
AcDbEntity
  8
0
100
AcDbLine
 10
7.96376
 20
264.7157
 30
0.0
 11
10.1058
 21
264.7157
 31
0.0
  0
LINE
  5
479
330
1E
100
AcDbEntity
  8
0
100
AcDbLine
 10
7.84948
 20
208.8296999999999
 30
0.0
 11
9.9915
 21
208.8296999999999
 31
0.0
  0
LINE
  5
47A
330
1E
100
AcDbEntity
  8
0
100
AcDbLine
 10
7.84948
 20
200.8297
 30
0.0
 11
9.9915
 21
200.8297
 31
0.0
  0
LINE
  5
47B
330
1E
100
AcDbEntity
  8
0
100
AcDbLine
 10
7.73521
 20
112.8297
 30
0.0
 11
9.8772
 21
112.8297
 31
0.0
  0
LINE
  5
47C
330
1E
100
AcDbEntity
  8
0
100
AcDbLine
 10
7.73521
 20
104.8297
 30
0.0
 11
9.8772
 21
104.8297
 31
0.0
  0
LINE
  5
47D
330
1E
100
AcDbEntity
  8
0
100
AcDbLine
 10
7.62093
 20
64.8297
 30
0.0
 11
9.7629
 21
64.8297
 31
0.0
  0
LINE
  5
47E
330
1E
100
AcDbEntity
  8
0
100
AcDbLine
 10
7.62093
 20
56.8297
 30
0.0
 11
9.7629
 21
56.8297
 31
0.0
  0
LINE
  5
47F
330
1E
100
AcDbEntity
  8
0
100
AcDbLine
 10
7.39238
 20
8.83009999999999
 30
0.0
 11
9.534399999999999
 21
8.83009999999999
 31
0.0
  0
LINE
  5
481
330
1E
100
AcDbEntity
  8
0
100
AcDbLine
 10
9.534399999999999
 20
8.83009999999999
 30
0.0
 11
11.6764
 21
8.83009999999999
 31
0.0
  0
LINE
  5
482
330
1E
100
AcDbEntity
  8
0
100
AcDbLine
 10
9.534399999999999
 20
40.83
 30
0.0
 11
11.6764
 21
40.83
 31
0.0
  0
LINE
  5
483
330
1E
100
AcDbEntity
  8
0
100
AcDbLine
 10
9.534399999999999
 20
48.83
 30
0.0
 11
11.6764
 21
48.83
 31
0.0
  0
LINE
  5
484
330
1E
100
AcDbEntity
  8
0
100
AcDbLine
 10
9.534399999999999
 20
24.83
 30
0.0
 11
11.6764
 21
24.83
 31
0.0
  0
LINE
  5
485
330
1E
100
AcDbEntity
  8
0
100
AcDbLine
 10
9.7629
 20
56.8297
 30
0.0
 11
11.9049
 21
56.8297
 31
0.0
  0
LINE
  5
486
330
1E
100
AcDbEntity
  8
0
100
AcDbLine
 10
9.7629
 20
72.8297
 30
0.0
 11
11.9049
 21
72.8297
 31
0.0
  0
LINE
  5
487
330
1E
100
AcDbEntity
  8
0
100
AcDbLine
 10
9.7629
 20
80.82970000000001
 30
0.0
 11
11.9049
 21
80.82970000000001
 31
0.0
  0
LINE
  5
488
330
1E
100
AcDbEntity
  8
0
100
AcDbLine
 10
9.7629
 20
88.8297
 30
0.0
 11
11.9049
 21
88.8297
 31
0.0
  0
LINE
  5
489
330
1E
100
AcDbEntity
  8
0
100
AcDbLine
 10
9.7629
 20
96.8297
 30
0.0
 11
11.9049
 21
96.8297
 31
0.0
  0
LINE
  5
48A
330
1E
100
AcDbEntity
  8
0
100
AcDbLine
 10
9.8772
 20
136.8297
 30
0.0
 11
12.0192
 21
136.8297
 31
0.0
  0
LINE
  5
48B
330
1E
100
AcDbEntity
  8
0
100
AcDbLine
 10
9.8772
 20
144.8296999999999
 30
0.0
 11
12.0192
 21
144.8296999999999
 31
0.0
  0
LINE
  5
48C
330
1E
100
AcDbEntity
  8
0
100
AcDbLine
 10
9.8772
 20
152.8297
 30
0.0
 11
12.0192
 21
152.8297
 31
0.0
  0
LINE
  5
48D
330
1E
100
AcDbEntity
  8
0
100
AcDbLine
 10
9.8772
 20
160.8297
 30
0.0
 11
12.0192
 21
160.8297
 31
0.0
  0
LINE
  5
48E
330
1E
100
AcDbEntity
  8
0
100
AcDbLine
 10
9.8772
 20
168.8297
 30
0.0
 11
12.0192
 21
168.8297
 31
0.0
  0
LINE
  5
48F
330
1E
100
AcDbEntity
  8
0
100
AcDbLine
 10
9.8772
 20
176.8297
 30
0.0
 11
12.0192
 21
176.8297
 31
0.0
  0
LINE
  5
490
330
1E
100
AcDbEntity
  8
0
100
AcDbLine
 10
9.8772
 20
120.8296999999999
 30
0.0
 11
12.0192
 21
120.8296999999999
 31
0.0
  0
LINE
  5
491
330
1E
100
AcDbEntity
  8
0
100
AcDbLine
 10
9.8772
 20
128.8297
 30
0.0
 11
12.0192
 21
128.8297
 31
0.0
  0
LINE
  5
492
330
1E
100
AcDbEntity
  8
0
100
AcDbLine
 10
9.8772
 20
104.8297
 30
0.0
 11
12.0192
 21
104.8297
 31
0.0
  0
LINE
  5
493
330
1E
100
AcDbEntity
  8
0
100
AcDbLine
 10
9.9915
 20
184.8297
 30
0.0
 11
12.1335
 21
184.8297
 31
0.0
  0
LINE
  5
494
330
1E
100
AcDbEntity
  8
0
100
AcDbLine
 10
9.9915
 20
192.8297
 30
0.0
 11
12.1335
 21
192.8297
 31
0.0
  0
LINE
  5
495
330
1E
100
AcDbEntity
  8
0
100
AcDbLine
 10
9.9915
 20
200.8297
 30
0.0
 11
12.1335
 21
200.8297
 31
0.0
  0
LINE
  5
496
330
1E
100
AcDbEntity
  8
0
100
AcDbLine
 10
9.9915
 20
232.8297
 30
0.0
 11
12.1335
 21
232.8297
 31
0.0
  0
LINE
  5
497
330
1E
100
AcDbEntity
  8
0
100
AcDbLine
 10
9.9915
 20
240.8297
 30
0.0
 11
12.1335
 21
240.8297
 31
0.0
  0
LINE
  5
498
330
1E
100
AcDbEntity
  8
0
100
AcDbLine
 10
9.9915
 20
248.8297
 30
0.0
 11
12.1335
 21
248.8297
 31
0.0
  0
LINE
  5
499
330
1E
100
AcDbEntity
  8
0
100
AcDbLine
 10
9.9915
 20
256.8297
 30
0.0
 11
12.1335
 21
256.8297
 31
0.0
  0
LINE
  5
49A
330
1E
100
AcDbEntity
  8
0
100
AcDbLine
 10
9.9915
 20
216.8296999999999
 30
0.0
 11
12.1335
 21
216.8296999999999
 31
0.0
  0
LINE
  5
49B
330
1E
100
AcDbEntity
  8
0
100
AcDbLine
 10
9.9915
 20
224.8296999999999
 30
0.0
 11
12.1335
 21
224.8296999999999
 31
0.0
  0
LINE
  5
49C
330
1E
100
AcDbEntity
  8
0
100
AcDbLine
 10
9.9915
 20
208.8296999999999
 30
0.0
 11
12.1335
 21
208.8296999999999
 31
0.0
  0
LINE
  5
49D
330
1E
100
AcDbEntity
  8
0
100
AcDbLine
 10
9.8772
 20
112.8297
 30
0.0
 11
12.0192
 21
112.8297
 31
0.0
  0
LINE
  5
49E
330
1E
100
AcDbEntity
  8
0
100
AcDbLine
 10
9.7629
 20
64.8297
 30
0.0
 11
11.9049
 21
64.8297
 31
0.0
  0
LINE
  5
49F
330
1E
100
AcDbEntity
  8
0
100
AcDbLine
 10
9.534399999999999
 20
32.82999999999999
 30
0.0
 11
11.6764
 21
32.82999999999999
 31
0.0
  0
LINE
  5
4A0
330
1E
100
AcDbEntity
  8
0
100
AcDbLine
 10
9.534399999999999
 20
16.82999999999999
 30
0.0
 11
11.6764
 21
16.82999999999999
 31
0.0
  0
LINE
  5
4A2
330
1E
100
AcDbEntity
  8
0
100
AcDbLine
 10
8.38643
 20
654.1627
 30
0.0
 11
10.52839999999999
 21
654.0456999999999
 31
0.0
  0
LINE
  5
4A3
330
1E
100
AcDbEntity
  8
0
100
AcDbLine
 10
8.38643
 20
648.2317
 30
0.0
 11
10.52839999999999
 21
648.1346999999999
 31
0.0
  0
LINE
  5
4A9
330
1E
100
AcDbEntity
  8
0
100
AcDbLine
 10
6.41443
 20
661.8656999999999
 30
0.0
 11
8.38643
 21
661.5527
 31
0.0
  0
LINE
  5
4AA
330
1E
100
AcDbEntity
  8
0
100
AcDbLine
 10
4.68043
 20
662.3727
 30
0.0
 11
6.41443
 21
661.8656999999999
 31
0.0
  0
LINE
  5
4AB
330
1E
100
AcDbEntity
  8
0
100
AcDbLine
 10
3.35443
 20
663.0377
 30
0.0
 11
4.68043
 21
662.3727
 31
0.0
  0
LINE
  5
4AE
330
1E
100
AcDbEntity
  8
0
100
AcDbLine
 10
2.538429999999999
 20
663.7926999999999
 30
0.0
 11
3.35443
 21
663.0377
 31
0.0
  0
LINE
  5
4AF
330
1E
100
AcDbEntity
  8
0
100
AcDbLine
 10
2.232429999999999
 20
664.6126999999999
 30
0.0
 11
2.538429999999999
 21
663.7926999999999
 31
0.0
  0
LINE
  5
4B0
330
1E
100
AcDbEntity
  8
0
100
AcDbLine
 10
2.232429999999999
 20
664.6126999999999
 30
0.0
 11
2.538429999999999
 21
665.4337
 31
0.0
  0
LINE
  5
4B2
330
1E
100
AcDbEntity
  8
0
100
AcDbLine
 10
2.028429999999999
 20
664.3287
 30
0.0
 11
2.028429999999999
 21
657.5077
 31
0.0
  0
LINE
  5
4B3
330
1E
100
AcDbEntity
  8
0
100
AcDbLine
 10
2.028429999999999
 20
664.3287
 30
0.0
 11
2.334429999999999
 21
665.1626999999999
 31
0.0
  0
LINE
  5
4B4
330
1E
100
AcDbEntity
  8
0
100
AcDbLine
 10
0.0000000000000011
 20
698.3007
 30
0.0
 11
0.4000000000000011
 21
699.7006999999999
 31
0.0
  0
LINE
  5
4B5
330
1E
100
AcDbEntity
  8
0
100
AcDbLine
 10
0.0000000000000012
 20
698.3007
 30
0.0
 11
2.0
 21
674.0527
 31
0.0
  0
LINE
  5
4B6
330
1E
100
AcDbEntity
  8
0
100
AcDbLine
 10
0.4000000000000011
 20
699.7006999999999
 30
0.0
 11
1.399999999999999
 21
701.3327
 31
0.0
  0
LINE
  5
4B7
330
1E
100
AcDbEntity
  8
0
100
AcDbLine
 10
0.4000000000000011
 20
699.7006999999999
 30
0.0
 11
1.399999999999999
 21
701.3327
 31
0.0
  0
LINE
  5
4B8
330
1E
100
AcDbEntity
  8
0
100
AcDbLine
 10
1.399999999999999
 20
701.3327
 30
0.0
 11
2.299999999999999
 21
702.5326999999999
 31
0.0
  0
LINE
  5
4B9
330
1E
100
AcDbEntity
  8
0
100
AcDbLine
 10
1.399999999999999
 20
698.7327
 30
0.0
 11
2.299999999999999
 21
697.5327
 31
0.0
  0
LINE
  5
4BA
330
1E
100
AcDbEntity
  8
0
100
AcDbLine
 10
1.0
 20
700.0326999999999
 30
0.0
 11
1.399999999999999
 21
698.7327
 31
0.0
  0
LINE
  5
4BB
330
1E
100
AcDbEntity
  8
0
100
AcDbLine
 10
1.0
 20
700.0326999999999
 30
0.0
 11
1.399999999999999
 21
701.3327
 31
0.0
  0
LINE
  5
4BC
330
1E
100
AcDbEntity
  8
0
100
AcDbLine
 10
0.0000000000000011
 20
698.3007
 30
0.0
 11
2.0
 21
674.0527
 31
0.0
  0
LINE
  5
4BD
330
1E
100
AcDbEntity
  8
0
100
AcDbLine
 10
0.0000000000000011
 20
698.3007
 30
0.0
 11
0.4000000000000011
 21
699.7006999999999
 31
0.0
  0
LINE
  5
4BE
330
1E
100
AcDbEntity
  8
0
100
AcDbLine
 10
2.538429999999999
 20
668.1327
 30
0.0
 11
3.35443
 21
667.3777
 31
0.0
  0
LINE
  5
4BF
330
1E
100
AcDbEntity
  8
0
100
AcDbLine
 10
2.334429999999999
 20
668.4037
 30
0.0
 11
2.560375088757414
 21
668.073821183432
 31
0.0
  0
LINE
  5
4C2
330
1E
100
AcDbEntity
  8
0
100
AcDbLine
 10
2.028429999999999
 20
669.2377
 30
0.0
 11
2.334429999999999
 21
668.4037
 31
0.0
  0
LINE
  5
4C3
330
1E
100
AcDbEntity
  8
0
100
AcDbLine
 10
2.028429999999999
 20
669.2377
 30
0.0
 11
2.028429999999999
 21
673.9437183333329
 31
0.0
  0
LINE
  5
4C5
330
1E
100
AcDbEntity
  8
0
100
AcDbLine
 10
2.538429999999999
 20
665.4337
 30
0.0
 11
2.60492283380499
 21
665.495222168533
 31
0.0
  0
LINE
  5
4C6
330
1E
100
AcDbEntity
  8
0
100
AcDbLine
 10
2.334429999999999
 20
665.1626999999999
 30
0.0
 11
2.475803860182419
 21
665.2980100303949
 31
0.0
  0
LINE
  5
4C7
330
1E
100
AcDbEntity
  8
0
100
AcDbLine
 10
2.334429999999999
 20
665.1626999999999
 30
0.0
 11
2.538429999999999
 21
665.4337
 31
0.0
  0
LINE
  5
4C8
330
1E
100
AcDbEntity
  8
0
100
AcDbLine
 10
3.35443
 20
667.3777
 30
0.0
 11
4.68043
 21
666.7137
 31
0.0
  0
LINE
  5
4C9
330
1E
100
AcDbEntity
  8
0
100
AcDbLine
 10
6.41443
 20
666.2056999999999
 30
0.0
 11
8.38643
 21
665.8927
 31
0.0
  0
LINE
  5
4CA
330
1E
100
AcDbEntity
  8
0
100
AcDbLine
 10
4.68043
 20
666.7137
 30
0.0
 11
6.41443
 21
666.2056999999999
 31
0.0
  0
LINE
  5
4CD
330
1E
100
AcDbEntity
  8
0
100
AcDbLine
 10
4.599999999999999
 20
670.8527
 30
0.0
 11
6.5
 21
670.1526999999999
 31
0.0
  0
LINE
  5
4CE
330
1E
100
AcDbEntity
  8
0
100
AcDbLine
 10
6.5
 20
670.1526999999999
 30
0.0
 11
8.699999999999999
 21
669.7027
 31
0.0
  0
LINE
  5
4CF
330
1E
100
AcDbEntity
  8
0
100
AcDbLine
 10
3.2
 20
671.8026999999999
 30
0.0
 11
4.599999999999999
 21
670.8527
 31
0.0
  0
LINE
  5
4D0
330
1E
100
AcDbEntity
  8
0
100
AcDbLine
 10
2.028429999999999
 20
673.9437183333329
 30
0.0
 11
2.028429999999999
 21
669.2377
 31
0.0
  0
LINE
  5
4D1
330
1E
100
AcDbEntity
  8
0
100
AcDbLine
 10
2.299999999999999
 20
702.5326999999999
 30
0.0
 11
3.9
 21
703.5827
 31
0.0
  0
LINE
  5
4D2
330
1E
100
AcDbEntity
  8
0
100
AcDbLine
 10
3.9
 20
703.5827
 30
0.0
 11
6.0
 21
704.3827
 31
0.0
  0
LINE
  5
4D3
330
1E
100
AcDbEntity
  8
0
100
AcDbLine
 10
6.0
 20
704.3827
 30
0.0
 11
8.4
 21
704.8327
 31
0.0
  0
LINE
  5
4D4
330
1E
100
AcDbEntity
  8
0
100
AcDbLine
 10
3.9
 20
696.4827
 30
0.0
 11
6.0
 21
695.6826999999999
 31
0.0
  0
LINE
  5
4D5
330
1E
100
AcDbEntity
  8
0
100
AcDbLine
 10
6.0
 20
695.6826999999999
 30
0.0
 11
8.4
 21
695.2327
 31
0.0
  0
LINE
  5
4D6
330
1E
100
AcDbEntity
  8
0
100
AcDbLine
 10
2.299999999999999
 20
697.5327
 30
0.0
 11
3.9
 21
696.4827
 31
0.0
  0
LINE
  5
4D7
330
1E
100
AcDbEntity
  8
0
100
AcDbLine
 10
2.299999999999999
 20
672.9027
 30
0.0
 11
3.2
 21
671.8026999999999
 31
0.0
  0
LINE
  5
4D8
330
1E
100
AcDbEntity
  8
0
100
AcDbLine
 10
2.0
 20
674.0527
 30
0.0
 11
2.299999999999999
 21
672.9027
 31
0.0
  0
LINE
  5
4D9
330
1E
100
AcDbEntity
  8
0
100
AcDbLine
 10
2.58948077140169
 20
664.6126999999999
 30
0.0
 11
2.649277908187749
 21
668.030138516321
 31
0.0
  0
LINE
  5
4DA
330
1E
100
AcDbEntity
  8
0
100
AcDbLine
 10
8.38643
 20
665.8927
 30
0.0
 11
10.52839999999999
 21
665.7757
 31
0.0
  0
LINE
  5
4DB
330
1E
100
AcDbEntity
  8
0
100
AcDbLine
 10
8.38643
 20
661.5527
 30
0.0
 11
10.52839999999999
 21
661.4357
 31
0.0
  0
LINE
  5
4DC
330
1E
100
AcDbEntity
  8
0
100
AcDbLine
 10
8.4
 20
704.8327
 30
0.0
 11
11.0
 21
705.0327
 31
0.0
  0
LINE
  5
4DD
330
1E
100
AcDbEntity
  8
0
100
AcDbLine
 10
8.4
 20
695.2327
 30
0.0
 11
11.0
 21
695.0326999999999
 31
0.0
  0
LINE
  5
4DE
330
1E
100
AcDbEntity
  8
0
100
AcDbLine
 10
8.699999999999999
 20
669.7027
 30
0.0
 11
11.0
 21
669.5526999999999
 31
0.0
  0
LINE
  5
4E1
330
1E
100
AcDbEntity
  8
0
100
AcDbLine
 10
10.1058
 20
264.7157
 30
0.0
 11
12.24779999999999
 21
264.7157
 31
0.0
  0
LINE
  5
4E2
330
1E
100
AcDbEntity
  8
0
100
AcDbLine
 10
10.1058
 20
296.6557
 30
0.0
 11
12.24779999999999
 21
296.6557
 31
0.0
  0
LINE
  5
4E3
330
1E
100
AcDbEntity
  8
0
100
AcDbLine
 10
10.1058
 20
304.6557
 30
0.0
 11
12.24779999999999
 21
304.6557
 31
0.0
  0
LINE
  5
4E4
330
1E
100
AcDbEntity
  8
0
100
AcDbLine
 10
10.1058
 20
328.6557
 30
0.0
 11
12.24779999999999
 21
328.6557
 31
0.0
  0
LINE
  5
4E5
330
1E
100
AcDbEntity
  8
0
100
AcDbLine
 10
10.1058
 20
336.6557
 30
0.0
 11
12.24779999999999
 21
336.6557
 31
0.0
  0
LINE
  5
4E6
330
1E
100
AcDbEntity
  8
0
100
AcDbLine
 10
10.1058
 20
344.7157
 30
0.0
 11
12.24779999999999
 21
344.7157
 31
0.0
  0
LINE
  5
4E7
330
1E
100
AcDbEntity
  8
0
100
AcDbLine
 10
10.1058
 20
352.7157
 30
0.0
 11
12.24779999999999
 21
352.7157
 31
0.0
  0
LINE
  5
4E8
330
1E
100
AcDbEntity
  8
0
100
AcDbLine
 10
10.1058
 20
376.7157
 30
0.0
 11
12.24779999999999
 21
376.7157
 31
0.0
  0
LINE
  5
4E9
330
1E
100
AcDbEntity
  8
0
100
AcDbLine
 10
10.1058
 20
384.7157
 30
0.0
 11
12.24779999999999
 21
384.7157
 31
0.0
  0
LINE
  5
4EA
330
1E
100
AcDbEntity
  8
0
100
AcDbLine
 10
10.1058
 20
360.7157
 30
0.0
 11
12.24779999999999
 21
360.7157
 31
0.0
  0
LINE
  5
4EB
330
1E
100
AcDbEntity
  8
0
100
AcDbLine
 10
10.1058
 20
368.7157
 30
0.0
 11
12.24779999999999
 21
368.7157
 31
0.0
  0
LINE
  5
4EC
330
1E
100
AcDbEntity
  8
0
100
AcDbLine
 10
10.1058
 20
312.6557
 30
0.0
 11
12.24779999999999
 21
312.6557
 31
0.0
  0
LINE
  5
4ED
330
1E
100
AcDbEntity
  8
0
100
AcDbLine
 10
10.1058
 20
320.6557
 30
0.0
 11
12.24779999999999
 21
320.6557
 31
0.0
  0
LINE
  5
4EE
330
1E
100
AcDbEntity
  8
0
100
AcDbLine
 10
10.1058
 20
280.7157
 30
0.0
 11
12.24779999999999
 21
280.7157
 31
0.0
  0
LINE
  5
4EF
330
1E
100
AcDbEntity
  8
0
100
AcDbLine
 10
10.1058
 20
288.7157
 30
0.0
 11
12.24779999999999
 21
288.7157
 31
0.0
  0
LINE
  5
4F0
330
1E
100
AcDbEntity
  8
0
100
AcDbLine
 10
10.1058
 20
272.7157
 30
0.0
 11
12.24779999999999
 21
272.7157
 31
0.0
  0
LINE
  5
4F3
330
1E
100
AcDbEntity
  8
0
100
AcDbLine
 10
11.6764
 20
8.83009999999999
 30
0.0
 11
13.6484
 21
8.83009999999999
 31
0.0
  0
LINE
  5
4F5
330
1E
100
AcDbEntity
  8
0
100
AcDbLine
 10
11.6764
 20
16.82999999999999
 30
0.0
 11
13.6484
 21
16.82999999999999
 31
0.0
  0
LINE
  5
4F6
330
1E
100
AcDbEntity
  8
0
100
AcDbLine
 10
13.6484
 20
8.83009999999999
 30
0.0
 11
15.3824
 21
8.83009999999999
 31
0.0
  0
LINE
  5
4F9
330
1E
100
AcDbEntity
  8
0
100
AcDbLine
 10
11.6764
 20
24.83
 30
0.0
 11
13.6484
 21
24.83
 31
0.0
  0
LINE
  5
4FB
330
1E
100
AcDbEntity
  8
0
100
AcDbLine
 10
11.6764
 20
32.82999999999999
 30
0.0
 11
13.6484
 21
32.82999999999999
 31
0.0
  0
LINE
  5
4FC
330
1E
100
AcDbEntity
  8
0
100
AcDbLine
 10
13.6484
 20
24.83
 30
0.0
 11
15.3824
 21
24.83
 31
0.0
  0
LINE
  5
4FF
330
1E
100
AcDbEntity
  8
0
100
AcDbLine
 10
11.6764
 20
40.83
 30
0.0
 11
13.6484
 21
40.83
 31
0.0
  0
LINE
  5
501
330
1E
100
AcDbEntity
  8
0
100
AcDbLine
 10
11.6764
 20
48.83
 30
0.0
 11
13.6484
 21
48.83
 31
0.0
  0
LINE
  5
503
330
1E
100
AcDbEntity
  8
0
100
AcDbLine
 10
11.9049
 20
56.8297
 30
0.0
 11
13.8769
 21
56.8297
 31
0.0
  0
LINE
  5
505
330
1E
100
AcDbEntity
  8
0
100
AcDbLine
 10
11.9049
 20
72.8297
 30
0.0
 11
13.8769
 21
72.8297
 31
0.0
  0
LINE
  5
507
330
1E
100
AcDbEntity
  8
0
100
AcDbLine
 10
11.9049
 20
80.82970000000001
 30
0.0
 11
13.8769
 21
80.82970000000001
 31
0.0
  0
LINE
  5
509
330
1E
100
AcDbEntity
  8
0
100
AcDbLine
 10
11.9049
 20
88.8297
 30
0.0
 11
13.8769
 21
88.8297
 31
0.0
  0
LINE
  5
50B
330
1E
100
AcDbEntity
  8
0
100
AcDbLine
 10
10.52839999999999
 20
392.5497
 30
0.0
 11
12.6704
 21
392.5497
 31
0.0
  0
LINE
  5
50C
330
1E
100
AcDbEntity
  8
0
100
AcDbLine
 10
10.52839999999999
 20
400.5497
 30
0.0
 11
12.6704
 21
400.5497
 31
0.0
  0
LINE
  5
50D
330
1E
100
AcDbEntity
  8
0
100
AcDbLine
 10
10.52839999999999
 20
424.6096999999999
 30
0.0
 11
12.6704
 21
424.6096999999999
 31
0.0
  0
LINE
  5
50E
330
1E
100
AcDbEntity
  8
0
100
AcDbLine
 10
10.52839999999999
 20
432.6096999999999
 30
0.0
 11
12.6704
 21
432.6096999999999
 31
0.0
  0
LINE
  5
50F
330
1E
100
AcDbEntity
  8
0
100
AcDbLine
 10
10.52839999999999
 20
408.6096999999999
 30
0.0
 11
12.6704
 21
408.6096999999999
 31
0.0
  0
LINE
  5
510
330
1E
100
AcDbEntity
  8
0
100
AcDbLine
 10
10.52839999999999
 20
416.6096999999999
 30
0.0
 11
12.6704
 21
416.6096999999999
 31
0.0
  0
LINE
  5
511
330
1E
100
AcDbEntity
  8
0
100
AcDbLine
 10
10.4228
 20
472.7157
 30
0.0
 11
12.5648
 21
472.7157
 31
0.0
  0
LINE
  5
512
330
1E
100
AcDbEntity
  8
0
100
AcDbLine
 10
10.4228
 20
480.7157
 30
0.0
 11
12.5648
 21
480.7157
 31
0.0
  0
LINE
  5
513
330
1E
100
AcDbEntity
  8
0
100
AcDbLine
 10
10.4228
 20
488.7157
 30
0.0
 11
12.5648
 21
488.7157
 31
0.0
  0
LINE
  5
514
330
1E
100
AcDbEntity
  8
0
100
AcDbLine
 10
10.4228
 20
496.7157
 30
0.0
 11
12.5648
 21
496.7157
 31
0.0
  0
LINE
  5
515
330
1E
100
AcDbEntity
  8
0
100
AcDbLine
 10
10.4228
 20
456.6557
 30
0.0
 11
12.5648
 21
456.6557
 31
0.0
  0
LINE
  5
516
330
1E
100
AcDbEntity
  8
0
100
AcDbLine
 10
10.52839999999999
 20
504.6096999999999
 30
0.0
 11
12.6704
 21
504.6096999999999
 31
0.0
  0
LINE
  5
517
330
1E
100
AcDbEntity
  8
0
100
AcDbLine
 10
10.52839999999999
 20
520.3927
 30
0.0
 11
12.6704
 21
520.4057
 31
0.0
  0
LINE
  5
518
330
1E
100
AcDbEntity
  8
0
100
AcDbLine
 10
10.52839999999999
 20
528.3857
 30
0.0
 11
12.6704
 21
528.3986999999999
 31
0.0
  0
LINE
  5
519
330
1E
100
AcDbEntity
  8
0
100
AcDbLine
 10
10.52839999999999
 20
569.6706999999999
 30
0.0
 11
12.6704
 21
569.7177
 31
0.0
  0
LINE
  5
51A
330
1E
100
AcDbEntity
  8
0
100
AcDbLine
 10
10.52839999999999
 20
598.3657
 30
0.0
 11
12.6704
 21
598.4326999999999
 31
0.0
  0
LINE
  5
51B
330
1E
100
AcDbEntity
  8
0
100
AcDbLine
 10
10.52839999999999
 20
606.1707
 30
0.0
 11
12.6704
 21
606.2377
 31
0.0
  0
LINE
  5
51C
330
1E
100
AcDbEntity
  8
0
100
AcDbLine
 10
10.52839999999999
 20
626.4547
 30
0.0
 11
12.6704
 21
626.5476999999999
 31
0.0
  0
LINE
  5
51D
330
1E
100
AcDbEntity
  8
0
100
AcDbLine
 10
10.52839999999999
 20
634.0727000000001
 30
0.0
 11
12.6704
 21
634.1657
 31
0.0
  0
LINE
  5
51E
330
1E
100
AcDbEntity
  8
0
100
AcDbLine
 10
10.52839999999999
 20
640.5476999999999
 30
0.0
 11
12.6704
 21
640.6447
 31
0.0
  0
LINE
  5
51F
330
1E
100
AcDbEntity
  8
0
100
AcDbLine
 10
10.52839999999999
 20
612.8156999999999
 30
0.0
 11
12.6704
 21
612.8857
 31
0.0
  0
LINE
  5
520
330
1E
100
AcDbEntity
  8
0
100
AcDbLine
 10
10.52839999999999
 20
620.5977
 30
0.0
 11
12.6704
 21
620.6686999999999
 31
0.0
  0
LINE
  5
521
330
1E
100
AcDbEntity
  8
0
100
AcDbLine
 10
10.52839999999999
 20
584.3187
 30
0.0
 11
12.6704
 21
584.3687
 31
0.0
  0
LINE
  5
522
330
1E
100
AcDbEntity
  8
0
100
AcDbLine
 10
10.52839999999999
 20
592.2096999999999
 30
0.0
 11
12.6704
 21
592.2607
 31
0.0
  0
LINE
  5
523
330
1E
100
AcDbEntity
  8
0
100
AcDbLine
 10
10.52839999999999
 20
577.5777
 30
0.0
 11
12.6704
 21
577.6246999999999
 31
0.0
  0
LINE
  5
524
330
1E
100
AcDbEntity
  8
0
100
AcDbLine
 10
10.52839999999999
 20
560.6367
 30
0.0
 11
12.6704
 21
560.6787
 31
0.0
  0
LINE
  5
525
330
1E
100
AcDbEntity
  8
0
100
AcDbLine
 10
10.52839999999999
 20
536.6547
 30
0.0
 11
12.6704
 21
536.6706999999999
 31
0.0
  0
LINE
  5
526
330
1E
100
AcDbEntity
  8
0
100
AcDbLine
 10
10.52839999999999
 20
544.6446999999999
 30
0.0
 11
12.6704
 21
544.6597
 31
0.0
  0
LINE
  5
527
330
1E
100
AcDbEntity
  8
0
100
AcDbLine
 10
10.52839999999999
 20
512.6096999999999
 30
0.0
 11
12.6704
 21
512.6096999999999
 31
0.0
  0
LINE
  5
528
330
1E
100
AcDbEntity
  8
0
100
AcDbLine
 10
10.4228
 20
464.6557
 30
0.0
 11
12.5648
 21
464.6557
 31
0.0
  0
LINE
  5
529
330
1E
100
AcDbEntity
  8
0
100
AcDbLine
 10
10.52839999999999
 20
440.6096999999999
 30
0.0
 11
12.6704
 21
440.6096999999999
 31
0.0
  0
LINE
  5
52A
330
1E
100
AcDbEntity
  8
0
100
AcDbLine
 10
10.53742440013969
 20
552.714876949022
 30
0.0
 11
12.6704
 21
552.7567
 31
0.0
  0
LINE
  5
52B
330
1E
100
AcDbEntity
  8
0
100
AcDbLine
 10
10.52839999999999
 20
448.6097
 30
0.0
 11
12.6704
 21
448.6097
 31
0.0
  0
LINE
  5
52C
330
1E
100
AcDbEntity
  8
0
100
AcDbLine
 10
11.9049
 20
96.8297
 30
0.0
 11
13.8769
 21
96.8297
 31
0.0
  0
LINE
  5
52E
330
1E
100
AcDbEntity
  8
0
100
AcDbLine
 10
11.9049
 20
64.8297
 30
0.0
 11
13.8769
 21
64.8297
 31
0.0
  0
LINE
  5
52F
330
1E
100
AcDbEntity
  8
0
100
AcDbLine
 10
13.6484
 20
40.83
 30
0.0
 11
15.3824
 21
40.83
 31
0.0
  0
LINE
  5
531
330
1E
100
AcDbEntity
  8
0
100
AcDbLine
 10
12.0192
 20
104.8297
 30
0.0
 11
13.99119999999999
 21
104.8297
 31
0.0
  0
LINE
  5
533
330
1E
100
AcDbEntity
  8
0
100
AcDbLine
 10
12.0192
 20
120.8296999999999
 30
0.0
 11
13.99119999999999
 21
120.8296999999999
 31
0.0
  0
LINE
  5
534
330
1E
100
AcDbEntity
  8
0
100
AcDbLine
 10
12.0192
 20
136.8297
 30
0.0
 11
13.99119999999999
 21
136.8297
 31
0.0
  0
LINE
  5
535
330
1E
100
AcDbEntity
  8
0
100
AcDbLine
 10
12.0192
 20
144.8296999999999
 30
0.0
 11
13.99119999999999
 21
144.8296999999999
 31
0.0
  0
LINE
  5
536
330
1E
100
AcDbEntity
  8
0
100
AcDbLine
 10
12.0192
 20
152.8297
 30
0.0
 11
13.99119999999999
 21
152.8297
 31
0.0
  0
LINE
  5
537
330
1E
100
AcDbEntity
  8
0
100
AcDbLine
 10
12.0192
 20
160.8297
 30
0.0
 11
13.99119999999999
 21
160.8297
 31
0.0
  0
LINE
  5
538
330
1E
100
AcDbEntity
  8
0
100
AcDbLine
 10
12.0192
 20
168.8297
 30
0.0
 11
13.99119999999999
 21
168.8297
 31
0.0
  0
LINE
  5
539
330
1E
100
AcDbEntity
  8
0
100
AcDbLine
 10
12.0192
 20
176.8297
 30
0.0
 11
13.99119999999999
 21
176.8297
 31
0.0
  0
LINE
  5
53A
330
1E
100
AcDbEntity
  8
0
100
AcDbLine
 10
12.0192
 20
128.8297
 30
0.0
 11
13.99119999999999
 21
128.8297
 31
0.0
  0
LINE
  5
541
330
1E
100
AcDbEntity
  8
0
100
AcDbLine
 10
12.1335
 20
184.8297
 30
0.0
 11
14.10549999999999
 21
184.8297
 31
0.0
  0
LINE
  5
543
330
1E
100
AcDbEntity
  8
0
100
AcDbLine
 10
12.1335
 20
192.8297
 30
0.0
 11
14.10549999999999
 21
192.8297
 31
0.0
  0
LINE
  5
546
330
1E
100
AcDbEntity
  8
0
100
AcDbLine
 10
12.1335
 20
200.8297
 30
0.0
 11
14.10549999999999
 21
200.8297
 31
0.0
  0
LINE
  5
548
330
1E
100
AcDbEntity
  8
0
100
AcDbLine
 10
12.1335
 20
216.8296999999999
 30
0.0
 11
14.10549999999999
 21
216.8296999999999
 31
0.0
  0
LINE
  5
54A
330
1E
100
AcDbEntity
  8
0
100
AcDbLine
 10
12.1335
 20
232.8297
 30
0.0
 11
14.10549999999999
 21
232.8297
 31
0.0
  0
LINE
  5
54C
330
1E
100
AcDbEntity
  8
0
100
AcDbLine
 10
12.1335
 20
240.8297
 30
0.0
 11
14.10549999999999
 21
240.8297
 31
0.0
  0
LINE
  5
54E
330
1E
100
AcDbEntity
  8
0
100
AcDbLine
 10
12.1335
 20
248.8297
 30
0.0
 11
14.10549999999999
 21
248.8297
 31
0.0
  0
LINE
  5
550
330
1E
100
AcDbEntity
  8
0
100
AcDbLine
 10
12.1335
 20
256.8297
 30
0.0
 11
14.10549999999999
 21
256.8297
 31
0.0
  0
LINE
  5
552
330
1E
100
AcDbEntity
  8
0
100
AcDbLine
 10
12.1335
 20
224.8296999999999
 30
0.0
 11
14.10549999999999
 21
224.8296999999999
 31
0.0
  0
LINE
  5
554
330
1E
100
AcDbEntity
  8
0
100
AcDbLine
 10
12.1335
 20
208.8296999999999
 30
0.0
 11
14.10549999999999
 21
208.8296999999999
 31
0.0
  0
LINE
  5
555
330
1E
100
AcDbEntity
  8
0
100
AcDbLine
 10
12.24779999999999
 20
264.7157
 30
0.0
 11
14.2198
 21
264.7157
 31
0.0
  0
LINE
  5
557
330
1E
100
AcDbEntity
  8
0
100
AcDbLine
 10
12.24779999999999
 20
280.7157
 30
0.0
 11
14.2198
 21
280.7157
 31
0.0
  0
LINE
  5
558
330
1E
100
AcDbEntity
  8
0
100
AcDbLine
 10
12.24779999999999
 20
296.6557
 30
0.0
 11
14.2198
 21
296.6557
 31
0.0
  0
LINE
  5
559
330
1E
100
AcDbEntity
  8
0
100
AcDbLine
 10
12.24779999999999
 20
304.6557
 30
0.0
 11
14.2198
 21
304.6557
 31
0.0
  0
LINE
  5
55A
330
1E
100
AcDbEntity
  8
0
100
AcDbLine
 10
12.24779999999999
 20
328.6557
 30
0.0
 11
14.2198
 21
328.6557
 31
0.0
  0
LINE
  5
55B
330
1E
100
AcDbEntity
  8
0
100
AcDbLine
 10
12.24779999999999
 20
336.6557
 30
0.0
 11
14.2198
 21
336.6557
 31
0.0
  0
LINE
  5
55C
330
1E
100
AcDbEntity
  8
0
100
AcDbLine
 10
12.24779999999999
 20
344.7157
 30
0.0
 11
14.2198
 21
344.7157
 31
0.0
  0
LINE
  5
55D
330
1E
100
AcDbEntity
  8
0
100
AcDbLine
 10
12.24779999999999
 20
352.7157
 30
0.0
 11
14.2198
 21
352.7157
 31
0.0
  0
LINE
  5
55E
330
1E
100
AcDbEntity
  8
0
100
AcDbLine
 10
12.24779999999999
 20
376.7157
 30
0.0
 11
14.2198
 21
376.7157
 31
0.0
  0
LINE
  5
55F
330
1E
100
AcDbEntity
  8
0
100
AcDbLine
 10
12.24779999999999
 20
384.7157
 30
0.0
 11
14.2198
 21
384.7157
 31
0.0
  0
LINE
  5
560
330
1E
100
AcDbEntity
  8
0
100
AcDbLine
 10
12.24779999999999
 20
360.7157
 30
0.0
 11
14.2198
 21
360.7157
 31
0.0
  0
LINE
  5
561
330
1E
100
AcDbEntity
  8
0
100
AcDbLine
 10
12.24779999999999
 20
368.7157
 30
0.0
 11
14.2198
 21
368.7157
 31
0.0
  0
LINE
  5
562
330
1E
100
AcDbEntity
  8
0
100
AcDbLine
 10
12.24779999999999
 20
312.6557
 30
0.0
 11
14.2198
 21
312.6557
 31
0.0
  0
LINE
  5
563
330
1E
100
AcDbEntity
  8
0
100
AcDbLine
 10
12.24779999999999
 20
320.6557
 30
0.0
 11
14.2198
 21
320.6557
 31
0.0
  0
LINE
  5
564
330
1E
100
AcDbEntity
  8
0
100
AcDbLine
 10
12.24779999999999
 20
288.7157
 30
0.0
 11
14.2198
 21
288.7157
 31
0.0
  0
LINE
  5
571
330
1E
100
AcDbEntity
  8
0
100
AcDbLine
 10
12.6704
 20
392.5497
 30
0.0
 11
14.6424
 21
392.5497
 31
0.0
  0
LINE
  5
573
330
1E
100
AcDbEntity
  8
0
100
AcDbLine
 10
12.6704
 20
400.5497
 30
0.0
 11
14.6424
 21
400.5497
 31
0.0
  0
LINE
  5
575
330
1E
100
AcDbEntity
  8
0
100
AcDbLine
 10
12.6704
 20
408.6096999999999
 30
0.0
 11
14.6424
 21
408.6096999999999
 31
0.0
  0
LINE
  5
577
330
1E
100
AcDbEntity
  8
0
100
AcDbLine
 10
12.6704
 20
424.6096999999999
 30
0.0
 11
14.6424
 21
424.6096999999999
 31
0.0
  0
LINE
  5
579
330
1E
100
AcDbEntity
  8
0
100
AcDbLine
 10
12.6704
 20
432.6096999999999
 30
0.0
 11
14.6424
 21
432.6096999999999
 31
0.0
  0
LINE
  5
57B
330
1E
100
AcDbEntity
  8
0
100
AcDbLine
 10
12.6704
 20
416.6096999999999
 30
0.0
 11
14.6424
 21
416.6096999999999
 31
0.0
  0
LINE
  5
57D
330
1E
100
AcDbEntity
  8
0
100
AcDbLine
 10
12.6704
 20
440.6096999999999
 30
0.0
 11
14.6424
 21
440.6096999999999
 31
0.0
  0
LINE
  5
57F
330
1E
100
AcDbEntity
  8
0
100
AcDbLine
 10
12.5648
 20
456.6557
 30
0.0
 11
14.5368
 21
456.6557
 31
0.0
  0
LINE
  5
581
330
1E
100
AcDbEntity
  8
0
100
AcDbLine
 10
12.5648
 20
472.7157
 30
0.0
 11
14.5368
 21
472.7157
 31
0.0
  0
LINE
  5
582
330
1E
100
AcDbEntity
  8
0
100
AcDbLine
 10
12.5648
 20
480.7157
 30
0.0
 11
14.5368
 21
480.7157
 31
0.0
  0
LINE
  5
583
330
1E
100
AcDbEntity
  8
0
100
AcDbLine
 10
12.5648
 20
488.7157
 30
0.0
 11
14.5368
 21
488.7157
 31
0.0
  0
LINE
  5
584
330
1E
100
AcDbEntity
  8
0
100
AcDbLine
 10
12.5648
 20
496.7157
 30
0.0
 11
14.5368
 21
496.7157
 31
0.0
  0
LINE
  5
588
330
1E
100
AcDbEntity
  8
0
100
AcDbLine
 10
12.6704
 20
520.4057
 30
0.0
 11
13.6396809878159
 21
520.4233947847679
 31
0.0
  0
LINE
  5
589
330
1E
100
AcDbEntity
  8
0
100
AcDbLine
 10
12.6704
 20
528.3986999999999
 30
0.0
 11
14.6424
 21
528.4337
 31
0.0
  0
LINE
  5
58A
330
1E
100
AcDbEntity
  8
0
100
AcDbLine
 10
12.6704
 20
598.4326999999999
 30
0.0
 11
14.6424
 21
598.6127
 31
0.0
  0
LINE
  5
58B
330
1E
100
AcDbEntity
  8
0
100
AcDbLine
 10
12.6704
 20
606.2377
 30
0.0
 11
14.6424
 21
606.4167
 31
0.0
  0
LINE
  5
58C
330
1E
100
AcDbEntity
  8
0
100
AcDbLine
 10
12.6704
 20
626.5476999999999
 30
0.0
 11
14.6424
 21
626.7977
 31
0.0
  0
LINE
  5
58D
330
1E
100
AcDbEntity
  8
0
100
AcDbLine
 10
12.6704
 20
634.1657
 30
0.0
 11
14.6424
 21
634.4147
 31
0.0
  0
LINE
  5
58E
330
1E
100
AcDbEntity
  8
0
100
AcDbLine
 10
12.6704
 20
640.6447
 30
0.0
 11
14.6424
 21
640.9027
 31
0.0
  0
LINE
  5
58F
330
1E
100
AcDbEntity
  8
0
100
AcDbLine
 10
12.6704
 20
612.8857
 30
0.0
 11
14.6424
 21
613.0747
 31
0.0
  0
LINE
  5
590
330
1E
100
AcDbEntity
  8
0
100
AcDbLine
 10
12.6704
 20
620.6686999999999
 30
0.0
 11
14.6424
 21
620.8577
 31
0.0
  0
LINE
  5
591
330
1E
100
AcDbEntity
  8
0
100
AcDbLine
 10
12.6704
 20
584.3687
 30
0.0
 11
14.6424
 21
584.5026999999999
 31
0.0
  0
LINE
  5
592
330
1E
100
AcDbEntity
  8
0
100
AcDbLine
 10
12.6704
 20
592.2607
 30
0.0
 11
14.6424
 21
592.3936999999999
 31
0.0
  0
LINE
  5
593
330
1E
100
AcDbEntity
  8
0
100
AcDbLine
 10
12.6704
 20
569.7177
 30
0.0
 11
14.6424
 21
569.8416999999999
 31
0.0
  0
LINE
  5
594
330
1E
100
AcDbEntity
  8
0
100
AcDbLine
 10
12.6704
 20
577.6246999999999
 30
0.0
 11
14.6424
 21
577.7486999999999
 31
0.0
  0
LINE
  5
595
330
1E
100
AcDbEntity
  8
0
100
AcDbLine
 10
12.6704
 20
552.7567
 30
0.0
 11
14.6424
 21
552.8707
 31
0.0
  0
LINE
  5
596
330
1E
100
AcDbEntity
  8
0
100
AcDbLine
 10
12.6704
 20
560.6787
 30
0.0
 11
14.6424
 21
560.7927
 31
0.0
  0
LINE
  5
597
330
1E
100
AcDbEntity
  8
0
100
AcDbLine
 10
12.6704
 20
536.6706999999999
 30
0.0
 11
14.6424
 21
536.7127
 31
0.0
  0
LINE
  5
598
330
1E
100
AcDbEntity
  8
0
100
AcDbLine
 10
12.6704
 20
544.6597
 30
0.0
 11
14.6424
 21
544.7027
 31
0.0
  0
LINE
  5
599
330
1E
100
AcDbEntity
  8
0
100
AcDbLine
 10
12.6704
 20
504.6096999999999
 30
0.0
 11
14.6424
 21
504.6096999999999
 31
0.0
  0
LINE
  5
59A
330
1E
100
AcDbEntity
  8
0
100
AcDbLine
 10
12.6704
 20
512.6096999999999
 30
0.0
 11
14.6424
 21
512.6096999999999
 31
0.0
  0
LINE
  5
59C
330
1E
100
AcDbEntity
  8
0
100
AcDbLine
 10
12.5648
 20
464.6557
 30
0.0
 11
14.5368
 21
464.6557
 31
0.0
  0
LINE
  5
5B1
330
1E
100
AcDbEntity
  8
0
100
AcDbLine
 10
12.6704
 20
448.6097
 30
0.0
 11
14.6424
 21
448.6097
 31
0.0
  0
LINE
  5
5B5
330
1E
100
AcDbEntity
  8
0
100
AcDbLine
 10
12.24779999999999
 20
272.7157
 30
0.0
 11
14.2198
 21
272.7157
 31
0.0
  0
LINE
  5
5B9
330
1E
100
AcDbEntity
  8
0
100
AcDbLine
 10
12.0192
 20
112.8297
 30
0.0
 11
13.99119999999999
 21
112.8297
 31
0.0
  0
LINE
  5
5BB
330
1E
100
AcDbEntity
  8
0
100
AcDbLine
 10
13.665999586068
 20
520.4238752459929
 30
0.0
 11
14.6424
 21
520.4416999999999
 31
0.0
  0
LINE
  5
5BC
330
1E
100
AcDbEntity
  8
0
100
AcDbLine
 10
13.6484
 20
48.83
 30
0.0
 11
15.3824
 21
48.83
 31
0.0
  0
LINE
  5
5BF
330
1E
100
AcDbEntity
  8
0
100
AcDbLine
 10
13.6484
 20
32.82999999999999
 30
0.0
 11
15.3824
 21
32.82999999999999
 31
0.0
  0
LINE
  5
5C1
330
1E
100
AcDbEntity
  8
0
100
AcDbLine
 10
13.6484
 20
16.82999999999999
 30
0.0
 11
15.3824
 21
16.82999999999999
 31
0.0
  0
LINE
  5
5C2
330
1E
100
AcDbEntity
  8
0
100
AcDbLine
 10
13.8769
 20
56.8297
 30
0.0
 11
15.6109
 21
56.8297
 31
0.0
  0
LINE
  5
5C4
330
1E
100
AcDbEntity
  8
0
100
AcDbLine
 10
13.8769
 20
72.8297
 30
0.0
 11
15.6109
 21
72.8297
 31
0.0
  0
LINE
  5
5C5
330
1E
100
AcDbEntity
  8
0
100
AcDbLine
 10
13.8769
 20
80.82970000000001
 30
0.0
 11
15.6109
 21
80.82970000000001
 31
0.0
  0
LINE
  5
5C6
330
1E
100
AcDbEntity
  8
0
100
AcDbLine
 10
13.8769
 20
88.8297
 30
0.0
 11
15.6109
 21
88.8297
 31
0.0
  0
LINE
  5
5C7
330
1E
100
AcDbEntity
  8
0
100
AcDbLine
 10
13.8769
 20
96.8297
 30
0.0
 11
15.6109
 21
96.8297
 31
0.0
  0
LINE
  5
5CC
330
1E
100
AcDbEntity
  8
0
100
AcDbLine
 10
13.99119999999999
 20
104.8297
 30
0.0
 11
15.72519999999999
 21
104.8297
 31
0.0
  0
LINE
  5
5CE
330
1E
100
AcDbEntity
  8
0
100
AcDbLine
 10
13.99119999999999
 20
120.8296999999999
 30
0.0
 11
15.72519999999999
 21
120.8296999999999
 31
0.0
  0
LINE
  5
5CF
330
1E
100
AcDbEntity
  8
0
100
AcDbLine
 10
13.99119999999999
 20
136.8297
 30
0.0
 11
15.72519999999999
 21
136.8297
 31
0.0
  0
LINE
  5
5D0
330
1E
100
AcDbEntity
  8
0
100
AcDbLine
 10
13.99119999999999
 20
144.8296999999999
 30
0.0
 11
15.72519999999999
 21
144.8296999999999
 31
0.0
  0
LINE
  5
5D1
330
1E
100
AcDbEntity
  8
0
100
AcDbLine
 10
13.99119999999999
 20
152.8297
 30
0.0
 11
15.72519999999999
 21
152.8297
 31
0.0
  0
LINE
  5
5D2
330
1E
100
AcDbEntity
  8
0
100
AcDbLine
 10
13.99119999999999
 20
160.8297
 30
0.0
 11
15.72519999999999
 21
160.8297
 31
0.0
  0
LINE
  5
5D3
330
1E
100
AcDbEntity
  8
0
100
AcDbLine
 10
13.99119999999999
 20
168.8297
 30
0.0
 11
15.72519999999999
 21
168.8297
 31
0.0
  0
LINE
  5
5D4
330
1E
100
AcDbEntity
  8
0
100
AcDbLine
 10
13.99119999999999
 20
176.8297
 30
0.0
 11
15.72519999999999
 21
176.8297
 31
0.0
  0
LINE
  5
5D5
330
1E
100
AcDbEntity
  8
0
100
AcDbLine
 10
13.99119999999999
 20
128.8297
 30
0.0
 11
15.72519999999999
 21
128.8297
 31
0.0
  0
LINE
  5
5DC
330
1E
100
AcDbEntity
  8
0
100
AcDbLine
 10
14.10549999999999
 20
184.8297
 30
0.0
 11
15.83949999999999
 21
184.8297
 31
0.0
  0
LINE
  5
5DE
330
1E
100
AcDbEntity
  8
0
100
AcDbLine
 10
14.10549999999999
 20
192.8297
 30
0.0
 11
15.83949999999999
 21
192.8297
 31
0.0
  0
LINE
  5
5E1
330
1E
100
AcDbEntity
  8
0
100
AcDbLine
 10
14.10549999999999
 20
200.8297
 30
0.0
 11
15.83949999999999
 21
200.8297
 31
0.0
  0
LINE
  5
5E3
330
1E
100
AcDbEntity
  8
0
100
AcDbLine
 10
14.10549999999999
 20
216.8296999999999
 30
0.0
 11
15.83949999999999
 21
216.8296999999999
 31
0.0
  0
LINE
  5
5E5
330
1E
100
AcDbEntity
  8
0
100
AcDbLine
 10
14.10549999999999
 20
232.8297
 30
0.0
 11
15.83949999999999
 21
232.8297
 31
0.0
  0
LINE
  5
5E7
330
1E
100
AcDbEntity
  8
0
100
AcDbLine
 10
14.10549999999999
 20
240.8297
 30
0.0
 11
15.83949999999999
 21
240.8297
 31
0.0
  0
LINE
  5
5E9
330
1E
100
AcDbEntity
  8
0
100
AcDbLine
 10
14.10549999999999
 20
248.8297
 30
0.0
 11
15.83949999999999
 21
248.8297
 31
0.0
  0
LINE
  5
5EB
330
1E
100
AcDbEntity
  8
0
100
AcDbLine
 10
14.10549999999999
 20
256.8297
 30
0.0
 11
15.83949999999999
 21
256.8297
 31
0.0
  0
LINE
  5
5ED
330
1E
100
AcDbEntity
  8
0
100
AcDbLine
 10
14.10549999999999
 20
224.8296999999999
 30
0.0
 11
15.83949999999999
 21
224.8296999999999
 31
0.0
  0
LINE
  5
5EF
330
1E
100
AcDbEntity
  8
0
100
AcDbLine
 10
14.10549999999999
 20
208.8296999999999
 30
0.0
 11
15.83949999999999
 21
208.8296999999999
 31
0.0
  0
LINE
  5
5F0
330
1E
100
AcDbEntity
  8
0
100
AcDbLine
 10
14.2198
 20
264.7157
 30
0.0
 11
15.9538
 21
264.7157
 31
0.0
  0
LINE
  5
5F2
330
1E
100
AcDbEntity
  8
0
100
AcDbLine
 10
14.2198
 20
280.7157
 30
0.0
 11
15.9538
 21
280.7157
 31
0.0
  0
LINE
  5
5F3
330
1E
100
AcDbEntity
  8
0
100
AcDbLine
 10
14.2198
 20
296.6557
 30
0.0
 11
15.9538
 21
296.6557
 31
0.0
  0
LINE
  5
5F4
330
1E
100
AcDbEntity
  8
0
100
AcDbLine
 10
14.2198
 20
304.6557
 30
0.0
 11
15.9538
 21
304.6557
 31
0.0
  0
LINE
  5
5F5
330
1E
100
AcDbEntity
  8
0
100
AcDbLine
 10
14.2198
 20
328.6557
 30
0.0
 11
15.9538
 21
328.6557
 31
0.0
  0
LINE
  5
5F6
330
1E
100
AcDbEntity
  8
0
100
AcDbLine
 10
14.2198
 20
336.6557
 30
0.0
 11
15.9538
 21
336.6557
 31
0.0
  0
LINE
  5
5F7
330
1E
100
AcDbEntity
  8
0
100
AcDbLine
 10
14.2198
 20
344.7157
 30
0.0
 11
15.9538
 21
344.7157
 31
0.0
  0
LINE
  5
5F8
330
1E
100
AcDbEntity
  8
0
100
AcDbLine
 10
14.2198
 20
352.7157
 30
0.0
 11
15.9538
 21
352.7157
 31
0.0
  0
LINE
  5
5F9
330
1E
100
AcDbEntity
  8
0
100
AcDbLine
 10
14.2198
 20
376.7157
 30
0.0
 11
15.9538
 21
376.7157
 31
0.0
  0
LINE
  5
5FA
330
1E
100
AcDbEntity
  8
0
100
AcDbLine
 10
14.2198
 20
384.7157
 30
0.0
 11
15.9538
 21
384.7157
 31
0.0
  0
LINE
  5
5FB
330
1E
100
AcDbEntity
  8
0
100
AcDbLine
 10
14.2198
 20
360.7157
 30
0.0
 11
15.9538
 21
360.7157
 31
0.0
  0
LINE
  5
5FC
330
1E
100
AcDbEntity
  8
0
100
AcDbLine
 10
14.2198
 20
368.7157
 30
0.0
 11
15.9538
 21
368.7157
 31
0.0
  0
LINE
  5
5FD
330
1E
100
AcDbEntity
  8
0
100
AcDbLine
 10
14.2198
 20
312.6557
 30
0.0
 11
15.9538
 21
312.6557
 31
0.0
  0
LINE
  5
5FE
330
1E
100
AcDbEntity
  8
0
100
AcDbLine
 10
14.2198
 20
320.6557
 30
0.0
 11
15.9538
 21
320.6557
 31
0.0
  0
LINE
  5
5FF
330
1E
100
AcDbEntity
  8
0
100
AcDbLine
 10
14.2198
 20
288.7157
 30
0.0
 11
15.9538
 21
288.7157
 31
0.0
  0
LINE
  5
60C
330
1E
100
AcDbEntity
  8
0
100
AcDbLine
 10
14.6424
 20
392.5497
 30
0.0
 11
16.3764
 21
392.5497
 31
0.0
  0
LINE
  5
60D
330
1E
100
AcDbEntity
  8
0
100
AcDbLine
 10
14.6424
 20
400.5497
 30
0.0
 11
16.3764
 21
400.5497
 31
0.0
  0
LINE
  5
60E
330
1E
100
AcDbEntity
  8
0
100
AcDbLine
 10
14.6424
 20
408.6096999999999
 30
0.0
 11
16.3764
 21
408.6096999999999
 31
0.0
  0
LINE
  5
60F
330
1E
100
AcDbEntity
  8
0
100
AcDbLine
 10
14.6424
 20
424.6096999999999
 30
0.0
 11
16.3764
 21
424.6096999999999
 31
0.0
  0
LINE
  5
610
330
1E
100
AcDbEntity
  8
0
100
AcDbLine
 10
14.6424
 20
432.6096999999999
 30
0.0
 11
16.3764
 21
432.6096999999999
 31
0.0
  0
LINE
  5
611
330
1E
100
AcDbEntity
  8
0
100
AcDbLine
 10
14.6424
 20
416.6096999999999
 30
0.0
 11
16.3764
 21
416.6096999999999
 31
0.0
  0
LINE
  5
612
330
1E
100
AcDbEntity
  8
0
100
AcDbLine
 10
14.6424
 20
440.6096999999999
 30
0.0
 11
16.3764
 21
440.6096999999999
 31
0.0
  0
LINE
  5
613
330
1E
100
AcDbEntity
  8
0
100
AcDbLine
 10
14.5368
 20
456.6557
 30
0.0
 11
16.2708
 21
456.6557
 31
0.0
  0
LINE
  5
615
330
1E
100
AcDbEntity
  8
0
100
AcDbLine
 10
14.5368
 20
472.7157
 30
0.0
 11
16.2708
 21
472.7157
 31
0.0
  0
LINE
  5
617
330
1E
100
AcDbEntity
  8
0
100
AcDbLine
 10
14.5368
 20
480.7157
 30
0.0
 11
16.2708
 21
480.7157
 31
0.0
  0
LINE
  5
619
330
1E
100
AcDbEntity
  8
0
100
AcDbLine
 10
14.5368
 20
488.7157
 30
0.0
 11
16.2708
 21
488.7157
 31
0.0
  0
LINE
  5
61B
330
1E
100
AcDbEntity
  8
0
100
AcDbLine
 10
14.5368
 20
496.7157
 30
0.0
 11
16.2708
 21
496.7157
 31
0.0
  0
LINE
  5
61D
330
1E
100
AcDbEntity
  8
0
100
AcDbLine
 10
14.5368
 20
464.6557
 30
0.0
 11
16.2708
 21
464.6557
 31
0.0
  0
LINE
  5
61E
330
1E
100
AcDbEntity
  8
0
100
AcDbLine
 10
14.6424
 20
504.6096999999999
 30
0.0
 11
16.3764
 21
504.6096999999999
 31
0.0
  0
LINE
  5
61F
330
1E
100
AcDbEntity
  8
0
100
AcDbLine
 10
14.6424
 20
520.4416999999999
 30
0.0
 11
16.3764
 21
520.4987
 31
0.0
  0
LINE
  5
620
330
1E
100
AcDbEntity
  8
0
100
AcDbLine
 10
14.6424
 20
528.4337
 30
0.0
 11
16.3764
 21
528.4917
 31
0.0
  0
LINE
  5
621
330
1E
100
AcDbEntity
  8
0
100
AcDbLine
 10
14.6424
 20
598.6127
 30
0.0
 11
16.3764
 21
598.9036999999999
 31
0.0
  0
LINE
  5
622
330
1E
100
AcDbEntity
  8
0
100
AcDbLine
 10
14.6424
 20
606.4167
 30
0.0
 11
16.3764
 21
606.7087
 31
0.0
  0
LINE
  5
623
330
1E
100
AcDbEntity
  8
0
100
AcDbLine
 10
14.6424
 20
626.7977
 30
0.0
 11
16.3764
 21
627.2016999999999
 31
0.0
  0
LINE
  5
624
330
1E
100
AcDbEntity
  8
0
100
AcDbLine
 10
14.6424
 20
634.4147
 30
0.0
 11
16.3764
 21
634.8196999999999
 31
0.0
  0
LINE
  5
625
330
1E
100
AcDbEntity
  8
0
100
AcDbLine
 10
14.6424
 20
640.9027
 30
0.0
 11
16.3764
 21
641.3237
 31
0.0
  0
LINE
  5
626
330
1E
100
AcDbEntity
  8
0
100
AcDbLine
 10
14.6424
 20
613.0747
 30
0.0
 11
16.3764
 21
613.3827
 31
0.0
  0
LINE
  5
627
330
1E
100
AcDbEntity
  8
0
100
AcDbLine
 10
14.6424
 20
620.8577
 30
0.0
 11
16.3764
 21
621.1647
 31
0.0
  0
LINE
  5
628
330
1E
100
AcDbEntity
  8
0
100
AcDbLine
 10
14.6424
 20
584.5026999999999
 30
0.0
 11
16.3764
 21
584.7197
 31
0.0
  0
LINE
  5
629
330
1E
100
AcDbEntity
  8
0
100
AcDbLine
 10
14.6424
 20
592.3936999999999
 30
0.0
 11
16.3764
 21
592.6117
 31
0.0
  0
LINE
  5
62A
330
1E
100
AcDbEntity
  8
0
100
AcDbLine
 10
14.6424
 20
569.8416999999999
 30
0.0
 11
16.3764
 21
570.0426999999999
 31
0.0
  0
LINE
  5
62B
330
1E
100
AcDbEntity
  8
0
100
AcDbLine
 10
14.6424
 20
577.7486999999999
 30
0.0
 11
16.3764
 21
577.9497
 31
0.0
  0
LINE
  5
62C
330
1E
100
AcDbEntity
  8
0
100
AcDbLine
 10
14.6424
 20
552.8707
 30
0.0
 11
16.3764
 21
553.0547
 31
0.0
  0
LINE
  5
62D
330
1E
100
AcDbEntity
  8
0
100
AcDbLine
 10
14.6424
 20
560.7927
 30
0.0
 11
16.3764
 21
560.9767
 31
0.0
  0
LINE
  5
62E
330
1E
100
AcDbEntity
  8
0
100
AcDbLine
 10
14.6424
 20
536.7127
 30
0.0
 11
16.3764
 21
536.7817
 31
0.0
  0
LINE
  5
62F
330
1E
100
AcDbEntity
  8
0
100
AcDbLine
 10
14.6424
 20
544.7027
 30
0.0
 11
16.3764
 21
544.7707
 31
0.0
  0
LINE
  5
630
330
1E
100
AcDbEntity
  8
0
100
AcDbLine
 10
14.6424
 20
512.6096999999999
 30
0.0
 11
16.3764
 21
512.6096999999999
 31
0.0
  0
LINE
  5
632
330
1E
100
AcDbEntity
  8
0
100
AcDbLine
 10
14.6424
 20
448.6097
 30
0.0
 11
16.3764
 21
448.6097
 31
0.0
  0
LINE
  5
635
330
1E
100
AcDbEntity
  8
0
100
AcDbLine
 10
14.2198
 20
272.7157
 30
0.0
 11
15.9538
 21
272.7157
 31
0.0
  0
LINE
  5
639
330
1E
100
AcDbEntity
  8
0
100
AcDbLine
 10
13.99119999999999
 20
112.8297
 30
0.0
 11
15.72519999999999
 21
112.8297
 31
0.0
  0
LINE
  5
63B
330
1E
100
AcDbEntity
  8
0
100
AcDbLine
 10
13.8769
 20
64.8297
 30
0.0
 11
15.6109
 21
64.8297
 31
0.0
  0
LINE
  5
63F
330
1E
100
AcDbEntity
  8
0
100
AcDbLine
 10
1.996529999999999
 20
0.0961999999999854
 30
0.0
 11
17.3889
 21
7.64969999999999
 31
0.0
  0
LINE
  5
640
330
1E
100
AcDbEntity
  8
0
100
AcDbLine
 10
15.3824
 20
8.83009999999999
 30
0.0
 11
16.7084
 21
8.83009999999999
 31
0.0
  0
LINE
  5
642
330
1E
100
AcDbEntity
  8
0
100
AcDbLine
 10
15.3824
 20
16.82999999999999
 30
0.0
 11
16.7084
 21
16.82999999999999
 31
0.0
  0
LINE
  5
643
330
1E
100
AcDbEntity
  8
0
100
AcDbLine
 10
16.7084
 20
8.83009999999999
 30
0.0
 11
17.52439999999999
 21
8.83009999999999
 31
0.0
  0
LINE
  5
646
330
1E
100
AcDbEntity
  8
0
100
AcDbLine
 10
16.7084
 20
16.82999999999999
 30
0.0
 11
17.52439999999999
 21
16.82999999999999
 31
0.0
  0
LINE
  5
647
330
1E
100
AcDbEntity
  8
0
100
AcDbLine
 10
17.52439999999999
 20
8.83009999999999
 30
0.0
 11
17.8304
 21
8.83009999999999
 31
0.0
  0
LINE
  5
649
330
1E
100
AcDbEntity
  8
0
100
AcDbLine
 10
15.3824
 20
24.83
 30
0.0
 11
16.7084
 21
24.83
 31
0.0
  0
LINE
  5
64B
330
1E
100
AcDbEntity
  8
0
100
AcDbLine
 10
16.7084
 20
24.83
 30
0.0
 11
17.52439999999999
 21
24.83
 31
0.0
  0
LINE
  5
64C
330
1E
100
AcDbEntity
  8
0
100
AcDbLine
 10
17.52439999999999
 20
24.83
 30
0.0
 11
17.8304
 21
24.83
 31
0.0
  0
LINE
  5
64F
330
1E
100
AcDbEntity
  8
0
100
AcDbLine
 10
15.3824
 20
40.83
 30
0.0
 11
16.7084
 21
40.83
 31
0.0
  0
LINE
  5
651
330
1E
100
AcDbEntity
  8
0
100
AcDbLine
 10
15.3824
 20
48.83
 30
0.0
 11
16.7084
 21
48.83
 31
0.0
  0
LINE
  5
653
330
1E
100
AcDbEntity
  8
0
100
AcDbLine
 10
15.6109
 20
56.8297
 30
0.0
 11
16.9369
 21
56.8297
 31
0.0
  0
LINE
  5
655
330
1E
100
AcDbEntity
  8
0
100
AcDbLine
 10
15.6109
 20
72.8297
 30
0.0
 11
16.9369
 21
72.8297
 31
0.0
  0
LINE
  5
656
330
1E
100
AcDbEntity
  8
0
100
AcDbLine
 10
15.6109
 20
80.82970000000001
 30
0.0
 11
16.9369
 21
80.82970000000001
 31
0.0
  0
LINE
  5
657
330
1E
100
AcDbEntity
  8
0
100
AcDbLine
 10
15.6109
 20
88.8297
 30
0.0
 11
16.9369
 21
88.8297
 31
0.0
  0
LINE
  5
658
330
1E
100
AcDbEntity
  8
0
100
AcDbLine
 10
15.6109
 20
96.8297
 30
0.0
 11
16.9369
 21
96.8297
 31
0.0
  0
LINE
  5
659
330
1E
100
AcDbEntity
  8
0
100
AcDbLine
 10
15.72519999999999
 20
136.8297
 30
0.0
 11
17.0512
 21
136.8297
 31
0.0
  0
LINE
  5
65A
330
1E
100
AcDbEntity
  8
0
100
AcDbLine
 10
15.72519999999999
 20
144.8296999999999
 30
0.0
 11
17.0512
 21
144.8296999999999
 31
0.0
  0
LINE
  5
65B
330
1E
100
AcDbEntity
  8
0
100
AcDbLine
 10
15.72519999999999
 20
152.8297
 30
0.0
 11
17.0512
 21
152.8297
 31
0.0
  0
LINE
  5
65C
330
1E
100
AcDbEntity
  8
0
100
AcDbLine
 10
15.72519999999999
 20
160.8297
 30
0.0
 11
17.0512
 21
160.8297
 31
0.0
  0
LINE
  5
678
330
1E
100
AcDbEntity
  8
0
100
AcDbLine
 10
15.72519999999999
 20
168.8297
 30
0.0
 11
17.0512
 21
168.8297
 31
0.0
  0
LINE
  5
679
330
1E
100
AcDbEntity
  8
0
100
AcDbLine
 10
15.72519999999999
 20
176.8297
 30
0.0
 11
17.0512
 21
176.8297
 31
0.0
  0
LINE
  5
67A
330
1E
100
AcDbEntity
  8
0
100
AcDbLine
 10
15.72519999999999
 20
120.8296999999999
 30
0.0
 11
17.0512
 21
120.8296999999999
 31
0.0
  0
LINE
  5
67B
330
1E
100
AcDbEntity
  8
0
100
AcDbLine
 10
15.72519999999999
 20
128.8297
 30
0.0
 11
17.0512
 21
128.8297
 31
0.0
  0
LINE
  5
67C
330
1E
100
AcDbEntity
  8
0
100
AcDbLine
 10
15.72519999999999
 20
104.8297
 30
0.0
 11
17.0512
 21
104.8297
 31
0.0
  0
LINE
  5
681
330
1E
100
AcDbEntity
  8
0
100
AcDbLine
 10
15.72519999999999
 20
112.8297
 30
0.0
 11
17.0512
 21
112.8297
 31
0.0
  0
LINE
  5
682
330
1E
100
AcDbEntity
  8
0
100
AcDbLine
 10
15.6109
 20
64.8297
 30
0.0
 11
16.9369
 21
64.8297
 31
0.0
  0
LINE
  5
683
330
1E
100
AcDbEntity
  8
0
100
AcDbLine
 10
16.7084
 20
40.83
 30
0.0
 11
17.52439999999999
 21
40.83
 31
0.0
  0
LINE
  5
684
330
1E
100
AcDbEntity
  8
0
100
AcDbLine
 10
15.83949999999999
 20
184.8297
 30
0.0
 11
17.1655
 21
184.8297
 31
0.0
  0
LINE
  5
685
330
1E
100
AcDbEntity
  8
0
100
AcDbLine
 10
15.83949999999999
 20
192.8297
 30
0.0
 11
17.1655
 21
192.8297
 31
0.0
  0
LINE
  5
686
330
1E
100
AcDbEntity
  8
0
100
AcDbLine
 10
15.83949999999999
 20
232.8297
 30
0.0
 11
17.1655
 21
232.8297
 31
0.0
  0
LINE
  5
687
330
1E
100
AcDbEntity
  8
0
100
AcDbLine
 10
15.83949999999999
 20
240.8297
 30
0.0
 11
17.1655
 21
240.8297
 31
0.0
  0
LINE
  5
688
330
1E
100
AcDbEntity
  8
0
100
AcDbLine
 10
15.83949999999999
 20
248.8297
 30
0.0
 11
17.1655
 21
248.8297
 31
0.0
  0
LINE
  5
689
330
1E
100
AcDbEntity
  8
0
100
AcDbLine
 10
15.83949999999999
 20
256.8297
 30
0.0
 11
17.1655
 21
256.8297
 31
0.0
  0
LINE
  5
68A
330
1E
100
AcDbEntity
  8
0
100
AcDbLine
 10
15.83949999999999
 20
216.8296999999999
 30
0.0
 11
17.1655
 21
216.8296999999999
 31
0.0
  0
LINE
  5
68B
330
1E
100
AcDbEntity
  8
0
100
AcDbLine
 10
15.83949999999999
 20
224.8296999999999
 30
0.0
 11
17.1655
 21
224.8296999999999
 31
0.0
  0
LINE
  5
68C
330
1E
100
AcDbEntity
  8
0
100
AcDbLine
 10
15.83949999999999
 20
200.8297
 30
0.0
 11
17.1655
 21
200.8297
 31
0.0
  0
LINE
  5
693
330
1E
100
AcDbEntity
  8
0
100
AcDbLine
 10
15.83949999999999
 20
208.8296999999999
 30
0.0
 11
17.1655
 21
208.8296999999999
 31
0.0
  0
LINE
  5
69C
330
1E
100
AcDbEntity
  8
0
100
AcDbLine
 10
15.9538
 20
296.6557
 30
0.0
 11
17.2798
 21
296.6557
 31
0.0
  0
LINE
  5
69D
330
1E
100
AcDbEntity
  8
0
100
AcDbLine
 10
15.9538
 20
304.6557
 30
0.0
 11
17.2798
 21
304.6557
 31
0.0
  0
LINE
  5
69E
330
1E
100
AcDbEntity
  8
0
100
AcDbLine
 10
15.9538
 20
328.6557
 30
0.0
 11
17.2798
 21
328.6557
 31
0.0
  0
LINE
  5
69F
330
1E
100
AcDbEntity
  8
0
100
AcDbLine
 10
15.9538
 20
336.6557
 30
0.0
 11
17.2798
 21
336.6557
 31
0.0
  0
LINE
  5
6A0
330
1E
100
AcDbEntity
  8
0
100
AcDbLine
 10
15.9538
 20
344.7157
 30
0.0
 11
17.2798
 21
344.7157
 31
0.0
  0
LINE
  5
6A1
330
1E
100
AcDbEntity
  8
0
100
AcDbLine
 10
15.9538
 20
352.7157
 30
0.0
 11
17.2798
 21
352.7157
 31
0.0
  0
LINE
  5
6A2
330
1E
100
AcDbEntity
  8
0
100
AcDbLine
 10
15.9538
 20
376.7157
 30
0.0
 11
17.2798
 21
376.7157
 31
0.0
  0
LINE
  5
6A3
330
1E
100
AcDbEntity
  8
0
100
AcDbLine
 10
15.9538
 20
384.7157
 30
0.0
 11
17.2798
 21
384.7157
 31
0.0
  0
LINE
  5
6A4
330
1E
100
AcDbEntity
  8
0
100
AcDbLine
 10
15.9538
 20
360.7157
 30
0.0
 11
17.2798
 21
360.7157
 31
0.0
  0
LINE
  5
6A5
330
1E
100
AcDbEntity
  8
0
100
AcDbLine
 10
15.9538
 20
368.7157
 30
0.0
 11
17.2798
 21
368.7157
 31
0.0
  0
LINE
  5
6A6
330
1E
100
AcDbEntity
  8
0
100
AcDbLine
 10
15.9538
 20
312.6557
 30
0.0
 11
17.2798
 21
312.6557
 31
0.0
  0
LINE
  5
6A7
330
1E
100
AcDbEntity
  8
0
100
AcDbLine
 10
15.9538
 20
320.6557
 30
0.0
 11
17.2798
 21
320.6557
 31
0.0
  0
LINE
  5
6A8
330
1E
100
AcDbEntity
  8
0
100
AcDbLine
 10
15.9538
 20
280.7157
 30
0.0
 11
17.2798
 21
280.7157
 31
0.0
  0
LINE
  5
6A9
330
1E
100
AcDbEntity
  8
0
100
AcDbLine
 10
15.9538
 20
288.7157
 30
0.0
 11
17.2798
 21
288.7157
 31
0.0
  0
LINE
  5
6AA
330
1E
100
AcDbEntity
  8
0
100
AcDbLine
 10
15.9538
 20
264.7157
 30
0.0
 11
17.2798
 21
264.7157
 31
0.0
  0
LINE
  5
6AB
330
1E
100
AcDbEntity
  8
0
100
AcDbLine
 10
15.9538
 20
272.7157
 30
0.0
 11
17.2798
 21
272.7157
 31
0.0
  0
LINE
  5
6BD
330
1E
100
AcDbEntity
  8
0
100
AcDbLine
 10
16.3764
 20
392.5497
 30
0.0
 11
17.7024
 21
392.5497
 31
0.0
  0
LINE
  5
6BF
330
1E
100
AcDbEntity
  8
0
100
AcDbLine
 10
16.3764
 20
400.5497
 30
0.0
 11
17.7024
 21
400.5497
 31
0.0
  0
LINE
  5
6C1
330
1E
100
AcDbEntity
  8
0
100
AcDbLine
 10
16.3764
 20
408.6096999999999
 30
0.0
 11
17.7024
 21
408.6096999999999
 31
0.0
  0
LINE
  5
6C3
330
1E
100
AcDbEntity
  8
0
100
AcDbLine
 10
16.3764
 20
424.6096999999999
 30
0.0
 11
17.7024
 21
424.6096999999999
 31
0.0
  0
LINE
  5
6C5
330
1E
100
AcDbEntity
  8
0
100
AcDbLine
 10
16.3764
 20
432.6096999999999
 30
0.0
 11
17.7024
 21
432.6096999999999
 31
0.0
  0
LINE
  5
6C7
330
1E
100
AcDbEntity
  8
0
100
AcDbLine
 10
16.3764
 20
416.6096999999999
 30
0.0
 11
17.7024
 21
416.6096999999999
 31
0.0
  0
LINE
  5
6C9
330
1E
100
AcDbEntity
  8
0
100
AcDbLine
 10
16.3764
 20
440.6096999999999
 30
0.0
 11
17.7024
 21
440.6096999999999
 31
0.0
  0
LINE
  5
6CB
330
1E
100
AcDbEntity
  8
0
100
AcDbLine
 10
16.2708
 20
456.6557
 30
0.0
 11
17.5968
 21
456.6557
 31
0.0
  0
LINE
  5
6CC
330
1E
100
AcDbEntity
  8
0
100
AcDbLine
 10
16.2708
 20
472.7157
 30
0.0
 11
17.5968
 21
472.7157
 31
0.0
  0
LINE
  5
6CD
330
1E
100
AcDbEntity
  8
0
100
AcDbLine
 10
16.2708
 20
480.7157
 30
0.0
 11
17.5968
 21
480.7157
 31
0.0
  0
LINE
  5
6CE
330
1E
100
AcDbEntity
  8
0
100
AcDbLine
 10
16.2708
 20
488.7157
 30
0.0
 11
17.5968
 21
488.7157
 31
0.0
  0
LINE
  5
6CF
330
1E
100
AcDbEntity
  8
0
100
AcDbLine
 10
16.3764
 20
504.6096999999999
 30
0.0
 11
17.7024
 21
504.6096999999999
 31
0.0
  0
LINE
  5
6D0
330
1E
100
AcDbEntity
  8
0
100
AcDbLine
 10
16.3764
 20
520.4987
 30
0.0
 11
17.7024
 21
520.5737
 31
0.0
  0
LINE
  5
6D1
330
1E
100
AcDbEntity
  8
0
100
AcDbLine
 10
16.3764
 20
528.4917
 30
0.0
 11
17.7024
 21
528.5667
 31
0.0
  0
LINE
  5
6D2
330
1E
100
AcDbEntity
  8
0
100
AcDbLine
 10
16.3764
 20
598.9036999999999
 30
0.0
 11
17.7024
 21
599.2847
 31
0.0
  0
LINE
  5
6D3
330
1E
100
AcDbEntity
  8
0
100
AcDbLine
 10
16.3764
 20
606.7087
 30
0.0
 11
17.7024
 21
607.0897
 31
0.0
  0
LINE
  5
6D4
330
1E
100
AcDbEntity
  8
0
100
AcDbLine
 10
16.3764
 20
627.2016999999999
 30
0.0
 11
17.7024
 21
627.7317
 31
0.0
  0
LINE
  5
6D5
330
1E
100
AcDbEntity
  8
0
100
AcDbLine
 10
16.3764
 20
634.8196999999999
 30
0.0
 11
17.7024
 21
635.3496999999999
 31
0.0
  0
LINE
  5
6D6
330
1E
100
AcDbEntity
  8
0
100
AcDbLine
 10
16.3764
 20
641.3237
 30
0.0
 11
17.7024
 21
641.8737
 31
0.0
  0
LINE
  5
6D7
330
1E
100
AcDbEntity
  8
0
100
AcDbLine
 10
16.3764
 20
613.3827
 30
0.0
 11
17.7024
 21
613.7836999999999
 31
0.0
  0
LINE
  5
6D8
330
1E
100
AcDbEntity
  8
0
100
AcDbLine
 10
16.3764
 20
621.1647
 30
0.0
 11
17.7024
 21
621.5666999999999
 31
0.0
  0
LINE
  5
6D9
330
1E
100
AcDbEntity
  8
0
100
AcDbLine
 10
16.3764
 20
584.7197
 30
0.0
 11
17.7024
 21
585.0036999999999
 31
0.0
  0
LINE
  5
6DA
330
1E
100
AcDbEntity
  8
0
100
AcDbLine
 10
16.3764
 20
592.6117
 30
0.0
 11
17.7024
 21
592.8957
 31
0.0
  0
LINE
  5
6DB
330
1E
100
AcDbEntity
  8
0
100
AcDbLine
 10
16.3764
 20
570.0426999999999
 30
0.0
 11
17.7024
 21
570.3057
 31
0.0
  0
LINE
  5
6DC
330
1E
100
AcDbEntity
  8
0
100
AcDbLine
 10
16.3764
 20
577.9497
 30
0.0
 11
17.7024
 21
578.2127
 31
0.0
  0
LINE
  5
6DD
330
1E
100
AcDbEntity
  8
0
100
AcDbLine
 10
16.3764
 20
553.0547
 30
0.0
 11
17.7024
 21
553.2957
 31
0.0
  0
LINE
  5
6DE
330
1E
100
AcDbEntity
  8
0
100
AcDbLine
 10
16.3764
 20
560.9767
 30
0.0
 11
17.7024
 21
561.2177
 31
0.0
  0
LINE
  5
6DF
330
1E
100
AcDbEntity
  8
0
100
AcDbLine
 10
16.3764
 20
536.7817
 30
0.0
 11
17.7024
 21
536.8707
 31
0.0
  0
LINE
  5
6E0
330
1E
100
AcDbEntity
  8
0
100
AcDbLine
 10
16.3764
 20
544.7707
 30
0.0
 11
17.7024
 21
544.8606999999999
 31
0.0
  0
LINE
  5
6E1
330
1E
100
AcDbEntity
  8
0
100
AcDbLine
 10
16.3764
 20
512.6096999999999
 30
0.0
 11
17.7024
 21
512.6096999999999
 31
0.0
  0
LINE
  5
6E2
330
1E
100
AcDbEntity
  8
0
100
AcDbLine
 10
16.2708
 20
496.7157
 30
0.0
 11
17.5968
 21
496.7157
 31
0.0
  0
LINE
  5
6E3
330
1E
100
AcDbEntity
  8
0
100
AcDbLine
 10
16.2708
 20
464.6557
 30
0.0
 11
17.5968
 21
464.6557
 31
0.0
  0
LINE
  5
6FD
330
1E
100
AcDbEntity
  8
0
100
AcDbLine
 10
16.3764
 20
448.6097
 30
0.0
 11
17.7024
 21
448.6097
 31
0.0
  0
LINE
  5
704
330
1E
100
AcDbEntity
  8
0
100
AcDbLine
 10
16.7084
 20
48.83
 30
0.0
 11
17.52439999999999
 21
48.83
 31
0.0
  0
LINE
  5
706
330
1E
100
AcDbEntity
  8
0
100
AcDbLine
 10
15.3824
 20
32.82999999999999
 30
0.0
 11
16.7084
 21
32.82999999999999
 31
0.0
  0
LINE
  5
709
330
1E
100
AcDbEntity
  8
0
100
AcDbLine
 10
16.9369
 20
56.8297
 30
0.0
 11
17.7529
 21
56.8297
 31
0.0
  0
LINE
  5
70A
330
1E
100
AcDbEntity
  8
0
100
AcDbLine
 10
17.52439999999999
 20
40.83
 30
0.0
 11
17.6771081285328
 21
40.83
 31
0.0
  0
LINE
  5
70B
330
1E
100
AcDbEntity
  8
0
100
AcDbLine
 10
17.52439999999999
 20
48.83
 30
0.0
 11
17.68231445813419
 21
48.83
 31
0.0
  0
LINE
  5
70D
330
1E
100
AcDbEntity
  8
0
100
AcDbLine
 10
16.9369
 20
72.8297
 30
0.0
 11
17.7529
 21
72.8297
 31
0.0
  0
LINE
  5
70E
330
1E
100
AcDbEntity
  8
0
100
AcDbLine
 10
16.9369
 20
80.82970000000001
 30
0.0
 11
17.7529
 21
80.82970000000001
 31
0.0
  0
LINE
  5
70F
330
1E
100
AcDbEntity
  8
0
100
AcDbLine
 10
16.9369
 20
88.8297
 30
0.0
 11
17.7529
 21
88.8297
 31
0.0
  0
LINE
  5
710
330
1E
100
AcDbEntity
  8
0
100
AcDbLine
 10
16.9369
 20
96.8297
 30
0.0
 11
17.7529
 21
96.8297
 31
0.0
  0
LINE
  5
715
330
1E
100
AcDbEntity
  8
0
100
AcDbLine
 10
17.0512
 20
104.8297
 30
0.0
 11
17.8672
 21
104.8297
 31
0.0
  0
LINE
  5
717
330
1E
100
AcDbEntity
  8
0
100
AcDbLine
 10
17.0512
 20
120.8296999999999
 30
0.0
 11
17.8672
 21
120.8296999999999
 31
0.0
  0
LINE
  5
718
330
1E
100
AcDbEntity
  8
0
100
AcDbLine
 10
17.0512
 20
136.8297
 30
0.0
 11
17.8672
 21
136.8297
 31
0.0
  0
LINE
  5
719
330
1E
100
AcDbEntity
  8
0
100
AcDbLine
 10
17.0512
 20
144.8296999999999
 30
0.0
 11
17.8672
 21
144.8296999999999
 31
0.0
  0
LINE
  5
71A
330
1E
100
AcDbEntity
  8
0
100
AcDbLine
 10
17.0512
 20
152.8297
 30
0.0
 11
17.8672
 21
152.8297
 31
0.0
  0
LINE
  5
71B
330
1E
100
AcDbEntity
  8
0
100
AcDbLine
 10
17.0512
 20
160.8297
 30
0.0
 11
17.8672
 21
160.8297
 31
0.0
  0
LINE
  5
71C
330
1E
100
AcDbEntity
  8
0
100
AcDbLine
 10
17.0512
 20
168.8297
 30
0.0
 11
17.8672
 21
168.8297
 31
0.0
  0
LINE
  5
71D
330
1E
100
AcDbEntity
  8
0
100
AcDbLine
 10
17.0512
 20
176.8297
 30
0.0
 11
17.8672
 21
176.8297
 31
0.0
  0
LINE
  5
71E
330
1E
100
AcDbEntity
  8
0
100
AcDbLine
 10
17.0512
 20
128.8297
 30
0.0
 11
17.8672
 21
128.8297
 31
0.0
  0
LINE
  5
724
330
1E
100
AcDbEntity
  8
0
100
AcDbLine
 10
17.1655
 20
184.8297
 30
0.0
 11
17.9815
 21
184.8297
 31
0.0
  0
LINE
  5
725
330
1E
100
AcDbEntity
  8
0
100
AcDbLine
 10
17.1655
 20
192.8297
 30
0.0
 11
17.9815
 21
192.8297
 31
0.0
  0
LINE
  5
72A
330
1E
100
AcDbEntity
  8
0
100
AcDbLine
 10
17.1655
 20
200.8297
 30
0.0
 11
17.9815
 21
200.8297
 31
0.0
  0
LINE
  5
72C
330
1E
100
AcDbEntity
  8
0
100
AcDbLine
 10
17.1655
 20
216.8296999999999
 30
0.0
 11
17.9815
 21
216.8296999999999
 31
0.0
  0
LINE
  5
72E
330
1E
100
AcDbEntity
  8
0
100
AcDbLine
 10
17.1655
 20
232.8297
 30
0.0
 11
17.9815
 21
232.8297
 31
0.0
  0
LINE
  5
730
330
1E
100
AcDbEntity
  8
0
100
AcDbLine
 10
17.1655
 20
240.8297
 30
0.0
 11
17.9815
 21
240.8297
 31
0.0
  0
LINE
  5
732
330
1E
100
AcDbEntity
  8
0
100
AcDbLine
 10
17.1655
 20
248.8297
 30
0.0
 11
17.9815
 21
248.8297
 31
0.0
  0
LINE
  5
734
330
1E
100
AcDbEntity
  8
0
100
AcDbLine
 10
17.2798
 20
296.6557
 30
0.0
 11
18.0958
 21
296.6557
 31
0.0
  0
LINE
  5
735
330
1E
100
AcDbEntity
  8
0
100
AcDbLine
 10
17.2798
 20
304.6557
 30
0.0
 11
18.0958
 21
304.6557
 31
0.0
  0
LINE
  5
736
330
1E
100
AcDbEntity
  8
0
100
AcDbLine
 10
17.2798
 20
328.6557
 30
0.0
 11
18.0958
 21
328.6557
 31
0.0
  0
LINE
  5
737
330
1E
100
AcDbEntity
  8
0
100
AcDbLine
 10
17.2798
 20
336.6557
 30
0.0
 11
18.0958
 21
336.6557
 31
0.0
  0
LINE
  5
738
330
1E
100
AcDbEntity
  8
0
100
AcDbLine
 10
17.2798
 20
344.7157
 30
0.0
 11
18.0958
 21
344.7157
 31
0.0
  0
LINE
  5
739
330
1E
100
AcDbEntity
  8
0
100
AcDbLine
 10
17.2798
 20
352.7157
 30
0.0
 11
18.0958
 21
352.7157
 31
0.0
  0
LINE
  5
73A
330
1E
100
AcDbEntity
  8
0
100
AcDbLine
 10
17.2798
 20
376.7157
 30
0.0
 11
18.0958
 21
376.7157
 31
0.0
  0
LINE
  5
73B
330
1E
100
AcDbEntity
  8
0
100
AcDbLine
 10
17.2798
 20
384.7157
 30
0.0
 11
18.0958
 21
384.7157
 31
0.0
  0
LINE
  5
73C
330
1E
100
AcDbEntity
  8
0
100
AcDbLine
 10
17.2798
 20
360.7157
 30
0.0
 11
18.0958
 21
360.7157
 31
0.0
  0
LINE
  5
73D
330
1E
100
AcDbEntity
  8
0
100
AcDbLine
 10
17.2798
 20
368.7157
 30
0.0
 11
18.0958
 21
368.7157
 31
0.0
  0
LINE
  5
73E
330
1E
100
AcDbEntity
  8
0
100
AcDbLine
 10
17.2798
 20
312.6557
 30
0.0
 11
18.0958
 21
312.6557
 31
0.0
  0
LINE
  5
73F
330
1E
100
AcDbEntity
  8
0
100
AcDbLine
 10
17.2798
 20
320.6557
 30
0.0
 11
18.0958
 21
320.6557
 31
0.0
  0
LINE
  5
740
330
1E
100
AcDbEntity
  8
0
100
AcDbLine
 10
17.2798
 20
280.7157
 30
0.0
 11
18.0958
 21
280.7157
 31
0.0
  0
LINE
  5
741
330
1E
100
AcDbEntity
  8
0
100
AcDbLine
 10
17.2798
 20
288.7157
 30
0.0
 11
18.0958
 21
288.7157
 31
0.0
  0
LINE
  5
742
330
1E
100
AcDbEntity
  8
0
100
AcDbLine
 10
17.2798
 20
264.7157
 30
0.0
 11
18.0958
 21
264.7157
 31
0.0
  0
LINE
  5
743
330
1E
100
AcDbEntity
  8
0
100
AcDbLine
 10
17.2798
 20
272.7157
 30
0.0
 11
18.0958
 21
272.7157
 31
0.0
  0
LINE
  5
744
330
1E
100
AcDbEntity
  8
0
100
AcDbLine
 10
17.1655
 20
256.8297
 30
0.0
 11
17.9815
 21
256.8297
 31
0.0
  0
LINE
  5
746
330
1E
100
AcDbEntity
  8
0
100
AcDbLine
 10
17.1655
 20
224.8296999999999
 30
0.0
 11
17.9815
 21
224.8296999999999
 31
0.0
  0
LINE
  5
748
330
1E
100
AcDbEntity
  8
0
100
AcDbLine
 10
17.1655
 20
208.8296999999999
 30
0.0
 11
17.9815
 21
208.8296999999999
 31
0.0
  0
LINE
  5
75B
330
1E
100
AcDbEntity
  8
0
100
AcDbLine
 10
17.0512
 20
112.8297
 30
0.0
 11
17.8672
 21
112.8297
 31
0.0
  0
LINE
  5
75D
330
1E
100
AcDbEntity
  8
0
100
AcDbLine
 10
16.9369
 20
64.8297
 30
0.0
 11
17.7529
 21
64.8297
 31
0.0
  0
LINE
  5
75F
330
1E
100
AcDbEntity
  8
0
100
AcDbLine
 10
16.7084
 20
32.82999999999999
 30
0.0
 11
17.52439999999999
 21
32.82999999999999
 31
0.0
  0
LINE
  5
761
330
1E
100
AcDbEntity
  8
0
100
AcDbLine
 10
17.5968
 20
456.6557
 30
0.0
 11
18.4128
 21
456.6557
 31
0.0
  0
LINE
  5
762
330
1E
100
AcDbEntity
  8
0
100
AcDbLine
 10
17.5968
 20
472.7157
 30
0.0
 11
18.4128
 21
472.7157
 31
0.0
  0
LINE
  5
763
330
1E
100
AcDbEntity
  8
0
100
AcDbLine
 10
17.5968
 20
480.7157
 30
0.0
 11
18.4128
 21
480.7157
 31
0.0
  0
LINE
  5
764
330
1E
100
AcDbEntity
  8
0
100
AcDbLine
 10
17.5968
 20
488.7157
 30
0.0
 11
18.4128
 21
488.7157
 31
0.0
  0
LINE
  5
765
330
1E
100
AcDbEntity
  8
0
100
AcDbLine
 10
17.5968
 20
496.7157
 30
0.0
 11
18.4128
 21
496.7157
 31
0.0
  0
LINE
  5
766
330
1E
100
AcDbEntity
  8
0
100
AcDbLine
 10
17.5968
 20
464.6557
 30
0.0
 11
18.4128
 21
464.6557
 31
0.0
  0
LINE
  5
767
330
1E
100
AcDbEntity
  8
0
100
AcDbLine
 10
17.52439999999999
 20
32.82999999999999
 30
0.0
 11
17.8304
 21
32.82999999999999
 31
0.0
  0
LINE
  5
768
330
1E
100
AcDbEntity
  8
0
100
AcDbLine
 10
17.52439999999999
 20
16.82999999999999
 30
0.0
 11
17.8304
 21
16.82999999999999
 31
0.0
  0
LINE
  5
769
330
1E
100
AcDbEntity
  8
0
100
AcDbLine
 10
17.65559999999999
 20
7.7808
 30
0.0
 11
17.6575541158605
 21
8.830099999999969
 31
0.0
  0
LINE
  5
76A
330
1E
100
AcDbEntity
  8
0
100
AcDbLine
 10
17.3889
 20
7.64969999999999
 30
0.0
 11
17.65559999999999
 21
7.7808
 31
0.0
  0
LINE
  5
76B
330
1E
100
AcDbEntity
  8
0
100
AcDbLine
 10
17.6575541158605
 20
8.83009999999998
 30
0.0
 11
17.8304
 21
8.83009999999999
 31
0.0
  0
LINE
  5
76C
330
1E
100
AcDbEntity
  8
0
100
AcDbLine
 10
18.0344
 20
16.5224
 30
0.0
 11
18.0344
 21
9.137699999999989
 31
0.0
  0
LINE
  5
76D
330
1E
100
AcDbEntity
  8
0
100
AcDbLine
 10
17.8304
 20
8.83009999999999
 30
0.0
 11
18.0344
 21
9.137699999999989
 31
0.0
  0
LINE
  5
76E
330
1E
100
AcDbEntity
  8
0
100
AcDbLine
 10
18.0344
 20
9.137699999999989
 30
0.0
 11
18.0344
 21
16.5224
 31
0.0
  0
LINE
  5
76F
330
1E
100
AcDbEntity
  8
0
100
AcDbLine
 10
17.8304
 20
16.82999999999999
 30
0.0
 11
18.0344
 21
16.5224
 31
0.0
  0
LINE
  5
770
330
1E
100
AcDbEntity
  8
0
100
AcDbLine
 10
17.67245236371389
 20
16.82999999999999
 30
0.0
 11
17.68753409367279
 21
24.92842423651589
 31
0.0
  0
LINE
  5
771
330
1E
100
AcDbEntity
  8
0
100
AcDbLine
 10
17.6873507977978
 20
24.83
 30
0.0
 11
17.8304
 21
24.83
 31
0.0
  0
LINE
  5
772
330
1E
100
AcDbEntity
  8
0
100
AcDbLine
 10
17.702049691293
 20
32.72285285285939
 30
0.0
 11
17.7173644789701
 21
40.946421902312
 31
0.0
  0
LINE
  5
773
330
1E
100
AcDbEntity
  8
0
100
AcDbLine
 10
17.7171476659655
 20
40.83
 30
0.0
 11
17.8304
 21
40.83
 31
0.0
  0
LINE
  5
774
330
1E
100
AcDbEntity
  8
0
100
AcDbLine
 10
17.7318131284216
 20
48.7049014150931
 30
0.0
 11
17.74694397544189
 21
56.8297
 31
0.0
  0
LINE
  5
775
330
1E
100
AcDbEntity
  8
0
100
AcDbLine
 10
17.73204610004929
 20
48.83
 30
0.0
 11
17.8304
 21
48.83
 31
0.0
  0
LINE
  5
776
330
1E
100
AcDbEntity
  8
0
100
AcDbLine
 10
17.8304
 20
40.83
 30
0.0
 11
18.0344
 21
41.1377
 31
0.0
  0
LINE
  5
777
330
1E
100
AcDbEntity
  8
0
100
AcDbLine
 10
17.8304
 20
48.83
 30
0.0
 11
18.0344
 21
48.5224
 31
0.0
  0
LINE
  5
778
330
1E
100
AcDbEntity
  8
0
100
AcDbLine
 10
17.7529
 20
56.8297
 30
0.0
 11
18.0589
 21
56.8297
 31
0.0
  0
LINE
  5
779
330
1E
100
AcDbEntity
  8
0
100
AcDbLine
 10
17.8304
 20
24.83
 30
0.0
 11
18.0344
 21
25.1377
 31
0.0
  0
LINE
  5
77A
330
1E
100
AcDbEntity
  8
0
100
AcDbLine
 10
18.0344
 20
48.5224
 30
0.0
 11
18.0344
 21
41.1377
 31
0.0
  0
LINE
  5
77B
330
1E
100
AcDbEntity
  8
0
100
AcDbLine
 10
18.0344
 20
41.1377
 30
0.0
 11
18.0344
 21
48.5224
 31
0.0
  0
LINE
  5
77C
330
1E
100
AcDbEntity
  8
0
100
AcDbLine
 10
18.0589
 20
56.8297
 30
0.0
 11
18.2629
 21
57.1377
 31
0.0
  0
LINE
  5
77D
330
1E
100
AcDbEntity
  8
0
100
AcDbLine
 10
18.2629
 20
64.5227
 30
0.0
 11
18.2629
 21
57.1377
 31
0.0
  0
LINE
  5
77E
330
1E
100
AcDbEntity
  8
0
100
AcDbLine
 10
18.2629
 20
57.1377
 30
0.0
 11
18.2629
 21
64.5227
 31
0.0
  0
LINE
  5
77F
330
1E
100
AcDbEntity
  8
0
100
AcDbLine
 10
18.0344
 20
32.5224
 30
0.0
 11
18.0344
 21
25.1377
 31
0.0
  0
LINE
  5
780
330
1E
100
AcDbEntity
  8
0
100
AcDbLine
 10
18.0344
 20
25.1377
 30
0.0
 11
18.0344
 21
32.5224
 31
0.0
  0
LINE
  5
781
330
1E
100
AcDbEntity
  8
0
100
AcDbLine
 10
17.8304
 20
32.82999999999999
 30
0.0
 11
18.0344
 21
32.5224
 31
0.0
  0
LINE
  5
782
330
1E
100
AcDbEntity
  8
0
100
AcDbLine
 10
18.0589
 20
64.8297
 30
0.0
 11
18.2629
 21
64.5227
 31
0.0
  0
LINE
  5
783
330
1E
100
AcDbEntity
  8
0
100
AcDbLine
 10
17.7529
 20
64.8297
 30
0.0
 11
18.0589
 21
64.8297
 31
0.0
  0
LINE
  5
784
330
1E
100
AcDbEntity
  8
0
100
AcDbLine
 10
17.76184240952569
 20
64.8297
 30
0.0
 11
17.77674084360949
 21
72.8297
 31
0.0
  0
LINE
  5
785
330
1E
100
AcDbEntity
  8
0
100
AcDbLine
 10
17.7318131284216
 20
48.7049014150931
 30
0.0
 11
17.74694397544189
 21
56.8297
 31
0.0
  0
LINE
  5
786
330
1E
100
AcDbEntity
  8
0
100
AcDbLine
 10
17.7529
 20
72.8297
 30
0.0
 11
18.0589
 21
72.8297
 31
0.0
  0
LINE
  5
787
330
1E
100
AcDbEntity
  8
0
100
AcDbLine
 10
17.77674084360949
 20
72.8297
 30
0.0
 11
18.0589
 21
72.8297
 31
0.0
  0
LINE
  5
788
330
1E
100
AcDbEntity
  8
0
100
AcDbLine
 10
17.7529
 20
80.82970000000001
 30
0.0
 11
18.0589
 21
80.82970000000001
 31
0.0
  0
LINE
  5
789
330
1E
100
AcDbEntity
  8
0
100
AcDbLine
 10
17.7529
 20
88.8297
 30
0.0
 11
18.0589
 21
88.8297
 31
0.0
  0
LINE
  5
78A
330
1E
100
AcDbEntity
  8
0
100
AcDbLine
 10
17.7529
 20
96.8297
 30
0.0
 11
18.0589
 21
96.8297
 31
0.0
  0
LINE
  5
78B
330
1E
100
AcDbEntity
  8
0
100
AcDbLine
 10
17.7916392776934
 20
80.82970000000001
 30
0.0
 11
17.80653771177719
 21
88.8297
 31
0.0
  0
LINE
  5
78C
330
1E
100
AcDbEntity
  8
0
100
AcDbLine
 10
17.80653771177719
 20
88.8297
 30
0.0
 11
18.0589
 21
88.8297
 31
0.0
  0
LINE
  5
78D
330
1E
100
AcDbEntity
  8
0
100
AcDbLine
 10
17.7916392776934
 20
80.82970000000001
 30
0.0
 11
17.80653771177719
 21
88.8297
 31
0.0
  0
LINE
  5
78E
330
1E
100
AcDbEntity
  8
0
100
AcDbLine
 10
17.7024
 20
392.5497
 30
0.0
 11
18.5184
 21
392.5497
 31
0.0
  0
LINE
  5
78F
330
1E
100
AcDbEntity
  8
0
100
AcDbLine
 10
17.7024
 20
400.5497
 30
0.0
 11
18.5184
 21
400.5497
 31
0.0
  0
LINE
  5
790
330
1E
100
AcDbEntity
  8
0
100
AcDbLine
 10
17.7024
 20
424.6096999999999
 30
0.0
 11
18.5184
 21
424.6096999999999
 31
0.0
  0
LINE
  5
791
330
1E
100
AcDbEntity
  8
0
100
AcDbLine
 10
17.7024
 20
432.6096999999999
 30
0.0
 11
18.5184
 21
432.6096999999999
 31
0.0
  0
LINE
  5
792
330
1E
100
AcDbEntity
  8
0
100
AcDbLine
 10
17.7024
 20
408.6096999999999
 30
0.0
 11
18.5184
 21
408.6096999999999
 31
0.0
  0
LINE
  5
793
330
1E
100
AcDbEntity
  8
0
100
AcDbLine
 10
17.7024
 20
416.6096999999999
 30
0.0
 11
18.5184
 21
416.6096999999999
 31
0.0
  0
LINE
  5
794
330
1E
100
AcDbEntity
  8
0
100
AcDbLine
 10
17.7024
 20
520.5737
 30
0.0
 11
18.5184
 21
520.6597
 31
0.0
  0
LINE
  5
795
330
1E
100
AcDbEntity
  8
0
100
AcDbLine
 10
17.7024
 20
528.5667
 30
0.0
 11
18.5184
 21
528.6516999999999
 31
0.0
  0
LINE
  5
796
330
1E
100
AcDbEntity
  8
0
100
AcDbLine
 10
17.7024
 20
599.2847
 30
0.0
 11
18.5184
 21
599.7177
 31
0.0
  0
LINE
  5
797
330
1E
100
AcDbEntity
  8
0
100
AcDbLine
 10
17.7024
 20
607.0897
 30
0.0
 11
18.5184
 21
607.5226999999999
 31
0.0
  0
LINE
  5
798
330
1E
100
AcDbEntity
  8
0
100
AcDbLine
 10
17.7024
 20
627.7317
 30
0.0
 11
18.5184
 21
628.3337
 31
0.0
  0
LINE
  5
799
330
1E
100
AcDbEntity
  8
0
100
AcDbLine
 10
17.7024
 20
635.3496999999999
 30
0.0
 11
18.5184
 21
635.9516999999999
 31
0.0
  0
LINE
  5
79A
330
1E
100
AcDbEntity
  8
0
100
AcDbLine
 10
17.7024
 20
641.8737
 30
0.0
 11
18.5184
 21
642.4986999999999
 31
0.0
  0
LINE
  5
79B
330
1E
100
AcDbEntity
  8
0
100
AcDbLine
 10
17.7024
 20
613.7836999999999
 30
0.0
 11
18.5184
 21
614.2406999999999
 31
0.0
  0
LINE
  5
79C
330
1E
100
AcDbEntity
  8
0
100
AcDbLine
 10
17.7024
 20
621.5666999999999
 30
0.0
 11
18.5184
 21
622.0227
 31
0.0
  0
LINE
  5
79D
330
1E
100
AcDbEntity
  8
0
100
AcDbLine
 10
17.7024
 20
585.0036999999999
 30
0.0
 11
18.5184
 21
585.3277
 31
0.0
  0
LINE
  5
79E
330
1E
100
AcDbEntity
  8
0
100
AcDbLine
 10
17.7024
 20
592.8957
 30
0.0
 11
18.5184
 21
593.2197
 31
0.0
  0
LINE
  5
79F
330
1E
100
AcDbEntity
  8
0
100
AcDbLine
 10
17.7024
 20
570.3057
 30
0.0
 11
18.5184
 21
570.6056999999999
 31
0.0
  0
LINE
  5
7A0
330
1E
100
AcDbEntity
  8
0
100
AcDbLine
 10
17.7024
 20
578.2127
 30
0.0
 11
18.5184
 21
578.5127
 31
0.0
  0
LINE
  5
7A1
330
1E
100
AcDbEntity
  8
0
100
AcDbLine
 10
17.7024
 20
553.2957
 30
0.0
 11
18.5184
 21
553.5696999999999
 31
0.0
  0
LINE
  5
7A2
330
1E
100
AcDbEntity
  8
0
100
AcDbLine
 10
17.7024
 20
561.2177
 30
0.0
 11
18.5184
 21
561.4917
 31
0.0
  0
LINE
  5
7A3
330
1E
100
AcDbEntity
  8
0
100
AcDbLine
 10
17.7024
 20
536.8707
 30
0.0
 11
18.5184
 21
536.9727
 31
0.0
  0
LINE
  5
7A4
330
1E
100
AcDbEntity
  8
0
100
AcDbLine
 10
17.7024
 20
544.8606999999999
 30
0.0
 11
18.5184
 21
544.9616999999999
 31
0.0
  0
LINE
  5
7A5
330
1E
100
AcDbEntity
  8
0
100
AcDbLine
 10
17.7024
 20
504.6096999999999
 30
0.0
 11
18.5184
 21
504.6096999999999
 31
0.0
  0
LINE
  5
7A6
330
1E
100
AcDbEntity
  8
0
100
AcDbLine
 10
17.7024
 20
512.6096999999999
 30
0.0
 11
18.5184
 21
512.6096999999999
 31
0.0
  0
LINE
  5
7A7
330
1E
100
AcDbEntity
  8
0
100
AcDbLine
 10
17.7024
 20
440.6096999999999
 30
0.0
 11
18.5184
 21
440.6096999999999
 31
0.0
  0
LINE
  5
7AE
330
1E
100
AcDbEntity
  8
0
100
AcDbLine
 10
17.7024
 20
448.6097
 30
0.0
 11
18.5184
 21
448.6097
 31
0.0
  0
LINE
  5
7AF
330
1E
100
AcDbEntity
  8
0
100
AcDbLine
 10
17.8512330140287
 20
112.8297
 30
0.0
 11
17.8661314481126
 21
120.8296999999999
 31
0.0
  0
LINE
  5
7B0
330
1E
100
AcDbEntity
  8
0
100
AcDbLine
 10
17.8214361458611
 20
96.8297
 30
0.0
 11
17.8363345799449
 21
104.8297
 31
0.0
  0
LINE
  5
7B1
330
1E
100
AcDbEntity
  8
0
100
AcDbLine
 10
17.8214361458611
 20
96.8297
 30
0.0
 11
17.8363345799449
 21
104.8297
 31
0.0
  0
LINE
  5
7B2
330
1E
100
AcDbEntity
  8
0
100
AcDbLine
 10
17.8672
 20
120.8296999999999
 30
0.0
 11
18.1732
 21
120.8296999999999
 31
0.0
  0
LINE
  5
7B3
330
1E
100
AcDbEntity
  8
0
100
AcDbLine
 10
17.8672
 20
128.8297
 30
0.0
 11
18.1732
 21
128.8297
 31
0.0
  0
LINE
  5
7B4
330
1E
100
AcDbEntity
  8
0
100
AcDbLine
 10
17.8672
 20
104.8297
 30
0.0
 11
18.1732
 21
104.8297
 31
0.0
  0
LINE
  5
7B5
330
1E
100
AcDbEntity
  8
0
100
AcDbLine
 10
18.0589
 20
72.8297
 30
0.0
 11
18.2629
 21
73.13769999999999
 31
0.0
  0
LINE
  5
7B6
330
1E
100
AcDbEntity
  8
0
100
AcDbLine
 10
18.0589
 20
80.82970000000001
 30
0.0
 11
18.2629
 21
80.5227
 31
0.0
  0
LINE
  5
7B7
330
1E
100
AcDbEntity
  8
0
100
AcDbLine
 10
18.0589
 20
88.8297
 30
0.0
 11
18.2629
 21
89.13769999999999
 31
0.0
  0
LINE
  5
7B8
330
1E
100
AcDbEntity
  8
0
100
AcDbLine
 10
18.2629
 20
80.5227
 30
0.0
 11
18.2629
 21
73.13769999999999
 31
0.0
  0
LINE
  5
7B9
330
1E
100
AcDbEntity
  8
0
100
AcDbLine
 10
18.2629
 20
73.13769999999999
 30
0.0
 11
18.2629
 21
80.5227
 31
0.0
  0
LINE
  5
7BA
330
1E
100
AcDbEntity
  8
0
100
AcDbLine
 10
18.2629
 20
96.52270000000001
 30
0.0
 11
18.2629
 21
89.13769999999999
 31
0.0
  0
LINE
  5
7BB
330
1E
100
AcDbEntity
  8
0
100
AcDbLine
 10
18.2629
 20
89.13769999999999
 30
0.0
 11
18.2629
 21
96.52270000000001
 31
0.0
  0
LINE
  5
7BC
330
1E
100
AcDbEntity
  8
0
100
AcDbLine
 10
18.0589
 20
96.8297
 30
0.0
 11
18.2629
 21
96.52270000000001
 31
0.0
  0
LINE
  5
7BD
330
1E
100
AcDbEntity
  8
0
100
AcDbLine
 10
18.3772
 20
112.5226999999999
 30
0.0
 11
18.3772
 21
105.1377
 31
0.0
  0
LINE
  5
7BE
330
1E
100
AcDbEntity
  8
0
100
AcDbLine
 10
18.1732
 20
104.8297
 30
0.0
 11
18.3772
 21
105.1377
 31
0.0
  0
LINE
  5
7BF
330
1E
100
AcDbEntity
  8
0
100
AcDbLine
 10
18.3772
 20
105.1377
 30
0.0
 11
18.3772
 21
112.5226999999999
 31
0.0
  0
LINE
  5
7C0
330
1E
100
AcDbEntity
  8
0
100
AcDbLine
 10
18.1732
 20
120.8296999999999
 30
0.0
 11
18.3772
 21
121.1376999999999
 31
0.0
  0
LINE
  5
7C1
330
1E
100
AcDbEntity
  8
0
100
AcDbLine
 10
18.3772
 20
128.5226999999999
 30
0.0
 11
18.3772
 21
121.1376999999999
 31
0.0
  0
LINE
  5
7C2
330
1E
100
AcDbEntity
  8
0
100
AcDbLine
 10
18.3772
 20
121.1376999999999
 30
0.0
 11
18.3772
 21
128.5226999999999
 31
0.0
  0
LINE
  5
7C3
330
1E
100
AcDbEntity
  8
0
100
AcDbLine
 10
18.1732
 20
128.8297
 30
0.0
 11
18.3772
 21
128.5226999999999
 31
0.0
  0
LINE
  5
7C4
330
1E
100
AcDbEntity
  8
0
100
AcDbLine
 10
18.1732
 20
112.8297
 30
0.0
 11
18.3772
 21
112.5226999999999
 31
0.0
  0
LINE
  5
7C5
330
1E
100
AcDbEntity
  8
0
100
AcDbLine
 10
17.8672
 20
112.8297
 30
0.0
 11
18.1732
 21
112.8297
 31
0.0
  0
LINE
  5
7C6
330
1E
100
AcDbEntity
  8
0
100
AcDbLine
 10
17.8672
 20
136.8297
 30
0.0
 11
18.1732
 21
136.8297
 31
0.0
  0
LINE
  5
7C7
330
1E
100
AcDbEntity
  8
0
100
AcDbLine
 10
17.89592831628019
 20
136.8297
 30
0.0
 11
18.1732
 21
136.8297
 31
0.0
  0
LINE
  5
7C8
330
1E
100
AcDbEntity
  8
0
100
AcDbLine
 10
17.88102988219639
 20
128.8297
 30
0.0
 11
17.89592831628019
 21
136.8297
 31
0.0
  0
LINE
  5
7C9
330
1E
100
AcDbEntity
  8
0
100
AcDbLine
 10
17.8672
 20
144.8296999999999
 30
0.0
 11
18.1732
 21
144.8296999999999
 31
0.0
  0
LINE
  5
7CA
330
1E
100
AcDbEntity
  8
0
100
AcDbLine
 10
17.8672
 20
152.8297
 30
0.0
 11
18.1732
 21
152.8297
 31
0.0
  0
LINE
  5
7CB
330
1E
100
AcDbEntity
  8
0
100
AcDbLine
 10
17.8672
 20
160.8297
 30
0.0
 11
18.1732
 21
160.8297
 31
0.0
  0
LINE
  5
7CC
330
1E
100
AcDbEntity
  8
0
100
AcDbLine
 10
17.8672
 20
168.8297
 30
0.0
 11
18.1732
 21
168.8297
 31
0.0
  0
LINE
  5
7CD
330
1E
100
AcDbEntity
  8
0
100
AcDbLine
 10
17.9257251844479
 20
152.8297
 30
0.0
 11
18.1732
 21
152.8297
 31
0.0
  0
LINE
  5
7CE
330
1E
100
AcDbEntity
  8
0
100
AcDbLine
 10
17.8672
 20
176.8297
 30
0.0
 11
18.1732
 21
176.8297
 31
0.0
  0
LINE
  5
7CF
330
1E
100
AcDbEntity
  8
0
100
AcDbLine
 10
17.9108267503641
 20
144.8296999999999
 30
0.0
 11
17.9257251844479
 21
152.8297
 31
0.0
  0
LINE
  5
7D0
330
1E
100
AcDbEntity
  8
0
100
AcDbLine
 10
17.9406236185318
 20
160.8297
 30
0.0
 11
17.9555220526156
 21
168.8297
 31
0.0
  0
LINE
  5
7D1
330
1E
100
AcDbEntity
  8
0
100
AcDbLine
 10
17.9108267503641
 20
144.8296999999999
 30
0.0
 11
17.9257251844479
 21
152.8297
 31
0.0
  0
LINE
  5
7D2
330
1E
100
AcDbEntity
  8
0
100
AcDbLine
 10
17.9555220526156
 20
168.8297
 30
0.0
 11
18.1732
 21
168.8297
 31
0.0
  0
LINE
  5
7D3
330
1E
100
AcDbEntity
  8
0
100
AcDbLine
 10
17.9406236185318
 20
160.8297
 30
0.0
 11
17.9555220526156
 21
168.8297
 31
0.0
  0
LINE
  5
7D4
330
1E
100
AcDbEntity
  8
0
100
AcDbLine
 10
17.9815
 20
184.8297
 30
0.0
 11
18.2875
 21
184.8297
 31
0.0
  0
LINE
  5
7D5
330
1E
100
AcDbEntity
  8
0
100
AcDbLine
 10
17.98531892078329
 20
184.8297
 30
0.0
 11
18.2875
 21
184.8297
 31
0.0
  0
LINE
  5
7D6
330
1E
100
AcDbEntity
  8
0
100
AcDbLine
 10
17.9815
 20
192.8297
 30
0.0
 11
18.2875
 21
192.8297
 31
0.0
  0
LINE
  5
7D7
330
1E
100
AcDbEntity
  8
0
100
AcDbLine
 10
17.9815
 20
232.8297
 30
0.0
 11
18.2875
 21
232.8297
 31
0.0
  0
LINE
  5
7D8
330
1E
100
AcDbEntity
  8
0
100
AcDbLine
 10
17.9815
 20
240.8297
 30
0.0
 11
18.2875
 21
240.8297
 31
0.0
  0
LINE
  5
7F4
330
1E
100
AcDbEntity
  8
0
100
AcDbLine
 10
17.9815
 20
248.8297
 30
0.0
 11
18.2875
 21
248.8297
 31
0.0
  0
LINE
  5
7F5
330
1E
100
AcDbEntity
  8
0
100
AcDbLine
 10
17.9815
 20
256.8297
 30
0.0
 11
18.2875
 21
256.8297
 31
0.0
  0
LINE
  5
7F6
330
1E
100
AcDbEntity
  8
0
100
AcDbLine
 10
17.9815
 20
216.8296999999999
 30
0.0
 11
18.2875
 21
216.8296999999999
 31
0.0
  0
LINE
  5
7F7
330
1E
100
AcDbEntity
  8
0
100
AcDbLine
 10
17.9815
 20
224.8296999999999
 30
0.0
 11
18.2875
 21
224.8296999999999
 31
0.0
  0
LINE
  5
7F8
330
1E
100
AcDbEntity
  8
0
100
AcDbLine
 10
17.9815
 20
200.8297
 30
0.0
 11
18.2875
 21
200.8297
 31
0.0
  0
LINE
  5
7F9
330
1E
100
AcDbEntity
  8
0
100
AcDbLine
 10
17.9815
 20
208.8296999999999
 30
0.0
 11
18.2875
 21
208.8296999999999
 31
0.0
  0
LINE
  5
7FA
330
1E
100
AcDbEntity
  8
0
100
AcDbLine
 10
18.0002173548671
 20
192.8297
 30
0.0
 11
18.015115788951
 21
200.8297
 31
0.0
  0
LINE
  5
7FB
330
1E
100
AcDbEntity
  8
0
100
AcDbLine
 10
18.015115788951
 20
200.8297
 30
0.0
 11
18.2875
 21
200.8297
 31
0.0
  0
LINE
  5
7FC
330
1E
100
AcDbEntity
  8
0
100
AcDbLine
 10
18.0002173548671
 20
192.8297
 30
0.0
 11
18.015115788951
 21
200.8297
 31
0.0
  0
LINE
  5
7FD
330
1E
100
AcDbEntity
  8
0
100
AcDbLine
 10
17.97042048669939
 20
176.8297
 30
0.0
 11
17.98531892078329
 21
184.8297
 31
0.0
  0
LINE
  5
7FE
330
1E
100
AcDbEntity
  8
0
100
AcDbLine
 10
18.1732
 20
136.8297
 30
0.0
 11
18.3772
 21
137.1377
 31
0.0
  0
LINE
  5
7FF
330
1E
100
AcDbEntity
  8
0
100
AcDbLine
 10
18.1732
 20
144.8296999999999
 30
0.0
 11
18.3772
 21
144.5226999999999
 31
0.0
  0
LINE
  5
800
330
1E
100
AcDbEntity
  8
0
100
AcDbLine
 10
18.1732
 20
152.8297
 30
0.0
 11
18.3772
 21
153.1376999999999
 31
0.0
  0
LINE
  5
801
330
1E
100
AcDbEntity
  8
0
100
AcDbLine
 10
18.1732
 20
160.8297
 30
0.0
 11
18.3772
 21
160.5227
 31
0.0
  0
LINE
  5
802
330
1E
100
AcDbEntity
  8
0
100
AcDbLine
 10
18.1732
 20
168.8297
 30
0.0
 11
18.3772
 21
169.1376999999999
 31
0.0
  0
LINE
  5
803
330
1E
100
AcDbEntity
  8
0
100
AcDbLine
 10
18.2875
 20
184.8297
 30
0.0
 11
18.49149999999999
 21
185.1377
 31
0.0
  0
LINE
  5
804
330
1E
100
AcDbEntity
  8
0
100
AcDbLine
 10
18.2875
 20
192.8297
 30
0.0
 11
18.49149999999999
 21
192.5226999999999
 31
0.0
  0
LINE
  5
805
330
1E
100
AcDbEntity
  8
0
100
AcDbLine
 10
18.1732
 20
176.8297
 30
0.0
 11
18.3772
 21
176.5226999999999
 31
0.0
  0
LINE
  5
806
330
1E
100
AcDbEntity
  8
0
100
AcDbLine
 10
18.0449126571186
 20
216.8296999999999
 30
0.0
 11
18.2875
 21
216.8296999999999
 31
0.0
  0
LINE
  5
807
330
1E
100
AcDbEntity
  8
0
100
AcDbLine
 10
18.2875
 20
216.8296999999999
 30
0.0
 11
18.49149999999999
 21
217.1377
 31
0.0
  0
LINE
  5
808
330
1E
100
AcDbEntity
  8
0
100
AcDbLine
 10
18.2875
 20
224.8296999999999
 30
0.0
 11
18.49149999999999
 21
224.5226999999999
 31
0.0
  0
LINE
  5
809
330
1E
100
AcDbEntity
  8
0
100
AcDbLine
 10
18.2875
 20
200.8297
 30
0.0
 11
18.49149999999999
 21
201.1376999999999
 31
0.0
  0
LINE
  5
80A
330
1E
100
AcDbEntity
  8
0
100
AcDbLine
 10
18.3772
 20
144.5226999999999
 30
0.0
 11
18.3772
 21
137.1377
 31
0.0
  0
LINE
  5
80B
330
1E
100
AcDbEntity
  8
0
100
AcDbLine
 10
18.3772
 20
137.1377
 30
0.0
 11
18.3772
 21
144.5226999999999
 31
0.0
  0
LINE
  5
80C
330
1E
100
AcDbEntity
  8
0
100
AcDbLine
 10
18.3772
 20
160.5227
 30
0.0
 11
18.3772
 21
153.1376999999999
 31
0.0
  0
LINE
  5
80D
330
1E
100
AcDbEntity
  8
0
100
AcDbLine
 10
18.3772
 20
153.1376999999999
 30
0.0
 11
18.3772
 21
160.5227
 31
0.0
  0
LINE
  5
80E
330
1E
100
AcDbEntity
  8
0
100
AcDbLine
 10
18.3772
 20
176.5226999999999
 30
0.0
 11
18.3772
 21
169.1376999999999
 31
0.0
  0
LINE
  5
80F
330
1E
100
AcDbEntity
  8
0
100
AcDbLine
 10
18.3772
 20
169.1376999999999
 30
0.0
 11
18.3772
 21
176.5226999999999
 31
0.0
  0
LINE
  5
810
330
1E
100
AcDbEntity
  8
0
100
AcDbLine
 10
18.2875
 20
208.8296999999999
 30
0.0
 11
18.49149999999999
 21
208.5226999999999
 31
0.0
  0
LINE
  5
811
330
1E
100
AcDbEntity
  8
0
100
AcDbLine
 10
18.0747095252863
 20
232.8297
 30
0.0
 11
18.2875
 21
232.8297
 31
0.0
  0
LINE
  5
812
330
1E
100
AcDbEntity
  8
0
100
AcDbLine
 10
18.0958
 20
264.7157
 30
0.0
 11
18.4018
 21
264.7157
 31
0.0
  0
LINE
  5
813
330
1E
100
AcDbEntity
  8
0
100
AcDbLine
 10
18.0958
 20
296.6557
 30
0.0
 11
18.4018
 21
296.6557
 31
0.0
  0
LINE
  5
814
330
1E
100
AcDbEntity
  8
0
100
AcDbLine
 10
18.0958
 20
304.6557
 30
0.0
 11
18.4018
 21
304.6557
 31
0.0
  0
LINE
  5
815
330
1E
100
AcDbEntity
  8
0
100
AcDbLine
 10
18.0958
 20
328.6557
 30
0.0
 11
18.4018
 21
328.6557
 31
0.0
  0
LINE
  5
816
330
1E
100
AcDbEntity
  8
0
100
AcDbLine
 10
18.0958
 20
336.6557
 30
0.0
 11
18.4018
 21
336.6557
 31
0.0
  0
LINE
  5
817
330
1E
100
AcDbEntity
  8
0
100
AcDbLine
 10
18.0958
 20
344.7157
 30
0.0
 11
18.4018
 21
344.7157
 31
0.0
  0
LINE
  5
818
330
1E
100
AcDbEntity
  8
0
100
AcDbLine
 10
18.0958
 20
352.7157
 30
0.0
 11
18.4018
 21
352.7157
 31
0.0
  0
LINE
  5
819
330
1E
100
AcDbEntity
  8
0
100
AcDbLine
 10
18.0958
 20
376.7157
 30
0.0
 11
18.4018
 21
376.7157
 31
0.0
  0
LINE
  5
81A
330
1E
100
AcDbEntity
  8
0
100
AcDbLine
 10
18.0958
 20
384.7157
 30
0.0
 11
18.4018
 21
384.7157
 31
0.0
  0
LINE
  5
81B
330
1E
100
AcDbEntity
  8
0
100
AcDbLine
 10
18.0958
 20
360.7157
 30
0.0
 11
18.4018
 21
360.7157
 31
0.0
  0
LINE
  5
81C
330
1E
100
AcDbEntity
  8
0
100
AcDbLine
 10
18.0958
 20
368.7157
 30
0.0
 11
18.4018
 21
368.7157
 31
0.0
  0
LINE
  5
81D
330
1E
100
AcDbEntity
  8
0
100
AcDbLine
 10
18.0958
 20
312.6557
 30
0.0
 11
18.4018
 21
312.6557
 31
0.0
  0
LINE
  5
81E
330
1E
100
AcDbEntity
  8
0
100
AcDbLine
 10
18.0958
 20
320.6557
 30
0.0
 11
18.4018
 21
320.6557
 31
0.0
  0
LINE
  5
81F
330
1E
100
AcDbEntity
  8
0
100
AcDbLine
 10
18.0958
 20
280.7157
 30
0.0
 11
18.4018
 21
280.7157
 31
0.0
  0
LINE
  5
820
330
1E
100
AcDbEntity
  8
0
100
AcDbLine
 10
18.0958
 20
288.7157
 30
0.0
 11
18.4018
 21
288.7157
 31
0.0
  0
LINE
  5
821
330
1E
100
AcDbEntity
  8
0
100
AcDbLine
 10
18.0958
 20
272.7157
 30
0.0
 11
18.4018
 21
272.7157
 31
0.0
  0
LINE
  5
822
330
1E
100
AcDbEntity
  8
0
100
AcDbLine
 10
18.104506393454
 20
248.8297
 30
0.0
 11
18.2875
 21
248.8297
 31
0.0
  0
LINE
  5
823
330
1E
100
AcDbEntity
  8
0
100
AcDbLine
 10
18.0896079593702
 20
240.8297
 30
0.0
 11
18.104506393454
 21
248.8297
 31
0.0
  0
LINE
  5
824
330
1E
100
AcDbEntity
  8
0
100
AcDbLine
 10
18.0896079593702
 20
240.8297
 30
0.0
 11
18.104506393454
 21
248.8297
 31
0.0
  0
LINE
  5
825
330
1E
100
AcDbEntity
  8
0
100
AcDbLine
 10
18.2875
 20
232.8297
 30
0.0
 11
18.49149999999999
 21
233.1376999999999
 31
0.0
  0
LINE
  5
826
330
1E
100
AcDbEntity
  8
0
100
AcDbLine
 10
18.2875
 20
240.8297
 30
0.0
 11
18.49149999999999
 21
240.5227
 31
0.0
  0
LINE
  5
827
330
1E
100
AcDbEntity
  8
0
100
AcDbLine
 10
18.13409095893599
 20
264.7157
 30
0.0
 11
18.4018
 21
264.7157
 31
0.0
  0
LINE
  5
828
330
1E
100
AcDbEntity
  8
0
100
AcDbLine
 10
18.2875
 20
248.8297
 30
0.0
 11
18.49149999999999
 21
249.1376999999999
 31
0.0
  0
LINE
  5
829
330
1E
100
AcDbEntity
  8
0
100
AcDbLine
 10
18.4018
 20
264.7157
 30
0.0
 11
18.60579999999999
 21
265.0237
 31
0.0
  0
LINE
  5
82A
330
1E
100
AcDbEntity
  8
0
100
AcDbLine
 10
18.4018
 20
272.7157
 30
0.0
 11
18.60579999999999
 21
272.4076999999999
 31
0.0
  0
LINE
  5
82B
330
1E
100
AcDbEntity
  8
0
100
AcDbLine
 10
18.2875
 20
256.8297
 30
0.0
 11
18.49149999999999
 21
256.5226999999999
 31
0.0
  0
LINE
  5
82C
330
1E
100
AcDbEntity
  8
0
100
AcDbLine
 10
18.16388782710369
 20
280.7157
 30
0.0
 11
18.4018
 21
280.7157
 31
0.0
  0
LINE
  5
82D
330
1E
100
AcDbEntity
  8
0
100
AcDbLine
 10
18.1935729570157
 20
296.6557
 30
0.0
 11
18.4018
 21
296.6557
 31
0.0
  0
LINE
  5
82E
330
1E
100
AcDbEntity
  8
0
100
AcDbLine
 10
18.2084713910995
 20
304.6557
 30
0.0
 11
18.22336982518339
 21
312.6557
 31
0.0
  0
LINE
  5
82F
330
1E
100
AcDbEntity
  8
0
100
AcDbLine
 10
18.4018
 20
280.7157
 30
0.0
 11
18.60579999999999
 21
281.0237
 31
0.0
  0
LINE
  5
830
330
1E
100
AcDbEntity
  8
0
100
AcDbLine
 10
18.4018
 20
296.6557
 30
0.0
 11
18.60579999999999
 21
296.9627
 31
0.0
  0
LINE
  5
831
330
1E
100
AcDbEntity
  8
0
100
AcDbLine
 10
18.4018
 20
304.6557
 30
0.0
 11
18.60579999999999
 21
304.3476999999999
 31
0.0
  0
LINE
  5
832
330
1E
100
AcDbEntity
  8
0
100
AcDbLine
 10
18.22336982518339
 20
312.6557
 30
0.0
 11
18.4018
 21
312.6557
 31
0.0
  0
LINE
  5
833
330
1E
100
AcDbEntity
  8
0
100
AcDbLine
 10
18.4018
 20
312.6557
 30
0.0
 11
18.60579999999999
 21
312.9626999999999
 31
0.0
  0
LINE
  5
834
330
1E
100
AcDbEntity
  8
0
100
AcDbLine
 10
18.4018
 20
288.7157
 30
0.0
 11
18.60579999999999
 21
288.4076999999999
 31
0.0
  0
LINE
  5
835
330
1E
100
AcDbEntity
  8
0
100
AcDbLine
 10
18.2084713910995
 20
304.6557
 30
0.0
 11
18.22336982518339
 21
312.6557
 31
0.0
  0
LINE
  5
836
330
1E
100
AcDbEntity
  8
0
100
AcDbLine
 10
18.2531666933511
 20
328.6557
 30
0.0
 11
18.4018
 21
328.6557
 31
0.0
  0
LINE
  5
837
330
1E
100
AcDbEntity
  8
0
100
AcDbLine
 10
18.23826825926719
 20
320.6557
 30
0.0
 11
18.2531666933511
 21
328.6557
 31
0.0
  0
LINE
  5
838
330
1E
100
AcDbEntity
  8
0
100
AcDbLine
 10
18.2830752997744
 20
344.7157
 30
0.0
 11
18.4018
 21
344.7157
 31
0.0
  0
LINE
  5
839
330
1E
100
AcDbEntity
  8
0
100
AcDbLine
 10
18.26806512743489
 20
336.6557
 30
0.0
 11
18.2830752997744
 21
344.7157
 31
0.0
  0
LINE
  5
83A
330
1E
100
AcDbEntity
  8
0
100
AcDbLine
 10
18.26806512743489
 20
336.6557
 30
0.0
 11
18.2830752997744
 21
344.7157
 31
0.0
  0
LINE
  5
83B
330
1E
100
AcDbEntity
  8
0
100
AcDbLine
 10
18.3128721679421
 20
360.7157
 30
0.0
 11
18.4018
 21
360.7157
 31
0.0
  0
LINE
  5
83C
330
1E
100
AcDbEntity
  8
0
100
AcDbLine
 10
18.2979737338582
 20
352.7157
 30
0.0
 11
18.3128721679421
 21
360.7157
 31
0.0
  0
LINE
  5
83D
330
1E
100
AcDbEntity
  8
0
100
AcDbLine
 10
18.4018
 20
328.6557
 30
0.0
 11
18.60579999999999
 21
328.9626999999999
 31
0.0
  0
LINE
  5
83E
330
1E
100
AcDbEntity
  8
0
100
AcDbLine
 10
18.4018
 20
336.6557
 30
0.0
 11
18.60579999999999
 21
336.3476999999999
 31
0.0
  0
LINE
  5
83F
330
1E
100
AcDbEntity
  8
0
100
AcDbLine
 10
18.4018
 20
344.7157
 30
0.0
 11
18.60579999999999
 21
345.0237
 31
0.0
  0
LINE
  5
840
330
1E
100
AcDbEntity
  8
0
100
AcDbLine
 10
18.4018
 20
352.7157
 30
0.0
 11
18.60579999999999
 21
352.4076999999999
 31
0.0
  0
LINE
  5
841
330
1E
100
AcDbEntity
  8
0
100
AcDbLine
 10
18.4018
 20
360.7157
 30
0.0
 11
18.60579999999999
 21
361.0237
 31
0.0
  0
LINE
  5
842
330
1E
100
AcDbEntity
  8
0
100
AcDbLine
 10
18.3426690361097
 20
376.7157
 30
0.0
 11
18.4018
 21
376.7157
 31
0.0
  0
LINE
  5
843
330
1E
100
AcDbEntity
  8
0
100
AcDbLine
 10
18.4018
 20
376.7157
 30
0.0
 11
18.60579999999999
 21
377.0237
 31
0.0
  0
LINE
  5
844
330
1E
100
AcDbEntity
  8
0
100
AcDbLine
 10
18.4018
 20
384.7157
 30
0.0
 11
18.60579999999999
 21
384.4077
 31
0.0
  0
LINE
  5
845
330
1E
100
AcDbEntity
  8
0
100
AcDbLine
 10
18.4018
 20
368.7157
 30
0.0
 11
18.60579999999999
 21
368.4076999999999
 31
0.0
  0
LINE
  5
846
330
1E
100
AcDbEntity
  8
0
100
AcDbLine
 10
18.4018
 20
320.6557
 30
0.0
 11
18.60579999999999
 21
320.3476999999999
 31
0.0
  0
LINE
  5
847
330
1E
100
AcDbEntity
  8
0
100
AcDbLine
 10
18.37215676177019
 20
392.5497
 30
0.0
 11
18.5184
 21
392.5497
 31
0.0
  0
LINE
  5
848
330
1E
100
AcDbEntity
  8
0
100
AcDbLine
 10
18.4020653681935
 20
408.6096999999999
 30
0.0
 11
18.5184
 21
408.6096999999999
 31
0.0
  0
LINE
  5
849
330
1E
100
AcDbEntity
  8
0
100
AcDbLine
 10
18.38705519585399
 20
400.5497
 30
0.0
 11
18.4020653681935
 21
408.6096999999999
 31
0.0
  0
LINE
  5
84A
330
1E
100
AcDbEntity
  8
0
100
AcDbLine
 10
18.4128
 20
472.7157
 30
0.0
 11
18.7188
 21
472.7157
 31
0.0
  0
LINE
  5
84B
330
1E
100
AcDbEntity
  8
0
100
AcDbLine
 10
18.4128
 20
480.7157
 30
0.0
 11
18.7188
 21
480.7157
 31
0.0
  0
LINE
  5
84C
330
1E
100
AcDbEntity
  8
0
100
AcDbLine
 10
18.4128
 20
488.7157
 30
0.0
 11
18.7188
 21
488.7157
 31
0.0
  0
LINE
  5
84D
330
1E
100
AcDbEntity
  8
0
100
AcDbLine
 10
18.4128
 20
496.7157
 30
0.0
 11
18.7188
 21
496.7157
 31
0.0
  0
LINE
  5
84E
330
1E
100
AcDbEntity
  8
0
100
AcDbLine
 10
18.4128
 20
456.6557
 30
0.0
 11
18.7188
 21
456.6557
 31
0.0
  0
LINE
  5
84F
330
1E
100
AcDbEntity
  8
0
100
AcDbLine
 10
18.4128
 20
464.6557
 30
0.0
 11
18.7188
 21
464.6557
 31
0.0
  0
LINE
  5
850
330
1E
100
AcDbEntity
  8
0
100
AcDbLine
 10
18.43186223636119
 20
424.6096999999999
 30
0.0
 11
18.5184
 21
424.6096999999999
 31
0.0
  0
LINE
  5
851
330
1E
100
AcDbEntity
  8
0
100
AcDbLine
 10
18.4598708925746
 20
637.3029512889431
 30
0.0
 11
18.5184
 21
637.2596999999999
 31
0.0
  0
LINE
  5
852
330
1E
100
AcDbEntity
  8
0
100
AcDbLine
 10
18.4616591045288
 20
440.6096999999999
 30
0.0
 11
18.5184
 21
440.6096999999999
 31
0.0
  0
LINE
  5
853
330
1E
100
AcDbEntity
  8
0
100
AcDbLine
 10
18.446760670445
 20
432.6096999999999
 30
0.0
 11
18.4616591045288
 21
440.6096999999999
 31
0.0
  0
LINE
  5
854
330
1E
100
AcDbEntity
  8
0
100
AcDbLine
 10
18.4169638022773
 20
416.6096999999999
 30
0.0
 11
18.43186223636119
 21
424.6096999999999
 31
0.0
  0
LINE
  5
855
330
1E
100
AcDbEntity
  8
0
100
AcDbLine
 10
18.47655753861269
 20
448.6097
 30
0.0
 11
18.4915416386925
 21
456.6557
 31
0.0
  0
LINE
  5
856
330
1E
100
AcDbEntity
  8
0
100
AcDbLine
 10
18.3575674701936
 20
384.7157
 30
0.0
 11
18.37215676177019
 21
392.5497
 31
0.0
  0
LINE
  5
857
330
1E
100
AcDbEntity
  8
0
100
AcDbLine
 10
18.32777060202589
 20
368.7157
 30
0.0
 11
18.3426690361097
 21
376.7157
 31
0.0
  0
LINE
  5
858
330
1E
100
AcDbEntity
  8
0
100
AcDbLine
 10
18.23826825926719
 20
320.6557
 30
0.0
 11
18.2531666933511
 21
328.6557
 31
0.0
  0
LINE
  5
859
330
1E
100
AcDbEntity
  8
0
100
AcDbLine
 10
18.1787862611875
 20
288.7157
 30
0.0
 11
18.1935729570157
 21
296.6557
 31
0.0
  0
LINE
  5
85A
330
1E
100
AcDbEntity
  8
0
100
AcDbLine
 10
18.1489893930198
 20
272.7157
 30
0.0
 11
18.16388782710369
 21
280.7157
 31
0.0
  0
LINE
  5
85B
330
1E
100
AcDbEntity
  8
0
100
AcDbLine
 10
18.1489893930198
 20
272.7157
 30
0.0
 11
18.16388782710369
 21
280.7157
 31
0.0
  0
LINE
  5
85C
330
1E
100
AcDbEntity
  8
0
100
AcDbLine
 10
18.1194048275378
 20
256.8297
 30
0.0
 11
18.13409095893599
 21
264.7157
 31
0.0
  0
LINE
  5
85D
330
1E
100
AcDbEntity
  8
0
100
AcDbLine
 10
18.1194048275378
 20
256.8297
 30
0.0
 11
18.13409095893599
 21
264.7157
 31
0.0
  0
LINE
  5
85E
330
1E
100
AcDbEntity
  8
0
100
AcDbLine
 10
18.0598110912025
 20
224.8296999999999
 30
0.0
 11
18.0747095252863
 21
232.8297
 31
0.0
  0
LINE
  5
85F
330
1E
100
AcDbEntity
  8
0
100
AcDbLine
 10
18.0598110912025
 20
224.8296999999999
 30
0.0
 11
18.0747095252863
 21
232.8297
 31
0.0
  0
LINE
  5
860
330
1E
100
AcDbEntity
  8
0
100
AcDbLine
 10
18.0300142230348
 20
208.8296999999999
 30
0.0
 11
18.0449126571186
 21
216.8296999999999
 31
0.0
  0
LINE
  5
861
330
1E
100
AcDbEntity
  8
0
100
AcDbLine
 10
17.88102988219639
 20
128.8297
 30
0.0
 11
17.89592831628019
 21
136.8297
 31
0.0
  0
LINE
  5
862
330
1E
100
AcDbEntity
  8
0
100
AcDbLine
 10
17.8512330140287
 20
112.8297
 30
0.0
 11
17.8661314481126
 21
120.8296999999999
 31
0.0
  0
LINE
  5
863
330
1E
100
AcDbEntity
  8
0
100
AcDbLine
 10
17.76184240952569
 20
64.8297
 30
0.0
 11
17.77674084360949
 21
72.8297
 31
0.0
  0
LINE
  5
864
330
1E
100
AcDbEntity
  8
0
100
AcDbLine
 10
17.702049691293
 20
32.72285285285939
 30
0.0
 11
17.7173644789701
 21
40.946421902312
 31
0.0
  0
LINE
  5
865
330
1E
100
AcDbEntity
  8
0
100
AcDbLine
 10
17.67245236371389
 20
16.82999999999999
 30
0.0
 11
17.68753409367279
 21
24.92842423651589
 31
0.0
  0
LINE
  5
866
330
1E
100
AcDbEntity
  8
0
100
AcDbLine
 10
17.65559999999999
 20
7.7808
 30
0.0
 11
17.6575541158605
 21
8.83009999999999
 31
0.0
  0
LINE
  5
867
330
1E
100
AcDbEntity
  8
0
100
AcDbLine
 10
16.62549999999999
 20
7.27559999999999
 30
0.0
 11
17.65559999999999
 21
7.7808
 31
0.0
  0
LINE
  5
86A
330
1E
100
AcDbEntity
  8
0
100
AcDbLine
 10
18.49149999999999
 20
192.5226999999999
 30
0.0
 11
18.49149999999999
 21
185.1377
 31
0.0
  0
LINE
  5
86B
330
1E
100
AcDbEntity
  8
0
100
AcDbLine
 10
18.49149999999999
 20
185.1377
 30
0.0
 11
18.49149999999999
 21
192.5226999999999
 31
0.0
  0
LINE
  5
86C
330
1E
100
AcDbEntity
  8
0
100
AcDbLine
 10
18.49149999999999
 20
240.5227
 30
0.0
 11
18.49149999999999
 21
233.1376999999999
 31
0.0
  0
LINE
  5
86D
330
1E
100
AcDbEntity
  8
0
100
AcDbLine
 10
18.49149999999999
 20
233.1376999999999
 30
0.0
 11
18.49149999999999
 21
240.5227
 31
0.0
  0
LINE
  5
86E
330
1E
100
AcDbEntity
  8
0
100
AcDbLine
 10
18.49149999999999
 20
256.5226999999999
 30
0.0
 11
18.49149999999999
 21
249.1376999999999
 31
0.0
  0
LINE
  5
86F
330
1E
100
AcDbEntity
  8
0
100
AcDbLine
 10
18.49149999999999
 20
249.1376999999999
 30
0.0
 11
18.49149999999999
 21
256.5226999999999
 31
0.0
  0
LINE
  5
870
330
1E
100
AcDbEntity
  8
0
100
AcDbLine
 10
18.49149999999999
 20
224.5226999999999
 30
0.0
 11
18.49149999999999
 21
217.1377
 31
0.0
  0
LINE
  5
871
330
1E
100
AcDbEntity
  8
0
100
AcDbLine
 10
18.49149999999999
 20
217.1377
 30
0.0
 11
18.49149999999999
 21
224.5226999999999
 31
0.0
  0
LINE
  5
872
330
1E
100
AcDbEntity
  8
0
100
AcDbLine
 10
18.4915416386925
 20
456.6557
 30
0.0
 11
18.7188
 21
456.6557
 31
0.0
  0
LINE
  5
873
330
1E
100
AcDbEntity
  8
0
100
AcDbLine
 10
18.49149999999999
 20
208.5226999999999
 30
0.0
 11
18.49149999999999
 21
201.1376999999999
 31
0.0
  0
LINE
  5
874
330
1E
100
AcDbEntity
  8
0
100
AcDbLine
 10
18.49149999999999
 20
201.1376999999999
 30
0.0
 11
18.49149999999999
 21
208.5226999999999
 31
0.0
  0
LINE
  5
875
330
1E
100
AcDbEntity
  8
0
100
AcDbLine
 10
18.5184
 20
392.5497
 30
0.0
 11
18.8244
 21
392.5497
 31
0.0
  0
LINE
  5
876
330
1E
100
AcDbEntity
  8
0
100
AcDbLine
 10
18.5184
 20
400.5497
 30
0.0
 11
18.8244
 21
400.5497
 31
0.0
  0
LINE
  5
877
330
1E
100
AcDbEntity
  8
0
100
AcDbLine
 10
18.5184
 20
408.6096999999999
 30
0.0
 11
18.8244
 21
408.6096999999999
 31
0.0
  0
LINE
  5
878
330
1E
100
AcDbEntity
  8
0
100
AcDbLine
 10
18.5184
 20
424.6096999999999
 30
0.0
 11
18.8244
 21
424.6096999999999
 31
0.0
  0
LINE
  5
879
330
1E
100
AcDbEntity
  8
0
100
AcDbLine
 10
18.5184
 20
432.6096999999999
 30
0.0
 11
18.8244
 21
432.6096999999999
 31
0.0
  0
LINE
  5
87A
330
1E
100
AcDbEntity
  8
0
100
AcDbLine
 10
18.5184
 20
416.6096999999999
 30
0.0
 11
18.8244
 21
416.6096999999999
 31
0.0
  0
LINE
  5
87B
330
1E
100
AcDbEntity
  8
0
100
AcDbLine
 10
18.5184
 20
440.6096999999999
 30
0.0
 11
18.8244
 21
440.6096999999999
 31
0.0
  0
LINE
  5
87C
330
1E
100
AcDbEntity
  8
0
100
AcDbLine
 10
18.5214502451158
 20
472.7157
 30
0.0
 11
18.7188
 21
472.7157
 31
0.0
  0
LINE
  5
87D
330
1E
100
AcDbEntity
  8
0
100
AcDbLine
 10
18.5184
 20
448.6097
 30
0.0
 11
18.8244
 21
448.6097
 31
0.0
  0
LINE
  5
87E
330
1E
100
AcDbEntity
  8
0
100
AcDbLine
 10
18.5512471132835
 20
488.7157
 30
0.0
 11
18.7188
 21
488.7157
 31
0.0
  0
LINE
  5
87F
330
1E
100
AcDbEntity
  8
0
100
AcDbLine
 10
18.5363486791996
 20
480.7157
 30
0.0
 11
18.5512471132835
 21
488.7157
 31
0.0
  0
LINE
  5
880
330
1E
100
AcDbEntity
  8
0
100
AcDbLine
 10
18.5184
 20
520.6597
 30
0.0
 11
18.8244
 21
520.7526999999999
 31
0.0
  0
LINE
  5
881
330
1E
100
AcDbEntity
  8
0
100
AcDbLine
 10
18.5184
 20
528.6516999999999
 30
0.0
 11
18.8244
 21
528.7446999999999
 31
0.0
  0
LINE
  5
882
330
1E
100
AcDbEntity
  8
0
100
AcDbLine
 10
18.5184
 20
599.7177
 30
0.0
 11
18.7224
 21
600.0107
 31
0.0
  0
LINE
  5
883
330
1E
100
AcDbEntity
  8
0
100
AcDbLine
 10
18.5184
 20
585.3277
 30
0.0
 11
18.8244
 21
585.6787
 31
0.0
  0
LINE
  5
884
330
1E
100
AcDbEntity
  8
0
100
AcDbLine
 10
18.5184
 20
593.2197
 30
0.0
 11
18.8244
 21
593.5706999999999
 31
0.0
  0
LINE
  5
885
330
1E
100
AcDbEntity
  8
0
100
AcDbLine
 10
18.5184
 20
570.6056999999999
 30
0.0
 11
18.8244
 21
570.9306999999999
 31
0.0
  0
LINE
  5
886
330
1E
100
AcDbEntity
  8
0
100
AcDbLine
 10
18.5184
 20
578.5127
 30
0.0
 11
18.8244
 21
578.8377
 31
0.0
  0
LINE
  5
887
330
1E
100
AcDbEntity
  8
0
100
AcDbLine
 10
18.5184
 20
553.5696999999999
 30
0.0
 11
18.8244
 21
553.8676999999999
 31
0.0
  0
LINE
  5
888
330
1E
100
AcDbEntity
  8
0
100
AcDbLine
 10
18.5184
 20
561.4917
 30
0.0
 11
18.8244
 21
561.7897
 31
0.0
  0
LINE
  5
889
330
1E
100
AcDbEntity
  8
0
100
AcDbLine
 10
18.5184
 20
536.9727
 30
0.0
 11
18.8244
 21
537.0837
 31
0.0
  0
LINE
  5
88A
330
1E
100
AcDbEntity
  8
0
100
AcDbLine
 10
18.5184
 20
544.9616999999999
 30
0.0
 11
18.8244
 21
545.0727
 31
0.0
  0
LINE
  5
88B
330
1E
100
AcDbEntity
  8
0
100
AcDbLine
 10
18.5184
 20
504.6096999999999
 30
0.0
 11
18.8244
 21
504.6096999999999
 31
0.0
  0
LINE
  5
88C
330
1E
100
AcDbEntity
  8
0
100
AcDbLine
 10
18.55342996486029
 20
593.881518569719
 30
0.0
 11
18.8244
 21
593.5706999999999
 31
0.0
  0
LINE
  5
88D
330
1E
100
AcDbEntity
  8
0
100
AcDbLine
 10
18.5184
 20
512.6096999999999
 30
0.0
 11
18.8244
 21
512.6096999999999
 31
0.0
  0
LINE
  5
88E
330
1E
100
AcDbEntity
  8
0
100
AcDbLine
 10
18.5661455473673
 20
496.7157
 30
0.0
 11
18.58084657719949
 21
504.6096999999999
 31
0.0
  0
LINE
  5
88F
330
1E
100
AcDbEntity
  8
0
100
AcDbLine
 10
18.5064400727763
 20
464.6557
 30
0.0
 11
18.5214502451158
 21
472.7157
 31
0.0
  0
LINE
  5
890
330
1E
100
AcDbEntity
  8
0
100
AcDbLine
 10
18.5280963730036
 20
608.449773346617
 30
0.0
 11
18.7224
 21
608.1707
 31
0.0
  0
LINE
  5
891
330
1E
100
AcDbEntity
  8
0
100
AcDbLine
 10
18.5280985638591
 20
608.448771818374
 30
0.0
 11
18.8244
 21
607.9927
 31
0.0
  0
LINE
  5
892
330
1E
100
AcDbEntity
  8
0
100
AcDbLine
 10
18.5184
 20
607.5226999999999
 30
0.0
 11
18.8244
 21
607.9927
 31
0.0
  0
LINE
  5
893
330
1E
100
AcDbEntity
  8
0
100
AcDbLine
 10
18.543720142208
 20
599.7540666748379
 30
0.0
 11
18.5539438803081
 21
593.5706999999999
 31
0.0
  0
LINE
  5
894
330
1E
100
AcDbEntity
  8
0
100
AcDbLine
 10
18.58084657719949
 20
504.6096999999999
 30
0.0
 11
18.8244
 21
504.6096999999999
 31
0.0
  0
LINE
  5
895
330
1E
100
AcDbEntity
  8
0
100
AcDbLine
 10
18.59854004004839
 20
562.0096551243969
 30
0.0
 11
18.8244
 21
561.7897
 31
0.0
  0
LINE
  5
896
330
1E
100
AcDbEntity
  8
0
100
AcDbLine
 10
18.59574501128339
 20
512.6096999999999
 30
0.0
 11
18.6107888521562
 21
520.6877789648709
 31
0.0
  0
LINE
  5
897
330
1E
100
AcDbEntity
  8
0
100
AcDbLine
 10
18.60579999999999
 20
304.3476999999999
 30
0.0
 11
18.60579999999999
 21
296.9627
 31
0.0
  0
LINE
  5
898
330
1E
100
AcDbEntity
  8
0
100
AcDbLine
 10
18.60579999999999
 20
296.9627
 30
0.0
 11
18.60579999999999
 21
304.3476999999999
 31
0.0
  0
LINE
  5
899
330
1E
100
AcDbEntity
  8
0
100
AcDbLine
 10
18.60579999999999
 20
336.3476999999999
 30
0.0
 11
18.60579999999999
 21
328.9626999999999
 31
0.0
  0
LINE
  5
89A
330
1E
100
AcDbEntity
  8
0
100
AcDbLine
 10
18.60579999999999
 20
328.9626999999999
 30
0.0
 11
18.60579999999999
 21
336.3476999999999
 31
0.0
  0
LINE
  5
89B
330
1E
100
AcDbEntity
  8
0
100
AcDbLine
 10
18.60579999999999
 20
352.4076999999999
 30
0.0
 11
18.60579999999999
 21
345.0237
 31
0.0
  0
LINE
  5
89C
330
1E
100
AcDbEntity
  8
0
100
AcDbLine
 10
18.60579999999999
 20
345.0237
 30
0.0
 11
18.60579999999999
 21
352.4076999999999
 31
0.0
  0
LINE
  5
89D
330
1E
100
AcDbEntity
  8
0
100
AcDbLine
 10
18.60579999999999
 20
384.4077
 30
0.0
 11
18.60579999999999
 21
377.0237
 31
0.0
  0
LINE
  5
89E
330
1E
100
AcDbEntity
  8
0
100
AcDbLine
 10
18.60579999999999
 20
377.0237
 30
0.0
 11
18.60579999999999
 21
384.4077
 31
0.0
  0
LINE
  5
89F
330
1E
100
AcDbEntity
  8
0
100
AcDbLine
 10
18.60579999999999
 20
368.4076999999999
 30
0.0
 11
18.60579999999999
 21
361.0237
 31
0.0
  0
LINE
  5
8A0
330
1E
100
AcDbEntity
  8
0
100
AcDbLine
 10
18.60579999999999
 20
361.0237
 30
0.0
 11
18.60579999999999
 21
368.4076999999999
 31
0.0
  0
LINE
  5
8A1
330
1E
100
AcDbEntity
  8
0
100
AcDbLine
 10
18.60579999999999
 20
320.3476999999999
 30
0.0
 11
18.60579999999999
 21
312.9626999999999
 31
0.0
  0
LINE
  5
8A2
330
1E
100
AcDbEntity
  8
0
100
AcDbLine
 10
18.60579999999999
 20
312.9626999999999
 30
0.0
 11
18.60579999999999
 21
320.3476999999999
 31
0.0
  0
LINE
  5
8A3
330
1E
100
AcDbEntity
  8
0
100
AcDbLine
 10
18.60579999999999
 20
288.4076999999999
 30
0.0
 11
18.60579999999999
 21
281.0237
 31
0.0
  0
LINE
  5
8A4
330
1E
100
AcDbEntity
  8
0
100
AcDbLine
 10
18.60579999999999
 20
281.0237
 30
0.0
 11
18.60579999999999
 21
288.4076999999999
 31
0.0
  0
LINE
  5
8A5
330
1E
100
AcDbEntity
  8
0
100
AcDbLine
 10
18.60579999999999
 20
272.4076999999999
 30
0.0
 11
18.60579999999999
 21
265.0237
 31
0.0
  0
LINE
  5
8A6
330
1E
100
AcDbEntity
  8
0
100
AcDbLine
 10
18.8244
 20
392.5497
 30
0.0
 11
19.0284
 21
392.8577
 31
0.0
  0
LINE
  5
8A7
330
1E
100
AcDbEntity
  8
0
100
AcDbLine
 10
18.8244
 20
400.5497
 30
0.0
 11
19.0284
 21
400.2416999999999
 31
0.0
  0
LINE
  5
8A8
330
1E
100
AcDbEntity
  8
0
100
AcDbLine
 10
18.8244
 20
424.6096999999999
 30
0.0
 11
19.0284
 21
424.9177
 31
0.0
  0
LINE
  5
8A9
330
1E
100
AcDbEntity
  8
0
100
AcDbLine
 10
18.8244
 20
432.6096999999999
 30
0.0
 11
19.0284
 21
432.3027
 31
0.0
  0
LINE
  5
8AA
330
1E
100
AcDbEntity
  8
0
100
AcDbLine
 10
18.8244
 20
408.6096999999999
 30
0.0
 11
19.0284
 21
408.9177
 31
0.0
  0
LINE
  5
8AB
330
1E
100
AcDbEntity
  8
0
100
AcDbLine
 10
19.0284
 20
400.2416999999999
 30
0.0
 11
19.0284
 21
392.8577
 31
0.0
  0
LINE
  5
8AC
330
1E
100
AcDbEntity
  8
0
100
AcDbLine
 10
19.0284
 20
392.8577
 30
0.0
 11
19.0284
 21
400.2416999999999
 31
0.0
  0
LINE
  5
8AD
330
1E
100
AcDbEntity
  8
0
100
AcDbLine
 10
19.0284
 20
432.3027
 30
0.0
 11
19.0284
 21
424.9177
 31
0.0
  0
LINE
  5
8AE
330
1E
100
AcDbEntity
  8
0
100
AcDbLine
 10
19.0284
 20
424.9177
 30
0.0
 11
19.0284
 21
432.3027
 31
0.0
  0
LINE
  5
8AF
330
1E
100
AcDbEntity
  8
0
100
AcDbLine
 10
19.0284
 20
416.3027
 30
0.0
 11
19.0284
 21
408.9177
 31
0.0
  0
LINE
  5
8B0
330
1E
100
AcDbEntity
  8
0
100
AcDbLine
 10
19.0284
 20
408.9177
 30
0.0
 11
19.0284
 21
416.3027
 31
0.0
  0
LINE
  5
8B1
330
1E
100
AcDbEntity
  8
0
100
AcDbLine
 10
18.8244
 20
416.6096999999999
 30
0.0
 11
19.0284
 21
416.3027
 31
0.0
  0
LINE
  5
8B2
330
1E
100
AcDbEntity
  8
0
100
AcDbLine
 10
19.0284
 20
448.3026999999999
 30
0.0
 11
19.0284
 21
440.9177
 31
0.0
  0
LINE
  5
8B3
330
1E
100
AcDbEntity
  8
0
100
AcDbLine
 10
18.8244
 20
440.6096999999999
 30
0.0
 11
19.0284
 21
440.9177
 31
0.0
  0
LINE
  5
8B4
330
1E
100
AcDbEntity
  8
0
100
AcDbLine
 10
19.0284
 20
440.9177
 30
0.0
 11
19.0284
 21
448.3026999999999
 31
0.0
  0
LINE
  5
8B5
330
1E
100
AcDbEntity
  8
0
100
AcDbLine
 10
18.7188
 20
472.7157
 30
0.0
 11
18.92279999999999
 21
473.0237
 31
0.0
  0
LINE
  5
8B6
330
1E
100
AcDbEntity
  8
0
100
AcDbLine
 10
18.7188
 20
480.7157
 30
0.0
 11
18.92279999999999
 21
480.4076999999999
 31
0.0
  0
LINE
  5
8B7
330
1E
100
AcDbEntity
  8
0
100
AcDbLine
 10
18.6176839194963
 20
528.807525475447
 30
0.0
 11
18.8244
 21
528.7446999999999
 31
0.0
  0
LINE
  5
8B8
330
1E
100
AcDbEntity
  8
0
100
AcDbLine
 10
18.7188
 20
488.7157
 30
0.0
 11
18.92279999999999
 21
489.0236999999999
 31
0.0
  0
LINE
  5
8B9
330
1E
100
AcDbEntity
  8
0
100
AcDbLine
 10
18.7188
 20
496.7157
 30
0.0
 11
18.92279999999999
 21
496.4076999999999
 31
0.0
  0
LINE
  5
8BA
330
1E
100
AcDbEntity
  8
0
100
AcDbLine
 10
18.7188
 20
456.6557
 30
0.0
 11
18.92279999999999
 21
456.9626999999999
 31
0.0
  0
LINE
  5
8BB
330
1E
100
AcDbEntity
  8
0
100
AcDbLine
 10
18.92279999999999
 20
480.4076999999999
 30
0.0
 11
18.92279999999999
 21
473.0237
 31
0.0
  0
LINE
  5
8BC
330
1E
100
AcDbEntity
  8
0
100
AcDbLine
 10
18.92279999999999
 20
473.0237
 30
0.0
 11
18.92279999999999
 21
480.4076999999999
 31
0.0
  0
LINE
  5
8BD
330
1E
100
AcDbEntity
  8
0
100
AcDbLine
 10
18.8244
 20
504.6096999999999
 30
0.0
 11
19.0284
 21
504.9177
 31
0.0
  0
LINE
  5
8BE
330
1E
100
AcDbEntity
  8
0
100
AcDbLine
 10
18.8244
 20
520.7526999999999
 30
0.0
 11
19.0284
 21
521.0596999999999
 31
0.0
  0
LINE
  5
8BF
330
1E
100
AcDbEntity
  8
0
100
AcDbLine
 10
18.8244
 20
528.7446999999999
 30
0.0
 11
19.0284
 21
528.4376999999999
 31
0.0
  0
LINE
  5
8C0
330
1E
100
AcDbEntity
  8
0
100
AcDbLine
 10
18.8244
 20
512.6096999999999
 30
0.0
 11
19.0284
 21
512.3026999999999
 31
0.0
  0
LINE
  5
8C1
330
1E
100
AcDbEntity
  8
0
100
AcDbLine
 10
18.92279999999999
 20
496.4076999999999
 30
0.0
 11
18.92279999999999
 21
489.0236999999999
 31
0.0
  0
LINE
  5
8C2
330
1E
100
AcDbEntity
  8
0
100
AcDbLine
 10
18.92279999999999
 20
489.0236999999999
 30
0.0
 11
18.92279999999999
 21
496.4076999999999
 31
0.0
  0
LINE
  5
8C3
330
1E
100
AcDbEntity
  8
0
100
AcDbLine
 10
19.0284
 20
528.4376999999999
 30
0.0
 11
19.0284
 21
521.0596999999999
 31
0.0
  0
LINE
  5
8C4
330
1E
100
AcDbEntity
  8
0
100
AcDbLine
 10
19.0284
 20
521.0596999999999
 30
0.0
 11
19.0284
 21
528.4376999999999
 31
0.0
  0
LINE
  5
8C5
330
1E
100
AcDbEntity
  8
0
100
AcDbLine
 10
19.0284
 20
512.3026999999999
 30
0.0
 11
19.0284
 21
504.9177
 31
0.0
  0
LINE
  5
8C6
330
1E
100
AcDbEntity
  8
0
100
AcDbLine
 10
19.0284
 20
504.9177
 30
0.0
 11
19.0284
 21
512.3026999999999
 31
0.0
  0
LINE
  5
8C7
330
1E
100
AcDbEntity
  8
0
100
AcDbLine
 10
18.92279999999999
 20
464.3476999999999
 30
0.0
 11
18.92279999999999
 21
456.9626999999999
 31
0.0
  0
LINE
  5
8C8
330
1E
100
AcDbEntity
  8
0
100
AcDbLine
 10
18.92279999999999
 20
456.9626999999999
 30
0.0
 11
18.92279999999999
 21
464.3476999999999
 31
0.0
  0
LINE
  5
8C9
330
1E
100
AcDbEntity
  8
0
100
AcDbLine
 10
18.7188
 20
464.6557
 30
0.0
 11
18.92279999999999
 21
464.3476999999999
 31
0.0
  0
LINE
  5
8CA
330
1E
100
AcDbEntity
  8
0
100
AcDbLine
 10
18.8244
 20
448.6097
 30
0.0
 11
19.0284
 21
448.3026999999999
 31
0.0
  0
LINE
  5
8CB
330
1E
100
AcDbEntity
  8
0
100
AcDbLine
 10
18.60579999999999
 20
265.0237
 30
0.0
 11
18.60579999999999
 21
272.4076999999999
 31
0.0
  0
LINE
  5
8CC
330
1E
100
AcDbEntity
  8
0
100
AcDbLine
 10
18.8244
 20
537.0837
 30
0.0
 11
19.0284
 21
537.3907
 31
0.0
  0
LINE
  5
8CD
330
1E
100
AcDbEntity
  8
0
100
AcDbLine
 10
18.8244
 20
553.8676999999999
 30
0.0
 11
19.0284
 21
554.1726999999999
 31
0.0
  0
LINE
  5
8CE
330
1E
100
AcDbEntity
  8
0
100
AcDbLine
 10
18.8244
 20
561.7897
 30
0.0
 11
19.0284
 21
561.4847
 31
0.0
  0
LINE
  5
8CF
330
1E
100
AcDbEntity
  8
0
100
AcDbLine
 10
18.6096612009867
 20
545.150595446701
 30
0.0
 11
18.8244
 21
545.0727
 31
0.0
  0
LINE
  5
8D0
330
1E
100
AcDbEntity
  8
0
100
AcDbLine
 10
19.0284
 20
561.4847
 30
0.0
 11
19.0284
 21
554.1726999999999
 31
0.0
  0
LINE
  5
8D1
330
1E
100
AcDbEntity
  8
0
100
AcDbLine
 10
19.0284
 20
554.1726999999999
 30
0.0
 11
19.0284
 21
561.4847
 31
0.0
  0
LINE
  5
8D2
330
1E
100
AcDbEntity
  8
0
100
AcDbLine
 10
19.0284
 20
544.7657
 30
0.0
 11
19.0284
 21
537.3907
 31
0.0
  0
LINE
  5
8D3
330
1E
100
AcDbEntity
  8
0
100
AcDbLine
 10
19.0284
 20
537.3907
 30
0.0
 11
19.0284
 21
544.7657
 31
0.0
  0
LINE
  5
8D4
330
1E
100
AcDbEntity
  8
0
100
AcDbLine
 10
18.8244
 20
545.0727
 30
0.0
 11
19.0284
 21
544.7657
 31
0.0
  0
LINE
  5
8D5
330
1E
100
AcDbEntity
  8
0
100
AcDbLine
 10
18.6136587198853
 20
537.0072546336841
 30
0.0
 11
18.6177455916202
 21
528.681893268041
 31
0.0
  0
LINE
  5
8D6
330
1E
100
AcDbEntity
  8
0
100
AcDbLine
 10
18.60548667857269
 20
553.654509902662
 30
0.0
 11
18.60973766421929
 21
544.9948322899619
 31
0.0
  0
LINE
  5
8D7
330
1E
100
AcDbEntity
  8
0
100
AcDbLine
 10
19.0284
 20
578.5336999999999
 30
0.0
 11
19.0284
 21
571.2347
 31
0.0
  0
LINE
  5
8D8
330
1E
100
AcDbEntity
  8
0
100
AcDbLine
 10
18.8244
 20
570.9306999999999
 30
0.0
 11
19.0284
 21
571.2347
 31
0.0
  0
LINE
  5
8D9
330
1E
100
AcDbEntity
  8
0
100
AcDbLine
 10
19.0284
 20
571.2347
 30
0.0
 11
19.0284
 21
578.5336999999999
 31
0.0
  0
LINE
  5
8DA
330
1E
100
AcDbEntity
  8
0
100
AcDbLine
 10
19.0284
 20
593.2667
 30
0.0
 11
19.0284
 21
585.9827
 31
0.0
  0
LINE
  5
8DB
330
1E
100
AcDbEntity
  8
0
100
AcDbLine
 10
18.8244
 20
585.6787
 30
0.0
 11
19.0284
 21
585.9827
 31
0.0
  0
LINE
  5
8DC
330
1E
100
AcDbEntity
  8
0
100
AcDbLine
 10
19.0284
 20
585.9827
 30
0.0
 11
19.0284
 21
593.2667
 31
0.0
  0
LINE
  5
8DD
330
1E
100
AcDbEntity
  8
0
100
AcDbLine
 10
18.7224
 20
600.0107
 30
0.0
 11
19.0284
 21
600.4887
 31
0.0
  0
LINE
  5
8DE
330
1E
100
AcDbEntity
  8
0
100
AcDbLine
 10
19.0284
 20
607.6926999999999
 30
0.0
 11
19.0284
 21
600.4887
 31
0.0
  0
LINE
  5
8DF
330
1E
100
AcDbEntity
  8
0
100
AcDbLine
 10
19.0284
 20
600.4887
 30
0.0
 11
19.0284
 21
607.6926999999999
 31
0.0
  0
LINE
  5
8E0
330
1E
100
AcDbEntity
  8
0
100
AcDbLine
 10
18.7224
 20
608.1707
 30
0.0
 11
19.0284
 21
607.6926999999999
 31
0.0
  0
LINE
  5
8E1
330
1E
100
AcDbEntity
  8
0
100
AcDbLine
 10
18.8244
 20
593.5706999999999
 30
0.0
 11
19.0284
 21
593.2667
 31
0.0
  0
LINE
  5
8E2
330
1E
100
AcDbEntity
  8
0
100
AcDbLine
 10
18.57699731540889
 20
579.10046428919
 30
0.0
 11
18.8244
 21
578.8377
 31
0.0
  0
LINE
  5
8E3
330
1E
100
AcDbEntity
  8
0
100
AcDbLine
 10
18.8244
 20
578.8377
 30
0.0
 11
19.0284
 21
578.5336999999999
 31
0.0
  0
LINE
  5
8E4
330
1E
100
AcDbEntity
  8
0
100
AcDbLine
 10
18.5742
 20
581.3197
 30
0.0
 11
18.57732852610079
 21
578.8377
 31
0.0
  0
LINE
  5
8E5
330
1E
100
AcDbEntity
  8
0
100
AcDbLine
 10
18.5876121884365
 20
570.6792096772609
 30
0.0
 11
18.59881729038989
 21
561.7897
 31
0.0
  0
LINE
  5
8E6
330
1E
100
AcDbEntity
  8
0
100
AcDbLine
 10
18.5674799853675
 20
585.3839976302749
 30
0.0
 11
18.5742
 21
581.3197
 31
0.0
  0
LINE
  5
8E7
330
1E
100
AcDbEntity
  8
0
100
AcDbLine
 10
18.5184
 20
614.2406999999999
 30
0.0
 11
18.7224
 21
614.5317
 31
0.0
  0
LINE
  5
8E8
330
1E
100
AcDbEntity
  8
0
100
AcDbLine
 10
18.5184
 20
628.3337
 30
0.0
 11
18.7224
 21
628.6167
 31
0.0
  0
LINE
  5
8E9
330
1E
100
AcDbEntity
  8
0
100
AcDbLine
 10
18.5184
 20
637.2596999999999
 30
0.0
 11
18.8244
 21
636.6056999999999
 31
0.0
  0
LINE
  5
8EA
330
1E
100
AcDbEntity
  8
0
100
AcDbLine
 10
18.5184
 20
637.2596999999999
 30
0.0
 11
18.7224
 21
636.9777
 31
0.0
  0
LINE
  5
8EB
330
1E
100
AcDbEntity
  8
0
100
AcDbLine
 10
18.5184
 20
635.9516999999999
 30
0.0
 11
18.8244
 21
636.6056999999999
 31
0.0
  0
LINE
  5
8EC
330
1E
100
AcDbEntity
  8
0
100
AcDbLine
 10
18.5184
 20
623.0157
 30
0.0
 11
18.8244
 21
622.5196999999999
 31
0.0
  0
LINE
  5
8ED
330
1E
100
AcDbEntity
  8
0
100
AcDbLine
 10
18.5184
 20
623.0157
 30
0.0
 11
18.7224
 21
622.7237
 31
0.0
  0
LINE
  5
8EE
330
1E
100
AcDbEntity
  8
0
100
AcDbLine
 10
19.0284
 20
622.2197
 30
0.0
 11
19.0284
 21
615.0357
 31
0.0
  0
LINE
  5
8EF
330
1E
100
AcDbEntity
  8
0
100
AcDbLine
 10
18.7224
 20
614.5317
 30
0.0
 11
19.0284
 21
615.0357
 31
0.0
  0
LINE
  5
8F0
330
1E
100
AcDbEntity
  8
0
100
AcDbLine
 10
19.0284
 20
615.0357
 30
0.0
 11
19.0284
 21
622.2197
 31
0.0
  0
LINE
  5
8F1
330
1E
100
AcDbEntity
  8
0
100
AcDbLine
 10
18.63386738399469
 20
637.045292916386
 30
0.0
 11
18.7224
 21
636.9777
 31
0.0
  0
LINE
  5
8F2
330
1E
100
AcDbEntity
  8
0
100
AcDbLine
 10
19.0284
 20
636.3126999999999
 30
0.0
 11
19.0284
 21
629.2807
 31
0.0
  0
LINE
  5
8F3
330
1E
100
AcDbEntity
  8
0
100
AcDbLine
 10
18.7224
 20
628.6167
 30
0.0
 11
19.0284
 21
629.2807
 31
0.0
  0
LINE
  5
8F4
330
1E
100
AcDbEntity
  8
0
100
AcDbLine
 10
19.0284
 20
629.2807
 30
0.0
 11
19.0284
 21
636.3126999999999
 31
0.0
  0
LINE
  5
8F5
330
1E
100
AcDbEntity
  8
0
100
AcDbLine
 10
18.7224
 20
636.9777
 30
0.0
 11
19.0284
 21
636.3126999999999
 31
0.0
  0
LINE
  5
8F6
330
1E
100
AcDbEntity
  8
0
100
AcDbLine
 10
18.7224
 20
622.7237
 30
0.0
 11
19.0284
 21
622.2197
 31
0.0
  0
LINE
  5
8F7
330
1E
100
AcDbEntity
  8
0
100
AcDbLine
 10
18.5184
 20
622.0227
 30
0.0
 11
18.8244
 21
622.5196999999999
 31
0.0
  0
LINE
  5
8F8
330
1E
100
AcDbEntity
  8
0
100
AcDbLine
 10
18.5154322846327
 20
614.239037933918
 30
0.0
 11
18.5290962266406
 21
607.9927
 31
0.0
  0
LINE
  5
8F9
330
1E
100
AcDbEntity
  8
0
100
AcDbLine
 10
18.4846544952537
 20
628.3088044192929
 30
0.0
 11
18.497318233255
 21
622.5196999999999
 31
0.0
  0
LINE
  5
8FA
330
1E
100
AcDbEntity
  8
0
100
AcDbLine
 10
10.52839999999999
 20
648.1346999999999
 30
0.0
 11
12.6704
 21
648.2317
 31
0.0
  0
LINE
  5
8FB
330
1E
100
AcDbEntity
  8
0
100
AcDbLine
 10
12.6704
 20
648.2317
 30
0.0
 11
14.6424
 21
648.4906999999999
 31
0.0
  0
LINE
  5
8FD
330
1E
100
AcDbEntity
  8
0
100
AcDbLine
 10
14.6424
 20
648.4906999999999
 30
0.0
 11
16.3764
 21
648.9107
 31
0.0
  0
LINE
  5
8FF
330
1E
100
AcDbEntity
  8
0
100
AcDbLine
 10
16.3764
 20
648.9107
 30
0.0
 11
17.7024
 21
649.4607
 31
0.0
  0
LINE
  5
901
330
1E
100
AcDbEntity
  8
0
100
AcDbLine
 10
18.5184
 20
642.4986999999999
 30
0.0
 11
18.7224
 21
642.7797
 31
0.0
  0
LINE
  5
903
330
1E
100
AcDbEntity
  8
0
100
AcDbLine
 10
10.52839999999999
 20
654.0456999999999
 30
0.0
 11
12.6704
 21
654.1627
 31
0.0
  0
LINE
  5
904
330
1E
100
AcDbEntity
  8
0
100
AcDbLine
 10
18.4168381373308
 20
651.52161387994
 30
0.0
 11
18.5184
 21
651.4437
 31
0.0
  0
LINE
  5
905
330
1E
100
AcDbEntity
  8
0
100
AcDbLine
 10
18.5184
 20
651.4437
 30
0.0
 11
18.8244
 21
650.7646999999999
 31
0.0
  0
LINE
  5
906
330
1E
100
AcDbEntity
  8
0
100
AcDbLine
 10
18.5184
 20
651.4437
 30
0.0
 11
18.7224
 21
651.1626999999999
 31
0.0
  0
LINE
  5
907
330
1E
100
AcDbEntity
  8
0
100
AcDbLine
 10
17.7024
 20
649.4607
 30
0.0
 11
18.5184
 21
650.0856999999999
 31
0.0
  0
LINE
  5
908
330
1E
100
AcDbEntity
  8
0
100
AcDbLine
 10
19.0284
 20
650.4727
 30
0.0
 11
19.0284
 21
643.4696999999999
 31
0.0
  0
LINE
  5
909
330
1E
100
AcDbEntity
  8
0
100
AcDbLine
 10
18.7224
 20
642.7797
 30
0.0
 11
19.0284
 21
643.4696999999999
 31
0.0
  0
LINE
  5
90A
330
1E
100
AcDbEntity
  8
0
100
AcDbLine
 10
19.0284
 20
643.4696999999999
 30
0.0
 11
19.0284
 21
650.4727
 31
0.0
  0
LINE
  5
90B
330
1E
100
AcDbEntity
  8
0
100
AcDbLine
 10
18.62573289212439
 20
651.239346591661
 30
0.0
 11
18.7224
 21
651.1626999999999
 31
0.0
  0
LINE
  5
90C
330
1E
100
AcDbEntity
  8
0
100
AcDbLine
 10
18.7224
 20
651.1626999999999
 30
0.0
 11
19.0284
 21
650.4727
 31
0.0
  0
LINE
  5
90D
330
1E
100
AcDbEntity
  8
0
100
AcDbLine
 10
18.5184
 20
650.0856999999999
 30
0.0
 11
18.8244
 21
650.7646999999999
 31
0.0
  0
LINE
  5
90E
330
1E
100
AcDbEntity
  8
0
100
AcDbLine
 10
18.4443176984295
 20
642.441958041077
 30
0.0
 11
18.4619811222723
 21
636.6056999999999
 31
0.0
  0
LINE
  5
911
330
1E
100
AcDbEntity
  8
0
100
AcDbLine
 10
10.52839999999999
 20
665.7757
 30
0.0
 11
12.6704
 21
665.8927
 31
0.0
  0
LINE
  5
912
330
1E
100
AcDbEntity
  8
0
100
AcDbLine
 10
10.52839999999999
 20
661.4357
 30
0.0
 11
12.6704
 21
661.5527
 31
0.0
  0
LINE
  5
913
330
1E
100
AcDbEntity
  8
0
100
AcDbLine
 10
12.6704
 20
654.1627
 30
0.0
 11
14.6424
 21
654.4756999999999
 31
0.0
  0
LINE
  5
916
330
1E
100
AcDbEntity
  8
0
100
AcDbLine
 10
12.6704
 20
661.5527
 30
0.0
 11
14.6424
 21
661.8656999999999
 31
0.0
  0
LINE
  5
918
330
1E
100
AcDbEntity
  8
0
100
AcDbLine
 10
14.6424
 20
654.4756999999999
 30
0.0
 11
16.3764
 21
654.9837
 31
0.0
  0
LINE
  5
91A
330
1E
100
AcDbEntity
  8
0
100
AcDbLine
 10
14.6424
 20
661.8656999999999
 30
0.0
 11
16.3764
 21
662.3727
 31
0.0
  0
LINE
  5
91B
330
1E
100
AcDbEntity
  8
0
100
AcDbLine
 10
16.3764
 20
654.9837
 30
0.0
 11
17.7024
 21
655.6477
 31
0.0
  0
LINE
  5
91C
330
1E
100
AcDbEntity
  8
0
100
AcDbLine
 10
17.7024
 20
655.6477
 30
0.0
 11
18.5184
 21
656.4027
 31
0.0
  0
LINE
  5
91F
330
1E
100
AcDbEntity
  8
0
100
AcDbLine
 10
16.3764
 20
662.3727
 30
0.0
 11
17.7024
 21
663.0377
 31
0.0
  0
LINE
  5
921
330
1E
100
AcDbEntity
  8
0
100
AcDbLine
 10
18.5184
 20
656.4027
 30
0.0
 11
18.7224
 21
656.6737
 31
0.0
  0
LINE
  5
922
330
1E
100
AcDbEntity
  8
0
100
AcDbLine
 10
18.5184
 20
656.4027
 30
0.0
 11
18.56229017751469
 21
656.520457633136
 31
0.0
  0
LINE
  5
925
330
1E
100
AcDbEntity
  8
0
100
AcDbLine
 10
17.7024
 20
663.0377
 30
0.0
 11
18.5184
 21
663.7926999999999
 31
0.0
  0
LINE
  5
926
330
1E
100
AcDbEntity
  8
0
100
AcDbLine
 10
18.5184
 20
663.7926999999999
 30
0.0
 11
18.8244
 21
664.6126999999999
 31
0.0
  0
LINE
  5
927
330
1E
100
AcDbEntity
  8
0
100
AcDbLine
 10
18.7224
 20
656.6737
 30
0.0
 11
19.0284
 21
657.5077
 31
0.0
  0
LINE
  5
928
330
1E
100
AcDbEntity
  8
0
100
AcDbLine
 10
19.0284
 20
664.3287
 30
0.0
 11
19.0284
 21
657.5077
 31
0.0
  0
LINE
  5
929
330
1E
100
AcDbEntity
  8
0
100
AcDbLine
 10
19.0284
 20
657.5077
 30
0.0
 11
19.0284
 21
664.3287
 31
0.0
  0
LINE
  5
92A
330
1E
100
AcDbEntity
  8
0
100
AcDbLine
 10
18.7224
 20
665.1626999999999
 30
0.0
 11
19.0284
 21
664.3287
 31
0.0
  0
LINE
  5
92B
330
1E
100
AcDbEntity
  8
0
100
AcDbLine
 10
18.60139050076569
 20
665.278519140811
 30
0.0
 11
18.7224
 21
665.1626999999999
 31
0.0
  0
LINE
  5
92C
330
1E
100
AcDbEntity
  8
0
100
AcDbLine
 10
18.60216302839289
 20
665.322426565223
 30
0.0
 11
18.7224
 21
665.1626999999999
 31
0.0
  0
LINE
  5
92D
330
1E
100
AcDbEntity
  8
0
100
AcDbLine
 10
18.600256692662
 20
665.2140779585769
 30
0.0
 11
18.8244
 21
664.6126999999999
 31
0.0
  0
LINE
  5
92E
330
1E
100
AcDbEntity
  8
0
100
AcDbLine
 10
18.58967576942089
 20
664.6126999999999
 30
0.0
 11
18.6547962805981
 21
668.313893098246
 31
0.0
  0
LINE
  5
92F
330
1E
100
AcDbEntity
  8
0
100
AcDbLine
 10
18.4084
 20
654.3097
 30
0.0
 11
18.4440142750268
 21
656.333874972605
 31
0.0
  0
LINE
  5
930
330
1E
100
AcDbEntity
  8
0
100
AcDbLine
 10
18.4084
 20
654.3097
 30
0.0
 11
18.41912893574649
 21
650.7646999999999
 31
0.0
  0
LINE
  5
932
330
1E
100
AcDbEntity
  8
0
100
AcDbLine
 10
11.0
 20
695.0326999999999
 30
0.0
 11
13.6
 21
695.2327
 31
0.0
  0
LINE
  5
933
330
1E
100
AcDbEntity
  8
0
100
AcDbLine
 10
12.6704
 20
665.8927
 30
0.0
 11
14.6424
 21
666.2056999999999
 31
0.0
  0
LINE
  5
934
330
1E
100
AcDbEntity
  8
0
100
AcDbLine
 10
14.6424
 20
666.2056999999999
 30
0.0
 11
16.3764
 21
666.7137
 31
0.0
  0
LINE
  5
936
330
1E
100
AcDbEntity
  8
0
100
AcDbLine
 10
16.3764
 20
666.7137
 30
0.0
 11
17.7024
 21
667.3777
 31
0.0
  0
LINE
  5
938
330
1E
100
AcDbEntity
  8
0
100
AcDbLine
 10
17.7024
 20
667.3777
 30
0.0
 11
18.5184
 21
668.1327
 31
0.0
  0
LINE
  5
93A
330
1E
100
AcDbEntity
  8
0
100
AcDbLine
 10
18.5184
 20
668.1327
 30
0.0
 11
18.7224
 21
668.4037
 31
0.0
  0
LINE
  5
93B
330
1E
100
AcDbEntity
  8
0
100
AcDbLine
 10
18.5184
 20
668.1327
 30
0.0
 11
18.5622901775148
 21
668.250457633136
 31
0.0
  0
LINE
  5
93D
330
1E
100
AcDbEntity
  8
0
100
AcDbLine
 10
18.7224
 20
668.4037
 30
0.0
 11
19.0284
 21
669.2377
 31
0.0
  0
LINE
  5
93E
330
1E
100
AcDbEntity
  8
0
100
AcDbLine
 10
19.0284
 20
669.2377
 30
0.0
 11
19.0284
 21
672.081855555556
 31
0.0
  0
LINE
  5
93F
330
1E
100
AcDbEntity
  8
0
100
AcDbLine
 10
13.6
 20
695.2327
 30
0.0
 11
16.0
 21
695.6826999999999
 31
0.0
  0
LINE
  5
940
330
1E
100
AcDbEntity
  8
0
100
AcDbLine
 10
17.4
 20
670.8527
 30
0.0
 11
18.8
 21
671.8026999999999
 31
0.0
  0
LINE
  5
941
330
1E
100
AcDbEntity
  8
0
100
AcDbLine
 10
19.0284
 20
672.081855555556
 30
0.0
 11
19.0284
 21
669.2377
 31
0.0
  0
LINE
  5
942
330
1E
100
AcDbEntity
  8
0
100
AcDbLine
 10
18.8
 20
671.8026999999999
 30
0.0
 11
19.69999999999999
 21
672.9027
 31
0.0
  0
LINE
  5
943
330
1E
100
AcDbEntity
  8
0
100
AcDbLine
 10
19.69999999999999
 20
672.9027
 30
0.0
 11
20.0
 21
674.0527
 31
0.0
  0
LINE
  5
944
330
1E
100
AcDbEntity
  8
0
100
AcDbLine
 10
18.1
 20
696.4827
 30
0.0
 11
19.69999999999999
 21
697.5327
 31
0.0
  0
LINE
  5
945
330
1E
100
AcDbEntity
  8
0
100
AcDbLine
 10
19.69999999999999
 20
697.5327
 30
0.0
 11
20.6
 21
698.7327
 31
0.0
  0
LINE
  5
946
330
1E
100
AcDbEntity
  8
0
100
AcDbLine
 10
16.0
 20
695.6826999999999
 30
0.0
 11
18.1
 21
696.4827
 31
0.0
  0
LINE
  5
947
330
1E
100
AcDbEntity
  8
0
100
AcDbLine
 10
15.5
 20
670.1526999999999
 30
0.0
 11
17.4
 21
670.8527
 31
0.0
  0
LINE
  5
948
330
1E
100
AcDbEntity
  8
0
100
AcDbLine
 10
13.3
 20
669.7027
 30
0.0
 11
15.5
 21
670.1526999999999
 31
0.0
  0
LINE
  5
949
330
1E
100
AcDbEntity
  8
0
100
AcDbLine
 10
11.0
 20
669.5526999999999
 30
0.0
 11
13.3
 21
669.7027
 31
0.0
  0
LINE
  5
94A
330
1E
100
AcDbEntity
  8
0
100
AcDbLine
 10
16.0
 20
704.3827
 30
0.0
 11
18.1
 21
703.5827
 31
0.0
  0
LINE
  5
94B
330
1E
100
AcDbEntity
  8
0
100
AcDbLine
 10
13.6
 20
704.8327
 30
0.0
 11
16.0
 21
704.3827
 31
0.0
  0
LINE
  5
94C
330
1E
100
AcDbEntity
  8
0
100
AcDbLine
 10
11.0
 20
705.0327
 30
0.0
 11
13.6
 21
704.8327
 31
0.0
  0
LINE
  5
94D
330
1E
100
AcDbEntity
  8
0
100
AcDbLine
 10
18.1
 20
703.5827
 30
0.0
 11
19.69999999999999
 21
702.5326999999999
 31
0.0
  0
LINE
  5
94E
330
1E
100
AcDbEntity
  8
0
100
AcDbLine
 10
19.69999999999999
 20
702.5326999999999
 30
0.0
 11
20.6
 21
701.3327
 31
0.0
  0
LINE
  5
94F
330
1E
100
AcDbEntity
  8
0
100
AcDbLine
 10
20.6
 20
698.7327
 30
0.0
 11
21.0
 21
700.0326999999999
 31
0.0
  0
LINE
  5
950
330
1E
100
AcDbEntity
  8
0
100
AcDbLine
 10
20.6
 20
701.3327
 30
0.0
 11
21.0
 21
700.0326999999999
 31
0.0
  0
LINE
  5
951
330
1E
100
AcDbEntity
  8
0
100
AcDbLine
 10
20.6
 20
701.3327
 30
0.0
 11
21.6
 21
699.7006999999999
 31
0.0
  0
LINE
  5
952
330
1E
100
AcDbEntity
  8
0
100
AcDbLine
 10
21.6
 20
699.7006999999999
 30
0.0
 11
22.0
 21
698.3007
 31
0.0
  0
LINE
  5
953
330
1E
100
AcDbEntity
  8
0
100
AcDbLine
 10
20.0
 20
674.0527
 30
0.0
 11
22.0
 21
698.3007
 31
0.0
  0
ENDSEC
  0
SECTION
  2
OBJECTS
  0
DICTIONARY
  5
C
330
0
100
AcDbDictionary
  3
ACAD_GROUP
350
D
  3
ACAD_LAYOUT
350
19
  3
ACAD_MLINESTYLE
350
16
  3
ACAD_PLOTSETTINGS
350
18
  3
ACAD_PLOTSTYLENAME
350
E
  3
ACDBHEADERROUNDTRIPXREC
350
95F
  3
ACDBVARIABLEDICTIONARY
350
95C
  0
DICTIONARY
  5
981
330
1E
100
AcDbDictionary
280
     1
  3
ACAD_LAYOUTSELFREF
360
982
  0
DICTIONARY
  5
97F
330
1A
100
AcDbDictionary
280
     1
  3
ACAD_LAYOUTSELFREF
360
980
  0
DICTIONARY
  5
D
102
{ACAD_REACTORS
330
C
102
}
330
C
100
AcDbDictionary
  0
DICTIONARY
  5
19
102
{ACAD_REACTORS
330
C
102
}
330
C
100
AcDbDictionary
  0
DICTIONARY
  5
16
102
{ACAD_REACTORS
330
C
102
}
330
C
100
AcDbDictionary
  3
STANDARD
350
17
  0
DICTIONARY
  5
18
102
{ACAD_REACTORS
330
C
102
}
330
C
100
AcDbDictionary
  0
ACDBDICTIONARYWDFLT
  5
E
102
{ACAD_REACTORS
330
C
102
}
330
C
100
AcDbDictionary
281
     1
  3
Normal
350
F
100
AcDbDictionaryWithDefault
340
F
  0
DICTIONARY
  5
95F
102
{ACAD_REACTORS
330
C
102
}
330
C
100
AcDbDictionary
  3
CEPSNTYPE
350
969
  3
FINGERPRINTGUID
350
96A
  3
HYPERLINKBASE
350
962
  3
INSUNITS
350
968
  3
LAYOUTDICT
350
964
  3
LWETCUNION
350
967
  3
PLOTSETDICT
350
965
  3
PLOTSTYLNAMDICT
350
966
  3
PSVPSCALE
350
96C
  3
PUCSBASE
350
96F
  3
PUCSORGBACK
350
975
  3
PUCSORGBOTTOM
350
971
  3
PUCSORGFRONT
350
974
  3
PUCSORGLEFT
350
972
  3
PUCSORGRIGHT
350
973
  3
PUCSORGTOP
350
970
  3
PUCSORTHOREF
350
96D
  3
PUCSORTHOVIEW
350
96E
  3
STYLESHEET
350
963
  3
TSTACKALIGN
350
960
  3
TSTACKSIZE
350
961
  3
UCSBASE
350
978
  3
UCSORGBACK
350
97E
  3
UCSORGBOTTOM
350
97A
  3
UCSORGFRONT
350
97D
  3
UCSORGLEFT
350
97B
  3
UCSORGRIGHT
350
97C
  3
UCSORGTOP
350
979
  3
UCSORTHOREF
350
976
  3
UCSORTHOVIEW
350
977
  3
VERSIONGUID
350
96B
  0
DICTIONARY
  5
95C
102
{ACAD_REACTORS
330
C
102
}
330
C
100
AcDbDictionary
  3
DIMASSOC
350
95D
  0
XRECORD
  5
982
102
{ACAD_REACTORS
330
981
102
}
330
981
100
AcDbXrecord
340
1E
  0
XRECORD
  5
980
102
{ACAD_REACTORS
330
97F
102
}
330
97F
100
AcDbXrecord
340
1A
  0
MLINESTYLE
  5
17
102
{ACAD_REACTORS
330
16
102
}
330
16
100
AcDbMlineStyle
  2
STANDARD
 70
     0
  3

 62
   256
 51
90.0
 52
90.0
 71
     2
 49
0.5
 62
   256
  6
BYLAYER
 49
-0.5
 62
   256
  6
BYLAYER
  0
ACDBPLACEHOLDER
  5
F
102
{ACAD_REACTORS
330
E
102
}
330
E
100
AcDbPlaceHolder
280
     0
  0
XRECORD
  5
969
102
{ACAD_REACTORS
330
95F
102
}
330
95F
100
AcDbXrecord
 90
        0
  0
XRECORD
  5
96A
102
{ACAD_REACTORS
330
95F
102
}
330
95F
100
AcDbXrecord
  1
{1FEAE857-FD2C-4ABD-86FF-F494257EB855}
  0
XRECORD
  5
962
102
{ACAD_REACTORS
330
95F
102
}
330
95F
100
AcDbXrecord
  1

  0
XRECORD
  5
968
102
{ACAD_REACTORS
330
95F
102
}
330
95F
100
AcDbXrecord
 90
        0
  0
XRECORD
  5
964
102
{ACAD_REACTORS
330
95F
102
}
330
95F
100
AcDbXrecord
340
19
  0
XRECORD
  5
967
102
{ACAD_REACTORS
330
95F
102
}
330
95F
100
AcDbXrecord
 90
    10781
  0
XRECORD
  5
965
102
{ACAD_REACTORS
330
95F
102
}
330
95F
100
AcDbXrecord
340
18
  0
XRECORD
  5
966
102
{ACAD_REACTORS
330
95F
102
}
330
95F
100
AcDbXrecord
340
E
  0
XRECORD
  5
96C
102
{ACAD_REACTORS
330
95F
102
}
330
95F
100
AcDbXrecord
 40
0.0
  0
XRECORD
  5
96F
102
{ACAD_REACTORS
330
95F
102
}
330
95F
100
AcDbXrecord
340
0
  0
XRECORD
  5
975
102
{ACAD_REACTORS
330
95F
102
}
330
95F
100
AcDbXrecord
 10
0.0
 20
0.0
 30
0.0
  0
XRECORD
  5
971
102
{ACAD_REACTORS
330
95F
102
}
330
95F
100
AcDbXrecord
 10
0.0
 20
0.0
 30
0.0
  0
XRECORD
  5
974
102
{ACAD_REACTORS
330
95F
102
}
330
95F
100
AcDbXrecord
 10
0.0
 20
0.0
 30
0.0
  0
XRECORD
  5
972
102
{ACAD_REACTORS
330
95F
102
}
330
95F
100
AcDbXrecord
 10
0.0
 20
0.0
 30
0.0
  0
XRECORD
  5
973
102
{ACAD_REACTORS
330
95F
102
}
330
95F
100
AcDbXrecord
 10
0.0
 20
0.0
 30
0.0
  0
XRECORD
  5
970
102
{ACAD_REACTORS
330
95F
102
}
330
95F
100
AcDbXrecord
 10
0.0
 20
0.0
 30
0.0
  0
XRECORD
  5
96D
102
{ACAD_REACTORS
330
95F
102
}
330
95F
100
AcDbXrecord
340
0
  0
XRECORD
  5
96E
102
{ACAD_REACTORS
330
95F
102
}
330
95F
100
AcDbXrecord
 70
     0
  0
XRECORD
  5
963
102
{ACAD_REACTORS
330
95F
102
}
330
95F
100
AcDbXrecord
  1

  0
XRECORD
  5
960
102
{ACAD_REACTORS
330
95F
102
}
330
95F
100
AcDbXrecord
 90
        1
  0
XRECORD
  5
961
102
{ACAD_REACTORS
330
95F
102
}
330
95F
100
AcDbXrecord
 90
       70
  0
XRECORD
  5
978
102
{ACAD_REACTORS
330
95F
102
}
330
95F
100
AcDbXrecord
340
0
  0
XRECORD
  5
97E
102
{ACAD_REACTORS
330
95F
102
}
330
95F
100
AcDbXrecord
 10
0.0
 20
0.0
 30
0.0
  0
XRECORD
  5
97A
102
{ACAD_REACTORS
330
95F
102
}
330
95F
100
AcDbXrecord
 10
0.0
 20
0.0
 30
0.0
  0
XRECORD
  5
97D
102
{ACAD_REACTORS
330
95F
102
}
330
95F
100
AcDbXrecord
 10
0.0
 20
0.0
 30
0.0
  0
XRECORD
  5
97B
102
{ACAD_REACTORS
330
95F
102
}
330
95F
100
AcDbXrecord
 10
0.0
 20
0.0
 30
0.0
  0
XRECORD
  5
97C
102
{ACAD_REACTORS
330
95F
102
}
330
95F
100
AcDbXrecord
 10
0.0
 20
0.0
 30
0.0
  0
XRECORD
  5
979
102
{ACAD_REACTORS
330
95F
102
}
330
95F
100
AcDbXrecord
 10
0.0
 20
0.0
 30
0.0
  0
XRECORD
  5
976
102
{ACAD_REACTORS
330
95F
102
}
330
95F
100
AcDbXrecord
340
0
  0
XRECORD
  5
977
102
{ACAD_REACTORS
330
95F
102
}
330
95F
100
AcDbXrecord
 70
     1
  0
XRECORD
  5
96B
102
{ACAD_REACTORS
330
95F
102
}
330
95F
100
AcDbXrecord
  1
{AF5F5967-9EDB-47FB-AF79-E2416A28FD80}
  0
DICTIONARYVAR
  5
95D
102
{ACAD_REACTORS
330
95C
102
}
330
95C
100
DictionaryVariables
280
     0
  1
1
  0
ENDSEC
  0
EOF
