  0
SECTION
  2
HEADER
  9
$ACADVER
  1
AC1015
  9
$ACADMAINTVER
 70
    13
  9
$DWGCODEPAGE
  3
ANSI_1252
  9
$INSBASE
 10
0.0
 20
0.0
 30
0.0
  9
$EXTMIN
 10
-0.0000000000000039
 20
0.250000000000004
 30
0.0
  9
$EXTMAX
 10
157.0
 20
164.7499999999999
 30
0.0
  9
$LIMMIN
 10
0.0
 20
0.0
  9
$LIMMAX
 10
12.0
 20
9.0
  9
$ORTHOMODE
 70
     0
  9
$REGENMODE
 70
     1
  9
$FILLMODE
 70
     1
  9
$QTEXTMODE
 70
     0
  9
$MIRRTEXT
 70
     1
  9
$LTSCALE
 40
1.0
  9
$ATTMODE
 70
     1
  9
$TEXTSIZE
 40
0.2
  9
$TRACEWID
 40
0.05
  9
$TEXTSTYLE
  7
Standard
  9
$CLAYER
  8
0
  9
$CELTYPE
  6
Continuous
  9
$CECOLOR
 62
   256
  9
$CELTSCALE
 40
1.0
  9
$DISPSILH
 70
     0
  9
$DIMSCALE
 40
1.0
  9
$DIMASZ
 40
0.18
  9
$DIMEXO
 40
0.0625
  9
$DIMDLI
 40
0.38
  9
$DIMRND
 40
0.0
  9
$DIMDLE
 40
0.0
  9
$DIMEXE
 40
0.18
  9
$DIMTP
 40
0.0
  9
$DIMTM
 40
0.0
  9
$DIMTXT
 40
0.18
  9
$DIMCEN
 40
0.09
  9
$DIMTSZ
 40
0.0
  9
$DIMTOL
 70
     0
  9
$DIMLIM
 70
     0
  9
$DIMTIH
 70
     1
  9
$DIMTOH
 70
     1
  9
$DIMSE1
 70
     0
  9
$DIMSE2
 70
     0
  9
$DIMTAD
 70
     0
  9
$DIMZIN
 70
     0
  9
$DIMBLK
  1

  9
$DIMASO
 70
     1
  9
$DIMSHO
 70
     1
  9
$DIMPOST
  1

  9
$DIMAPOST
  1

  9
$DIMALT
 70
     0
  9
$DIMALTD
 70
     2
  9
$DIMALTF
 40
25.4
  9
$DIMLFAC
 40
1.0
  9
$DIMTOFL
 70
     0
  9
$DIMTVP
 40
0.0
  9
$DIMTIX
 70
     0
  9
$DIMSOXD
 70
     0
  9
$DIMSAH
 70
     0
  9
$DIMBLK1
  1

  9
$DIMBLK2
  1

  9
$DIMSTYLE
  2
Standard
  9
$DIMCLRD
 70
     0
  9
$DIMCLRE
 70
     0
  9
$DIMCLRT
 70
     0
  9
$DIMTFAC
 40
1.0
  9
$DIMGAP
 40
0.09
  9
$DIMJUST
 70
     0
  9
$DIMSD1
 70
     0
  9
$DIMSD2
 70
     0
  9
$DIMTOLJ
 70
     1
  9
$DIMTZIN
 70
     0
  9
$DIMALTZ
 70
     0
  9
$DIMALTTZ
 70
     0
  9
$DIMUPT
 70
     0
  9
$DIMDEC
 70
     4
  9
$DIMTDEC
 70
     4
  9
$DIMALTU
 70
     2
  9
$DIMALTTD
 70
     2
  9
$DIMTXSTY
  7
Standard
  9
$DIMAUNIT
 70
     0
  9
$DIMADEC
 70
     0
  9
$DIMALTRND
 40
0.0
  9
$DIMAZIN
 70
     0
  9
$DIMDSEP
 70
    46
  9
$DIMATFIT
 70
     3
  9
$DIMFRAC
 70
     0
  9
$DIMLDRBLK
  1

  9
$DIMLUNIT
 70
     2
  9
$DIMLWD
 70
    -2
  9
$DIMLWE
 70
    -2
  9
$DIMTMOVE
 70
     0
  9
$LUNITS
 70
     2
  9
$LUPREC
 70
     4
  9
$SKETCHINC
 40
0.1
  9
$FILLETRAD
 40
0.0
  9
$AUNITS
 70
     0
  9
$AUPREC
 70
     0
  9
$MENU
  1
.
  9
$ELEVATION
 40
0.0
  9
$PELEVATION
 40
0.0
  9
$THICKNESS
 40
0.0
  9
$LIMCHECK
 70
     0
  9
$CHAMFERA
 40
0.0
  9
$CHAMFERB
 40
0.0
  9
$CHAMFERC
 40
0.0
  9
$CHAMFERD
 40
0.0
  9
$SKPOLY
 70
     0
  9
$TDCREATE
 40
2454778.718213252
  9
$TDUCREATE
 40
2454778.676546585
  9
$TDUPDATE
 40
2454778.754250579
  9
$TDUUPDATE
 40
2454778.712583912
  9
$TDINDWG
 40
0.0360373264
  9
$TDUSRTIMER
 40
0.0360373264
  9
$USRTIMER
 70
     1
  9
$ANGBASE
 50
0.0
  9
$ANGDIR
 70
     0
  9
$PDMODE
 70
     0
  9
$PDSIZE
 40
0.0
  9
$PLINEWID
 40
0.0
  9
$SPLFRAME
 70
     0
  9
$SPLINETYPE
 70
     6
  9
$SPLINESEGS
 70
     8
  9
$HANDSEED
  5
1AD
  9
$SURFTAB1
 70
     6
  9
$SURFTAB2
 70
     6
  9
$SURFTYPE
 70
     6
  9
$SURFU
 70
     6
  9
$SURFV
 70
     6
  9
$UCSBASE
  2

  9
$UCSNAME
  2

  9
$UCSORG
 10
0.0
 20
0.0
 30
0.0
  9
$UCSXDIR
 10
1.0
 20
0.0
 30
0.0
  9
$UCSYDIR
 10
0.0
 20
1.0
 30
0.0
  9
$UCSORTHOREF
  2

  9
$UCSORTHOVIEW
 70
     1
  9
$UCSORGTOP
 10
0.0
 20
0.0
 30
0.0
  9
$UCSORGBOTTOM
 10
0.0
 20
0.0
 30
0.0
  9
$UCSORGLEFT
 10
0.0
 20
0.0
 30
0.0
  9
$UCSORGRIGHT
 10
0.0
 20
0.0
 30
0.0
  9
$UCSORGFRONT
 10
0.0
 20
0.0
 30
0.0
  9
$UCSORGBACK
 10
0.0
 20
0.0
 30
0.0
  9
$PUCSBASE
  2

  9
$PUCSNAME
  2

  9
$PUCSORG
 10
0.0
 20
0.0
 30
0.0
  9
$PUCSXDIR
 10
1.0
 20
0.0
 30
0.0
  9
$PUCSYDIR
 10
0.0
 20
1.0
 30
0.0
  9
$PUCSORTHOREF
  2

  9
$PUCSORTHOVIEW
 70
     0
  9
$PUCSORGTOP
 10
0.0
 20
0.0
 30
0.0
  9
$PUCSORGBOTTOM
 10
0.0
 20
0.0
 30
0.0
  9
$PUCSORGLEFT
 10
0.0
 20
0.0
 30
0.0
  9
$PUCSORGRIGHT
 10
0.0
 20
0.0
 30
0.0
  9
$PUCSORGFRONT
 10
0.0
 20
0.0
 30
0.0
  9
$PUCSORGBACK
 10
0.0
 20
0.0
 30
0.0
  9
$USERI1
 70
     0
  9
$USERI2
 70
     0
  9
$USERI3
 70
     0
  9
$USERI4
 70
     0
  9
$USERI5
 70
     0
  9
$USERR1
 40
0.0
  9
$USERR2
 40
0.0
  9
$USERR3
 40
0.0
  9
$USERR4
 40
0.0
  9
$USERR5
 40
0.0
  9
$WORLDVIEW
 70
     1
  9
$SHADEDGE
 70
     3
  9
$SHADEDIF
 70
    70
  9
$TILEMODE
 70
     1
  9
$MAXACTVP
 70
    64
  9
$PINSBASE
 10
0.0
 20
0.0
 30
0.0
  9
$PLIMCHECK
 70
     0
  9
$PEXTMIN
 10
1.000000000000000E+20
 20
1.000000000000000E+20
 30
1.000000000000000E+20
  9
$PEXTMAX
 10
-1.000000000000000E+20
 20
-1.000000000000000E+20
 30
-1.000000000000000E+20
  9
$PLIMMIN
 10
0.0
 20
0.0
  9
$PLIMMAX
 10
12.0
 20
9.0
  9
$UNITMODE
 70
     0
  9
$VISRETAIN
 70
     1
  9
$PLINEGEN
 70
     0
  9
$PSLTSCALE
 70
     1
  9
$TREEDEPTH
 70
  3020
  9
$CMLSTYLE
  2
Standard
  9
$CMLJUST
 70
     0
  9
$CMLSCALE
 40
1.0
  9
$PROXYGRAPHICS
 70
     1
  9
$MEASUREMENT
 70
     0
  9
$CELWEIGHT
370
    -1
  9
$ENDCAPS
280
     0
  9
$JOINSTYLE
280
     0
  9
$LWDISPLAY
290
     0
  9
$INSUNITS
 70
     0
  9
$HYPERLINKBASE
  1

  9
$STYLESHEET
  1

  9
$XEDIT
290
     1
  9
$CEPSNTYPE
380
     0
  9
$PSTYLEMODE
290
     1
  9
$FINGERPRINTGUID
  2
{ACCA4FF9-86B3-4796-A0D6-5C5BBF27CA90}
  9
$VERSIONGUID
  2
{33AD6FAD-6136-459D-A22E-9F6F2FA40BCB}
  9
$EXTNAMES
290
     1
  9
$PSVPSCALE
 40
0.0
  9
$OLESTARTUP
290
     0
  0
ENDSEC
  0
SECTION
  2
CLASSES
  0
CLASS
  1
ACDBDICTIONARYWDFLT
  2
AcDbDictionaryWithDefault
  3
AutoCAD 2000
 90
        0
280
     0
281
     0
  0
CLASS
  1
ACDBPLACEHOLDER
  2
AcDbPlaceHolder
  3
AutoCAD 2000
 90
        0
280
     0
281
     0
  0
CLASS
  1
LAYOUT
  2
AcDbLayout
  3
AutoCAD 2000
 90
        0
280
     0
281
     0
  0
CLASS
  1
DICTIONARYVAR
  2
AcDbDictionaryVar
  3
AutoCAD 2000
 90
        0
280
     0
281
     0
  0
ENDSEC
  0
SECTION
  2
TABLES
  0
TABLE
  2
VPORT
  5
8
330
0
100
AcDbSymbolTable
 70
     2
  0
VPORT
  5
1AC
330
8
100
AcDbSymbolTableRecord
100
AcDbViewportTableRecord
  2
*Active
 70
     0
 10
0.0
 20
0.0
 11
1.0
 21
1.0
 12
78.5
 22
82.5
 13
0.0
 23
0.0
 14
1.0
 24
1.0
 15
0.0
 25
0.0
 16
0.0
 26
0.0
 36
1.0
 17
0.0
 27
0.0
 37
0.0
 40
165.7621483375959
 41
2.078104993597951
 42
50.0
 43
0.0
 44
0.0
 50
0.0
 51
0.0
 71
     0
 72
   100
 73
     1
 74
     3
 75
     0
 76
     0
 77
     0
 78
     0
281
     0
 65
     1
110
0.0
120
0.0
130
0.0
111
1.0
121
0.0
131
0.0
112
0.0
122
1.0
132
0.0
 79
     1
146
0.0
  0
ENDTAB
  0
TABLE
  2
LTYPE
  5
5
330
0
100
AcDbSymbolTable
 70
     1
  0
LTYPE
  5
13
330
5
100
AcDbSymbolTableRecord
100
AcDbLinetypeTableRecord
  2
ByBlock
 70
     0
  3

 72
    65
 73
     0
 40
0.0
  0
LTYPE
  5
14
330
5
100
AcDbSymbolTableRecord
100
AcDbLinetypeTableRecord
  2
ByLayer
 70
     0
  3

 72
    65
 73
     0
 40
0.0
  0
LTYPE
  5
15
330
5
100
AcDbSymbolTableRecord
100
AcDbLinetypeTableRecord
  2
Continuous
 70
     0
  3
Solid line
 72
    65
 73
     0
 40
0.0
  0
ENDTAB
  0
TABLE
  2
LAYER
  5
2
330
0
100
AcDbSymbolTable
 70
     1
  0
LAYER
  5
10
330
2
100
AcDbSymbolTableRecord
100
AcDbLayerTableRecord
  2
0
 70
     0
 62
     7
  6
Continuous
370
    -3
390
F
  0
ENDTAB
  0
TABLE
  2
STYLE
  5
3
330
0
100
AcDbSymbolTable
 70
     1
  0
STYLE
  5
11
330
3
100
AcDbSymbolTableRecord
100
AcDbTextStyleTableRecord
  2
Standard
 70
     0
 40
0.0
 41
1.0
 50
0.0
 71
     0
 42
0.2
  3
txt
  4

  0
ENDTAB
  0
TABLE
  2
VIEW
  5
6
330
0
100
AcDbSymbolTable
 70
     0
  0
ENDTAB
  0
TABLE
  2
UCS
  5
7
330
0
100
AcDbSymbolTable
 70
     0
  0
ENDTAB
  0
TABLE
  2
APPID
  5
9
330
0
100
AcDbSymbolTable
 70
     1
  0
APPID
  5
12
330
9
100
AcDbSymbolTableRecord
100
AcDbRegAppTableRecord
  2
ACAD
 70
     0
  0
ENDTAB
  0
TABLE
  2
DIMSTYLE
  5
A
330
0
100
AcDbSymbolTable
 70
     1
100
AcDbDimStyleTable
 71
     0
  0
DIMSTYLE
105
1A4
330
A
100
AcDbSymbolTableRecord
100
AcDbDimStyleTableRecord
  2
Standard
 70
     0
340
11
  0
ENDTAB
  0
TABLE
  2
BLOCK_RECORD
  5
1
330
0
100
AcDbSymbolTable
 70
     0
  0
BLOCK_RECORD
  5
1E
330
1
100
AcDbSymbolTableRecord
100
AcDbBlockTableRecord
  2
*Model_Space
340
21
  0
BLOCK_RECORD
  5
1A
330
1
100
AcDbSymbolTableRecord
100
AcDbBlockTableRecord
  2
*Paper_Space
340
1D
  0
ENDTAB
  0
ENDSEC
  0
SECTION
  2
BLOCKS
  0
BLOCK
  5
1F
330
1E
100
AcDbEntity
  8
0
100
AcDbBlockBegin
  2
*Model_Space
 70
     0
 10
0.0
 20
0.0
 30
0.0
  3
*Model_Space
  1

  0
ENDBLK
  5
20
330
1E
100
AcDbEntity
  8
0
100
AcDbBlockEnd
  0
BLOCK
  5
1B
330
1A
100
AcDbEntity
 67
     1
  8
0
100
AcDbBlockBegin
  2
*Paper_Space
 70
     0
 10
0.0
 20
0.0
 30
0.0
  3
*Paper_Space
  1

  0
ENDBLK
  5
1C
330
1A
100
AcDbEntity
 67
     1
  8
0
100
AcDbBlockEnd
  0
ENDSEC
  0
SECTION
  2
ENTITIES
  0
LINE
  5
22
330
1E
100
AcDbEntity
  8
0
100
AcDbLine
 10
7.072
 20
62.00679799999999
 30
0.0
 11
10.41379999999999
 21
60.66974
 31
0.0
  0
LINE
  5
23
330
1E
100
AcDbEntity
  8
0
100
AcDbLine
 10
10.41379999999999
 20
60.66974
 30
0.0
 11
14.0
 21
60.2137
 31
0.0
  0
LINE
  5
24
330
1E
100
AcDbEntity
  8
0
100
AcDbLine
 10
4.202329999999999
 20
64.13374000000001
 30
0.0
 11
7.072
 21
62.00679799999999
 31
0.0
  0
LINE
  5
25
330
1E
100
AcDbEntity
  8
0
100
AcDbLine
 10
2.00035
 20
66.90563
 30
0.0
 11
4.202329999999999
 21
64.13374000000001
 31
0.0
  0
LINE
  5
26
330
1E
100
AcDbEntity
  8
0
100
AcDbLine
 10
1.87564
 20
67.10111999999999
 30
0.0
 11
2.00035
 21
66.90563
 31
0.0
  0
LINE
  5
27
330
1E
100
AcDbEntity
  8
0
100
AcDbLine
 10
14.0
 20
60.2137
 30
0.0
 11
18.5
 21
60.2137
 31
0.0
  0
LINE
  5
28
330
1E
100
AcDbEntity
  8
0
100
AcDbLine
 10
14.0
 20
60.2137
 30
0.0
 11
18.5
 21
60.2137
 31
0.0
  0
LINE
  5
29
330
1E
100
AcDbEntity
  8
0
100
AcDbLine
 10
12.4098
 20
68.3952
 30
0.0
 11
14.0
 21
68.19298
 31
0.0
  0
LINE
  5
2A
330
1E
100
AcDbEntity
  8
0
100
AcDbLine
 10
10.92799999999999
 20
68.98806999999999
 30
0.0
 11
12.4098
 21
68.3952
 31
0.0
  0
LINE
  5
2B
330
1E
100
AcDbEntity
  8
0
100
AcDbLine
 10
28.5
 20
0.250000000000004
 30
0.0
 11
128.4999999999999
 21
0.250000000000004
 31
0.0
  0
LINE
  5
2C
330
1E
100
AcDbEntity
  8
0
100
AcDbLine
 10
28.5
 20
6.5144
 30
0.0
 11
28.5
 21
1.8246
 31
0.0
  0
LINE
  5
2D
330
1E
100
AcDbEntity
  8
0
100
AcDbLine
 10
28.5
 20
6.5144
 30
0.0
 11
28.5
 21
14.3317
 31
0.0
  0
LINE
  5
2E
330
1E
100
AcDbEntity
  8
0
100
AcDbLine
 10
28.5
 20
1.8246
 30
0.0
 11
28.5
 21
0.250000000000004
 31
0.0
  0
LINE
  5
2F
330
1E
100
AcDbEntity
  8
0
100
AcDbLine
 10
28.5
 20
1.8246
 30
0.0
 11
28.5
 21
6.5144
 31
0.0
  0
LINE
  5
30
330
1E
100
AcDbEntity
  8
0
100
AcDbLine
 10
28.5
 20
24.59049999999999
 30
0.0
 11
28.5
 21
14.3317
 31
0.0
  0
LINE
  5
31
330
1E
100
AcDbEntity
  8
0
100
AcDbLine
 10
28.5
 20
24.59049999999999
 30
0.0
 11
28.5
 21
35.2566
 31
0.0
  0
LINE
  5
32
330
1E
100
AcDbEntity
  8
0
100
AcDbLine
 10
28.5
 20
14.3317
 30
0.0
 11
28.5
 21
6.5144
 31
0.0
  0
LINE
  5
33
330
1E
100
AcDbEntity
  8
0
100
AcDbLine
 10
28.5
 20
14.3317
 30
0.0
 11
28.5
 21
24.59049999999999
 31
0.0
  0
LINE
  5
34
330
1E
100
AcDbEntity
  8
0
100
AcDbLine
 10
28.5
 20
30.8563
 30
0.0
 11
28.5
 21
32.7705
 31
0.0
  0
LINE
  5
35
330
1E
100
AcDbEntity
  8
0
100
AcDbLine
 10
28.5
 20
30.8563
 30
0.0
 11
28.5
 21
30.2454
 31
0.0
  0
LINE
  5
36
330
1E
100
AcDbEntity
  8
0
100
AcDbLine
 10
28.5
 20
30.2454
 30
0.0
 11
28.5
 21
31.0343
 31
0.0
  0
LINE
  5
37
330
1E
100
AcDbEntity
  8
0
100
AcDbLine
 10
28.5
 20
30.2454
 30
0.0
 11
28.5
 21
30.8563
 31
0.0
  0
LINE
  5
38
330
1E
100
AcDbEntity
  8
0
100
AcDbLine
 10
28.5
 20
26.1019
 30
0.0
 11
28.5
 21
35.2566
 31
0.0
  0
LINE
  5
39
330
1E
100
AcDbEntity
  8
0
100
AcDbLine
 10
28.5
 20
26.1019
 30
0.0
 11
28.5
 21
15.5638
 31
0.0
  0
LINE
  5
3A
330
1E
100
AcDbEntity
  8
0
100
AcDbLine
 10
28.5
 20
15.5638
 30
0.0
 11
28.5
 21
26.1019
 31
0.0
  0
LINE
  5
3B
330
1E
100
AcDbEntity
  8
0
100
AcDbLine
 10
28.5
 20
15.5638
 30
0.0
 11
28.5
 21
7.383499999999999
 31
0.0
  0
LINE
  5
3C
330
1E
100
AcDbEntity
  8
0
100
AcDbLine
 10
28.5
 20
7.383499999999999
 30
0.0
 11
28.5
 21
15.5638
 31
0.0
  0
LINE
  5
3D
330
1E
100
AcDbEntity
  8
0
100
AcDbLine
 10
28.5
 20
7.383499999999999
 30
0.0
 11
28.5
 21
2.2749
 31
0.0
  0
LINE
  5
3E
330
1E
100
AcDbEntity
  8
0
100
AcDbLine
 10
28.5
 20
2.2749
 30
0.0
 11
28.5
 21
7.383499999999999
 31
0.0
  0
LINE
  5
3F
330
1E
100
AcDbEntity
  8
0
100
AcDbLine
 10
28.5
 20
2.2749
 30
0.0
 11
28.5
 21
0.250000000000004
 31
0.0
  0
LINE
  5
40
330
1E
100
AcDbEntity
  8
0
100
AcDbLine
 10
28.5
 20
32.7705
 30
0.0
 11
28.5
 21
35.2566
 31
0.0
  0
LINE
  5
41
330
1E
100
AcDbEntity
  8
0
100
AcDbLine
 10
28.5
 20
32.7705
 30
0.0
 11
28.5
 21
30.8563
 31
0.0
  0
LINE
  5
42
330
1E
100
AcDbEntity
  8
0
100
AcDbLine
 10
28.5
 20
35.2566
 30
0.0
 11
28.5
 21
33.1195
 31
0.0
  0
LINE
  5
43
330
1E
100
AcDbEntity
  8
0
100
AcDbLine
 10
28.5
 20
35.2566
 30
0.0
 11
28.5
 21
26.1019
 31
0.0
  0
LINE
  5
44
330
1E
100
AcDbEntity
  8
0
100
AcDbLine
 10
28.5
 20
35.2566
 30
0.0
 11
28.5
 21
24.59049999999999
 31
0.0
  0
LINE
  5
45
330
1E
100
AcDbEntity
  8
0
100
AcDbLine
 10
28.5
 20
35.2566
 30
0.0
 11
28.5
 21
32.7705
 31
0.0
  0
LINE
  5
46
330
1E
100
AcDbEntity
  8
0
100
AcDbLine
 10
28.5
 20
33.1195
 30
0.0
 11
28.5
 21
31.0343
 31
0.0
  0
LINE
  5
47
330
1E
100
AcDbEntity
  8
0
100
AcDbLine
 10
28.5
 20
33.1195
 30
0.0
 11
28.5
 21
35.2566
 31
0.0
  0
LINE
  5
48
330
1E
100
AcDbEntity
  8
0
100
AcDbLine
 10
28.5
 20
31.0343
 30
0.0
 11
28.5
 21
30.2454
 31
0.0
  0
LINE
  5
49
330
1E
100
AcDbEntity
  8
0
100
AcDbLine
 10
28.5
 20
31.0343
 30
0.0
 11
28.5
 21
33.1195
 31
0.0
  0
LINE
  5
4A
330
1E
100
AcDbEntity
  8
0
100
AcDbLine
 10
28.5
 20
0.250000000000004
 30
0.0
 11
28.5
 21
2.2749
 31
0.0
  0
LINE
  5
4B
330
1E
100
AcDbEntity
  8
0
100
AcDbLine
 10
28.5
 20
0.250000000000004
 30
0.0
 11
128.4999999999999
 21
0.250000000000004
 31
0.0
  0
LINE
  5
4C
330
1E
100
AcDbEntity
  8
0
100
AcDbLine
 10
28.5
 20
0.250000000000004
 30
0.0
 11
28.5
 21
1.8246
 31
0.0
  0
LINE
  5
4D
330
1E
100
AcDbEntity
  8
0
100
AcDbLine
 10
23.5
 20
35.2566
 30
0.0
 11
78.5
 21
35.2566
 31
0.0
  0
LINE
  5
4E
330
1E
100
AcDbEntity
  8
0
100
AcDbLine
 10
23.5
 20
35.2566
 30
0.0
 11
78.5
 21
35.2566
 31
0.0
  0
LINE
  5
4F
330
1E
100
AcDbEntity
  8
0
100
AcDbLine
 10
21.0116
 20
35.7441
 30
0.0
 11
23.5
 21
35.2566
 31
0.0
  0
LINE
  5
50
330
1E
100
AcDbEntity
  8
0
100
AcDbLine
 10
19.3365
 20
37.3191
 30
0.0
 11
21.0116
 21
35.7441
 31
0.0
  0
LINE
  5
51
330
1E
100
AcDbEntity
  8
0
100
AcDbLine
 10
18.5
 20
40.45029999999999
 30
0.0
 11
18.5
 21
46.24699999999999
 31
0.0
  0
LINE
  5
52
330
1E
100
AcDbEntity
  8
0
100
AcDbLine
 10
18.5
 20
46.24699999999999
 30
0.0
 11
18.5
 21
51.0964
 31
0.0
  0
LINE
  5
53
330
1E
100
AcDbEntity
  8
0
100
AcDbLine
 10
18.5
 20
46.24699999999999
 30
0.0
 11
18.5
 21
40.45029999999999
 31
0.0
  0
LINE
  5
54
330
1E
100
AcDbEntity
  8
0
100
AcDbLine
 10
18.5
 20
46.10249999999999
 30
0.0
 11
18.5
 21
40.1658
 31
0.0
  0
LINE
  5
55
330
1E
100
AcDbEntity
  8
0
100
AcDbLine
 10
18.5
 20
46.10249999999999
 30
0.0
 11
18.5
 21
51.1447
 31
0.0
  0
LINE
  5
56
330
1E
100
AcDbEntity
  8
0
100
AcDbLine
 10
18.5
 20
51.0964
 30
0.0
 11
18.5
 21
55.35399
 31
0.0
  0
LINE
  5
57
330
1E
100
AcDbEntity
  8
0
100
AcDbLine
 10
18.5
 20
51.0964
 30
0.0
 11
18.5
 21
46.24699999999999
 31
0.0
  0
LINE
  5
58
330
1E
100
AcDbEntity
  8
0
100
AcDbLine
 10
18.5
 20
60.763932
 30
0.0
 11
18.5
 21
65.92116999999999
 31
0.0
  0
LINE
  5
59
330
1E
100
AcDbEntity
  8
0
100
AcDbLine
 10
18.5
 20
60.763932
 30
0.0
 11
18.5
 21
55.59336999999999
 31
0.0
  0
LINE
  5
5A
330
1E
100
AcDbEntity
  8
0
100
AcDbLine
 10
18.5
 20
55.59336999999999
 30
0.0
 11
18.5
 21
60.763932
 31
0.0
  0
LINE
  5
5B
330
1E
100
AcDbEntity
  8
0
100
AcDbLine
 10
18.5
 20
55.59336999999999
 30
0.0
 11
18.5
 21
51.1447
 31
0.0
  0
LINE
  5
5C
330
1E
100
AcDbEntity
  8
0
100
AcDbLine
 10
18.5
 20
60.54849
 30
0.0
 11
18.5
 21
55.35399
 31
0.0
  0
LINE
  5
5D
330
1E
100
AcDbEntity
  8
0
100
AcDbLine
 10
18.5
 20
60.54849
 30
0.0
 11
18.5
 21
65.63311
 31
0.0
  0
LINE
  5
5E
330
1E
100
AcDbEntity
  8
0
100
AcDbLine
 10
18.5
 20
51.1447
 30
0.0
 11
18.5
 21
55.59336999999999
 31
0.0
  0
LINE
  5
5F
330
1E
100
AcDbEntity
  8
0
100
AcDbLine
 10
18.5
 20
51.1447
 30
0.0
 11
18.5
 21
46.10249999999999
 31
0.0
  0
LINE
  5
60
330
1E
100
AcDbEntity
  8
0
100
AcDbLine
 10
18.5
 20
55.35399
 30
0.0
 11
18.5
 21
51.0964
 31
0.0
  0
LINE
  5
61
330
1E
100
AcDbEntity
  8
0
100
AcDbLine
 10
18.5
 20
55.35399
 30
0.0
 11
18.5
 21
60.54849
 31
0.0
  0
LINE
  5
62
330
1E
100
AcDbEntity
  8
0
100
AcDbLine
 10
18.5
 20
65.63311
 30
0.0
 11
18.5
 21
71.48759
 31
0.0
  0
LINE
  5
63
330
1E
100
AcDbEntity
  8
0
100
AcDbLine
 10
18.5
 20
65.63311
 30
0.0
 11
18.5
 21
60.54849
 31
0.0
  0
LINE
  5
64
330
1E
100
AcDbEntity
  8
0
100
AcDbLine
 10
18.5
 20
65.92116999999999
 30
0.0
 11
18.5
 21
71.82640000000001
 31
0.0
  0
LINE
  5
65
330
1E
100
AcDbEntity
  8
0
100
AcDbLine
 10
18.5
 20
65.92116999999999
 30
0.0
 11
18.5
 21
60.763932
 31
0.0
  0
LINE
  5
66
330
1E
100
AcDbEntity
  8
0
100
AcDbLine
 10
18.5
 20
40.1658
 30
0.0
 11
19.3365
 21
37.3191
 31
0.0
  0
LINE
  5
67
330
1E
100
AcDbEntity
  8
0
100
AcDbLine
 10
18.5
 20
40.1658
 30
0.0
 11
18.5
 21
46.10249999999999
 31
0.0
  0
LINE
  5
68
330
1E
100
AcDbEntity
  8
0
100
AcDbLine
 10
14.0
 20
68.19298
 30
0.0
 11
18.5
 21
68.19298
 31
0.0
  0
LINE
  5
69
330
1E
100
AcDbEntity
  8
0
100
AcDbLine
 10
14.0
 20
68.19298
 30
0.0
 11
18.5
 21
68.19298
 31
0.0
  0
LINE
  5
6A
330
1E
100
AcDbEntity
  8
0
100
AcDbLine
 10
0.4770379999999961
 20
70.3626
 30
0.0
 11
1.87564
 21
67.10111999999999
 31
0.0
  0
LINE
  5
6B
330
1E
100
AcDbEntity
  8
0
100
AcDbLine
 10
0.4770379999999961
 20
70.3626
 30
0.0
 11
1.87564
 21
67.10111999999999
 31
0.0
  0
LINE
  5
6C
330
1E
100
AcDbEntity
  8
0
100
AcDbLine
 10
0.143999999999996
 20
81.85500000000001
 30
0.0
 11
0.5279999999999961
 21
82.1035
 31
0.0
  0
LINE
  5
6D
330
1E
100
AcDbEntity
  8
0
100
AcDbLine
 10
0.5279999999999961
 20
82.1035
 30
0.0
 11
1.167999999999999
 21
82.323
 31
0.0
  0
LINE
  5
6E
330
1E
100
AcDbEntity
  8
0
100
AcDbLine
 10
0.143999999999996
 20
81.85500000000001
 30
0.0
 11
0.5279999999999961
 21
82.1035
 31
0.0
  0
LINE
  5
6F
330
1E
100
AcDbEntity
  8
0
100
AcDbLine
 10
-0.0000000000000039
 20
81.59
 30
0.0
 11
-0.0000000000000039
 21
73.8626
 31
0.0
  0
LINE
  5
70
330
1E
100
AcDbEntity
  8
0
100
AcDbLine
 10
-0.0000000000000039
 20
81.59
 30
0.0
 11
0.143999999999996
 21
81.85500000000001
 31
0.0
  0
LINE
  5
71
330
1E
100
AcDbEntity
  8
0
100
AcDbLine
 10
2.016
 20
82.4886
 30
0.0
 11
2.976
 21
82.58799999999999
 31
0.0
  0
LINE
  5
72
330
1E
100
AcDbEntity
  8
0
100
AcDbLine
 10
1.167999999999999
 20
82.323
 30
0.0
 11
2.016
 21
82.4886
 31
0.0
  0
LINE
  5
73
330
1E
100
AcDbEntity
  8
0
100
AcDbLine
 10
2.976
 20
82.58799999999999
 30
0.0
 11
4.0
 21
82.62529999999999
 31
0.0
  0
LINE
  5
74
330
1E
100
AcDbEntity
  8
0
100
AcDbLine
 10
4.0
 20
82.62529999999999
 30
0.0
 11
5.024
 21
82.58799999999999
 31
0.0
  0
LINE
  5
75
330
1E
100
AcDbEntity
  8
0
100
AcDbLine
 10
5.024
 20
82.58799999999999
 30
0.0
 11
5.983999999999999
 21
82.4886
 31
0.0
  0
LINE
  5
76
330
1E
100
AcDbEntity
  8
0
100
AcDbLine
 10
5.983999999999999
 20
82.4886
 30
0.0
 11
6.832
 21
82.323
 31
0.0
  0
LINE
  5
77
330
1E
100
AcDbEntity
  8
0
100
AcDbLine
 10
6.832
 20
82.323
 30
0.0
 11
7.472
 21
82.1035
 31
0.0
  0
LINE
  5
78
330
1E
100
AcDbEntity
  8
0
100
AcDbLine
 10
7.472
 20
82.1035
 30
0.0
 11
7.855999999999999
 21
81.85500000000001
 31
0.0
  0
LINE
  5
79
330
1E
100
AcDbEntity
  8
0
100
AcDbLine
 10
8.0
 20
81.59
 30
0.0
 11
8.0
 21
73.8626
 31
0.0
  0
LINE
  5
7A
330
1E
100
AcDbEntity
  8
0
100
AcDbLine
 10
7.855999999999999
 20
81.85500000000001
 30
0.0
 11
8.0
 21
81.59
 31
0.0
  0
LINE
  5
7B
330
1E
100
AcDbEntity
  8
0
100
AcDbLine
 10
-0.0000000000000039
 20
73.8626
 30
0.0
 11
0.4770379999999961
 21
70.3626
 31
0.0
  0
LINE
  5
7C
330
1E
100
AcDbEntity
  8
0
100
AcDbLine
 10
-0.0000000000000039
 20
73.8626
 30
0.0
 11
-0.0000000000000039
 21
81.59
 31
0.0
  0
LINE
  5
7D
330
1E
100
AcDbEntity
  8
0
100
AcDbLine
 10
18.5
 20
71.82640000000001
 30
0.0
 11
18.5
 21
79.46670000000001
 31
0.0
  0
LINE
  5
7E
330
1E
100
AcDbEntity
  8
0
100
AcDbLine
 10
18.5
 20
71.82640000000001
 30
0.0
 11
18.5
 21
65.92116999999999
 31
0.0
  0
LINE
  5
7F
330
1E
100
AcDbEntity
  8
0
100
AcDbLine
 10
18.5
 20
71.48759
 30
0.0
 11
18.5
 21
65.63311
 31
0.0
  0
LINE
  5
80
330
1E
100
AcDbEntity
  8
0
100
AcDbLine
 10
18.5
 20
71.48759
 30
0.0
 11
18.5
 21
78.7293
 31
0.0
  0
LINE
  5
81
330
1E
100
AcDbEntity
  8
0
100
AcDbLine
 10
8.67914
 20
71.16030999999999
 30
0.0
 11
9.65554
 21
69.93120000000001
 31
0.0
  0
LINE
  5
82
330
1E
100
AcDbEntity
  8
0
100
AcDbLine
 10
14.0
 20
130.2815
 30
0.0
 11
14.0
 21
130.935
 31
0.0
  0
LINE
  5
83
330
1E
100
AcDbEntity
  8
0
100
AcDbLine
 10
14.0
 20
130.2815
 30
0.0
 11
14.0
 21
129.8828
 31
0.0
  0
LINE
  5
84
330
1E
100
AcDbEntity
  8
0
100
AcDbLine
 10
14.0
 20
129.8828
 30
0.0
 11
14.0
 21
130.2815
 31
0.0
  0
LINE
  5
85
330
1E
100
AcDbEntity
  8
0
100
AcDbLine
 10
14.0
 20
129.8828
 30
0.0
 11
14.0
 21
129.7603999999999
 31
0.0
  0
LINE
  5
86
330
1E
100
AcDbEntity
  8
0
100
AcDbLine
 10
14.0
 20
129.7603999999999
 30
0.0
 11
18.5
 21
129.7603999999999
 31
0.0
  0
LINE
  5
87
330
1E
100
AcDbEntity
  8
0
100
AcDbLine
 10
14.0
 20
129.7603999999999
 30
0.0
 11
14.0
 21
129.8828
 31
0.0
  0
LINE
  5
88
330
1E
100
AcDbEntity
  8
0
100
AcDbLine
 10
14.0
 20
129.7603999999999
 30
0.0
 11
18.5
 21
129.7603999999999
 31
0.0
  0
LINE
  5
89
330
1E
100
AcDbEntity
  8
0
100
AcDbLine
 10
14.0
 20
129.7603999999999
 30
0.0
 11
14.0
 21
129.8863
 31
0.0
  0
LINE
  5
8A
330
1E
100
AcDbEntity
  8
0
100
AcDbLine
 10
14.0
 20
129.8863
 30
0.0
 11
14.0
 21
130.2904
 31
0.0
  0
LINE
  5
8B
330
1E
100
AcDbEntity
  8
0
100
AcDbLine
 10
14.0
 20
129.8863
 30
0.0
 11
14.0
 21
129.7603999999999
 31
0.0
  0
LINE
  5
8C
330
1E
100
AcDbEntity
  8
0
100
AcDbLine
 10
14.0
 20
132.7146999999999
 30
0.0
 11
14.0
 21
133.7410999999999
 31
0.0
  0
LINE
  5
8D
330
1E
100
AcDbEntity
  8
0
100
AcDbLine
 10
14.0
 20
132.7146999999999
 30
0.0
 11
14.0
 21
131.7628999999999
 31
0.0
  0
LINE
  5
8E
330
1E
100
AcDbEntity
  8
0
100
AcDbLine
 10
14.0
 20
131.7628999999999
 30
0.0
 11
14.0
 21
132.7146999999999
 31
0.0
  0
LINE
  5
8F
330
1E
100
AcDbEntity
  8
0
100
AcDbLine
 10
14.0
 20
131.7628999999999
 30
0.0
 11
14.0
 21
130.935
 31
0.0
  0
LINE
  5
90
330
1E
100
AcDbEntity
  8
0
100
AcDbLine
 10
14.0
 20
130.935
 30
0.0
 11
14.0
 21
131.7628999999999
 31
0.0
  0
LINE
  5
91
330
1E
100
AcDbEntity
  8
0
100
AcDbLine
 10
14.0
 20
130.935
 30
0.0
 11
14.0
 21
130.2815
 31
0.0
  0
LINE
  5
92
330
1E
100
AcDbEntity
  8
0
100
AcDbLine
 10
14.0
 20
133.7410999999999
 30
0.0
 11
14.0
 21
134.7677999999999
 31
0.0
  0
LINE
  5
93
330
1E
100
AcDbEntity
  8
0
100
AcDbLine
 10
14.0
 20
133.7410999999999
 30
0.0
 11
14.0
 21
132.7146999999999
 31
0.0
  0
LINE
  5
94
330
1E
100
AcDbEntity
  8
0
100
AcDbLine
 10
14.0
 20
134.7677999999999
 30
0.0
 11
14.0
 21
135.7525
 31
0.0
  0
LINE
  5
95
330
1E
100
AcDbEntity
  8
0
100
AcDbLine
 10
14.0
 20
134.7677999999999
 30
0.0
 11
14.0
 21
133.7410999999999
 31
0.0
  0
LINE
  5
96
330
1E
100
AcDbEntity
  8
0
100
AcDbLine
 10
14.0
 20
135.7525
 30
0.0
 11
14.0
 21
136.5902
 31
0.0
  0
LINE
  5
97
330
1E
100
AcDbEntity
  8
0
100
AcDbLine
 10
14.0
 20
135.7525
 30
0.0
 11
14.0
 21
134.7677999999999
 31
0.0
  0
LINE
  5
98
330
1E
100
AcDbEntity
  8
0
100
AcDbLine
 10
14.0
 20
135.7371
 30
0.0
 11
14.0
 21
134.7853
 31
0.0
  0
LINE
  5
99
330
1E
100
AcDbEntity
  8
0
100
AcDbLine
 10
14.0
 20
135.7371
 30
0.0
 11
14.0
 21
136.565
 31
0.0
  0
LINE
  5
9A
330
1E
100
AcDbEntity
  8
0
100
AcDbLine
 10
14.0
 20
136.5902
 30
0.0
 11
14.0
 21
137.2095999999999
 31
0.0
  0
LINE
  5
9B
330
1E
100
AcDbEntity
  8
0
100
AcDbLine
 10
14.0
 20
136.5902
 30
0.0
 11
14.0
 21
135.7525
 31
0.0
  0
LINE
  5
9C
330
1E
100
AcDbEntity
  8
0
100
AcDbLine
 10
14.0
 20
137.2095999999999
 30
0.0
 11
14.0
 21
137.6136999999999
 31
0.0
  0
LINE
  5
9D
330
1E
100
AcDbEntity
  8
0
100
AcDbLine
 10
14.0
 20
137.2095999999999
 30
0.0
 11
14.0
 21
136.5902
 31
0.0
  0
LINE
  5
9E
330
1E
100
AcDbEntity
  8
0
100
AcDbLine
 10
14.0
 20
136.565
 30
0.0
 11
14.0
 21
135.7371
 31
0.0
  0
LINE
  5
9F
330
1E
100
AcDbEntity
  8
0
100
AcDbLine
 10
14.0
 20
136.565
 30
0.0
 11
14.0
 21
137.2184999999999
 31
0.0
  0
LINE
  5
A0
330
1E
100
AcDbEntity
  8
0
100
AcDbLine
 10
14.0
 20
137.2184999999999
 30
0.0
 11
14.0
 21
136.565
 31
0.0
  0
LINE
  5
A1
330
1E
100
AcDbEntity
  8
0
100
AcDbLine
 10
14.0
 20
137.2184999999999
 30
0.0
 11
14.0
 21
137.6171999999999
 31
0.0
  0
LINE
  5
A2
330
1E
100
AcDbEntity
  8
0
100
AcDbLine
 10
14.0
 20
137.6171999999999
 30
0.0
 11
14.0
 21
137.2184999999999
 31
0.0
  0
LINE
  5
A3
330
1E
100
AcDbEntity
  8
0
100
AcDbLine
 10
14.0
 20
137.6171999999999
 30
0.0
 11
14.0
 21
137.7396
 31
0.0
  0
LINE
  5
A4
330
1E
100
AcDbEntity
  8
0
100
AcDbLine
 10
14.0
 20
137.6136999999999
 30
0.0
 11
14.0
 21
137.7396
 31
0.0
  0
LINE
  5
A5
330
1E
100
AcDbEntity
  8
0
100
AcDbLine
 10
14.0
 20
137.6136999999999
 30
0.0
 11
14.0
 21
137.2095999999999
 31
0.0
  0
LINE
  5
A6
330
1E
100
AcDbEntity
  8
0
100
AcDbLine
 10
14.0
 20
137.7396
 30
0.0
 11
18.5
 21
137.7396
 31
0.0
  0
LINE
  5
A7
330
1E
100
AcDbEntity
  8
0
100
AcDbLine
 10
14.0
 20
137.7396
 30
0.0
 11
14.0
 21
137.6171999999999
 31
0.0
  0
LINE
  5
A8
330
1E
100
AcDbEntity
  8
0
100
AcDbLine
 10
14.0
 20
137.7396
 30
0.0
 11
18.5
 21
137.7396
 31
0.0
  0
LINE
  5
A9
330
1E
100
AcDbEntity
  8
0
100
AcDbLine
 10
14.0
 20
137.7396
 30
0.0
 11
14.0
 21
137.6136999999999
 31
0.0
  0
LINE
  5
AA
330
1E
100
AcDbEntity
  8
0
100
AcDbLine
 10
14.0
 20
134.7853
 30
0.0
 11
14.0
 21
133.7589
 31
0.0
  0
LINE
  5
AB
330
1E
100
AcDbEntity
  8
0
100
AcDbLine
 10
14.0
 20
134.7853
 30
0.0
 11
14.0
 21
135.7371
 31
0.0
  0
LINE
  5
AC
330
1E
100
AcDbEntity
  8
0
100
AcDbLine
 10
14.0
 20
133.7589
 30
0.0
 11
14.0
 21
132.7322
 31
0.0
  0
LINE
  5
AD
330
1E
100
AcDbEntity
  8
0
100
AcDbLine
 10
14.0
 20
133.7589
 30
0.0
 11
14.0
 21
134.7853
 31
0.0
  0
LINE
  5
AE
330
1E
100
AcDbEntity
  8
0
100
AcDbLine
 10
14.0
 20
132.7322
 30
0.0
 11
14.0
 21
131.7474999999999
 31
0.0
  0
LINE
  5
AF
330
1E
100
AcDbEntity
  8
0
100
AcDbLine
 10
14.0
 20
132.7322
 30
0.0
 11
14.0
 21
133.7589
 31
0.0
  0
LINE
  5
B0
330
1E
100
AcDbEntity
  8
0
100
AcDbLine
 10
14.0
 20
131.7474999999999
 30
0.0
 11
14.0
 21
130.9097999999999
 31
0.0
  0
LINE
  5
B1
330
1E
100
AcDbEntity
  8
0
100
AcDbLine
 10
14.0
 20
131.7474999999999
 30
0.0
 11
14.0
 21
132.7322
 31
0.0
  0
LINE
  5
B2
330
1E
100
AcDbEntity
  8
0
100
AcDbLine
 10
14.0
 20
130.9097999999999
 30
0.0
 11
14.0
 21
130.2904
 31
0.0
  0
LINE
  5
B3
330
1E
100
AcDbEntity
  8
0
100
AcDbLine
 10
14.0
 20
130.9097999999999
 30
0.0
 11
14.0
 21
131.7474999999999
 31
0.0
  0
LINE
  5
B4
330
1E
100
AcDbEntity
  8
0
100
AcDbLine
 10
18.5
 20
79.46670000000001
 30
0.0
 11
18.5
 21
87.50570000000001
 31
0.0
  0
LINE
  5
B5
330
1E
100
AcDbEntity
  8
0
100
AcDbLine
 10
18.5
 20
79.46670000000001
 30
0.0
 11
18.5
 21
71.82640000000001
 31
0.0
  0
LINE
  5
B6
330
1E
100
AcDbEntity
  8
0
100
AcDbLine
 10
18.5
 20
127.5012
 30
0.0
 11
18.5
 21
132.2670999999999
 31
0.0
  0
LINE
  5
B7
330
1E
100
AcDbEntity
  8
0
100
AcDbLine
 10
18.5
 20
127.5012
 30
0.0
 11
18.5
 21
120.1265999999999
 31
0.0
  0
LINE
  5
B8
330
1E
100
AcDbEntity
  8
0
100
AcDbLine
 10
18.5
 20
120.1265999999999
 30
0.0
 11
18.5
 21
127.5012
 31
0.0
  0
LINE
  5
B9
330
1E
100
AcDbEntity
  8
0
100
AcDbLine
 10
18.5
 20
120.1265999999999
 30
0.0
 11
18.5
 21
111.5562
 31
0.0
  0
LINE
  5
BA
330
1E
100
AcDbEntity
  8
0
100
AcDbLine
 10
18.5
 20
126.2388999999999
 30
0.0
 11
18.5
 21
118.7979
 31
0.0
  0
LINE
  5
BB
330
1E
100
AcDbEntity
  8
0
100
AcDbLine
 10
18.5
 20
126.2388999999999
 30
0.0
 11
18.5
 21
131.0523
 31
0.0
  0
LINE
  5
BC
330
1E
100
AcDbEntity
  8
0
100
AcDbLine
 10
18.5
 20
111.5562
 30
0.0
 11
18.5
 21
120.1265999999999
 31
0.0
  0
LINE
  5
BD
330
1E
100
AcDbEntity
  8
0
100
AcDbLine
 10
18.5
 20
111.5562
 30
0.0
 11
18.5
 21
102.2549
 31
0.0
  0
LINE
  5
BE
330
1E
100
AcDbEntity
  8
0
100
AcDbLine
 10
18.5
 20
118.7979
 30
0.0
 11
18.5
 21
110.2872
 31
0.0
  0
LINE
  5
BF
330
1E
100
AcDbEntity
  8
0
100
AcDbLine
 10
18.5
 20
118.7979
 30
0.0
 11
18.5
 21
126.2388999999999
 31
0.0
  0
LINE
  5
C0
330
1E
100
AcDbEntity
  8
0
100
AcDbLine
 10
18.5
 20
102.2549
 30
0.0
 11
18.5
 21
111.5562
 31
0.0
  0
LINE
  5
C1
330
1E
100
AcDbEntity
  8
0
100
AcDbLine
 10
18.5
 20
102.2549
 30
0.0
 11
18.5
 21
94.7474
 31
0.0
  0
LINE
  5
C2
330
1E
100
AcDbEntity
  8
0
100
AcDbLine
 10
18.5
 20
110.2872
 30
0.0
 11
18.5
 21
101.3181
 31
0.0
  0
LINE
  5
C3
330
1E
100
AcDbEntity
  8
0
100
AcDbLine
 10
18.5
 20
110.2872
 30
0.0
 11
18.5
 21
118.7979
 31
0.0
  0
LINE
  5
C4
330
1E
100
AcDbEntity
  8
0
100
AcDbLine
 10
18.5
 20
94.7474
 30
0.0
 11
18.5
 21
102.2549
 31
0.0
  0
LINE
  5
C5
330
1E
100
AcDbEntity
  8
0
100
AcDbLine
 10
18.5
 20
94.7474
 30
0.0
 11
18.5
 21
87.50570000000001
 31
0.0
  0
LINE
  5
C6
330
1E
100
AcDbEntity
  8
0
100
AcDbLine
 10
18.5
 20
101.3181
 30
0.0
 11
18.5
 21
93.81069999999999
 31
0.0
  0
LINE
  5
C7
330
1E
100
AcDbEntity
  8
0
100
AcDbLine
 10
18.5
 20
101.3181
 30
0.0
 11
18.5
 21
110.2872
 31
0.0
  0
LINE
  5
C8
330
1E
100
AcDbEntity
  8
0
100
AcDbLine
 10
18.5
 20
87.50570000000001
 30
0.0
 11
18.5
 21
94.7474
 31
0.0
  0
LINE
  5
C9
330
1E
100
AcDbEntity
  8
0
100
AcDbLine
 10
18.5
 20
87.50570000000001
 30
0.0
 11
18.5
 21
79.46670000000001
 31
0.0
  0
LINE
  5
CA
330
1E
100
AcDbEntity
  8
0
100
AcDbLine
 10
18.5
 20
93.81069999999999
 30
0.0
 11
18.5
 21
86.83469999999999
 31
0.0
  0
LINE
  5
CB
330
1E
100
AcDbEntity
  8
0
100
AcDbLine
 10
18.5
 20
93.81069999999999
 30
0.0
 11
18.5
 21
101.3181
 31
0.0
  0
LINE
  5
CC
330
1E
100
AcDbEntity
  8
0
100
AcDbLine
 10
18.5
 20
86.83469999999999
 30
0.0
 11
18.5
 21
78.7293
 31
0.0
  0
LINE
  5
CD
330
1E
100
AcDbEntity
  8
0
100
AcDbLine
 10
18.5
 20
86.83469999999999
 30
0.0
 11
18.5
 21
93.81069999999999
 31
0.0
  0
LINE
  5
CE
330
1E
100
AcDbEntity
  8
0
100
AcDbLine
 10
18.5
 20
78.7293
 30
0.0
 11
18.5
 21
71.48759
 31
0.0
  0
LINE
  5
CF
330
1E
100
AcDbEntity
  8
0
100
AcDbLine
 10
18.5
 20
78.7293
 30
0.0
 11
18.5
 21
86.83469999999999
 31
0.0
  0
LINE
  5
D0
330
1E
100
AcDbEntity
  8
0
100
AcDbLine
 10
18.5
 20
127.7908
 30
0.0
 11
18.5
 21
127.3079999999999
 31
0.0
  0
LINE
  5
D1
330
1E
100
AcDbEntity
  8
0
100
AcDbLine
 10
18.5
 20
127.7908
 30
0.0
 11
18.5
 21
129.9366
 31
0.0
  0
LINE
  5
D2
330
1E
100
AcDbEntity
  8
0
100
AcDbLine
 10
18.5
 20
127.3079999999999
 30
0.0
 11
18.5
 21
128.4861999999999
 31
0.0
  0
LINE
  5
D3
330
1E
100
AcDbEntity
  8
0
100
AcDbLine
 10
18.5
 20
127.3079999999999
 30
0.0
 11
18.5
 21
127.7908
 31
0.0
  0
LINE
  5
D4
330
1E
100
AcDbEntity
  8
0
100
AcDbLine
 10
18.5
 20
129.0757999999999
 30
0.0
 11
18.5
 21
128.7551
 31
0.0
  0
LINE
  5
D5
330
1E
100
AcDbEntity
  8
0
100
AcDbLine
 10
18.5
 20
129.0757999999999
 30
0.0
 11
18.5
 21
130.8165999999999
 31
0.0
  0
LINE
  5
D6
330
1E
100
AcDbEntity
  8
0
100
AcDbLine
 10
18.5
 20
128.7551
 30
0.0
 11
18.5
 21
129.0757999999999
 31
0.0
  0
LINE
  5
D7
330
1E
100
AcDbEntity
  8
0
100
AcDbLine
 10
18.5
 20
128.7551
 30
0.0
 11
18.5
 21
129.7008999999999
 31
0.0
  0
LINE
  5
D8
330
1E
100
AcDbEntity
  8
0
100
AcDbLine
 10
18.5
 20
128.4861999999999
 30
0.0
 11
18.5
 21
129.7603999999999
 31
0.0
  0
LINE
  5
D9
330
1E
100
AcDbEntity
  8
0
100
AcDbLine
 10
18.5
 20
128.4861999999999
 30
0.0
 11
18.5
 21
127.3079999999999
 31
0.0
  0
LINE
  5
DA
330
1E
100
AcDbEntity
  8
0
100
AcDbLine
 10
18.5
 20
132.2670999999999
 30
0.0
 11
18.5
 21
136.1814999999999
 31
0.0
  0
LINE
  5
DB
330
1E
100
AcDbEntity
  8
0
100
AcDbLine
 10
18.5
 20
132.2670999999999
 30
0.0
 11
18.5
 21
127.5012
 31
0.0
  0
LINE
  5
DC
330
1E
100
AcDbEntity
  8
0
100
AcDbLine
 10
18.5
 20
131.0523
 30
0.0
 11
18.5
 21
134.9668
 31
0.0
  0
LINE
  5
DD
330
1E
100
AcDbEntity
  8
0
100
AcDbLine
 10
18.5
 20
131.0523
 30
0.0
 11
18.5
 21
126.2388999999999
 31
0.0
  0
LINE
  5
DE
330
1E
100
AcDbEntity
  8
0
100
AcDbLine
 10
18.5
 20
134.9668
 30
0.0
 11
18.5
 21
137.2124
 31
0.0
  0
LINE
  5
DF
330
1E
100
AcDbEntity
  8
0
100
AcDbLine
 10
18.5
 20
134.9668
 30
0.0
 11
18.5
 21
131.0523
 31
0.0
  0
LINE
  5
E0
330
1E
100
AcDbEntity
  8
0
100
AcDbLine
 10
18.5
 20
137.2124
 30
0.0
 11
18.5
 21
137.7991
 31
0.0
  0
LINE
  5
E1
330
1E
100
AcDbEntity
  8
0
100
AcDbLine
 10
18.5
 20
137.2124
 30
0.0
 11
18.5
 21
134.9668
 31
0.0
  0
LINE
  5
E2
330
1E
100
AcDbEntity
  8
0
100
AcDbLine
 10
18.5
 20
136.1814999999999
 30
0.0
 11
18.5
 21
132.2670999999999
 31
0.0
  0
LINE
  5
E3
330
1E
100
AcDbEntity
  8
0
100
AcDbLine
 10
18.5
 20
136.1814999999999
 30
0.0
 11
18.5
 21
138.4271999999999
 31
0.0
  0
LINE
  5
E4
330
1E
100
AcDbEntity
  8
0
100
AcDbLine
 10
18.5
 20
133.1359999999999
 30
0.0
 11
18.5
 21
129.9366
 31
0.0
  0
LINE
  5
E5
330
1E
100
AcDbEntity
  8
0
100
AcDbLine
 10
18.5
 20
133.1359999999999
 30
0.0
 11
18.5
 21
133.4486
 31
0.0
  0
LINE
  5
E6
330
1E
100
AcDbEntity
  8
0
100
AcDbLine
 10
18.5
 20
133.4486
 30
0.0
 11
18.5
 21
133.1359999999999
 31
0.0
  0
LINE
  5
E7
330
1E
100
AcDbEntity
  8
0
100
AcDbLine
 10
18.5
 20
133.4486
 30
0.0
 11
18.5
 21
130.8165999999999
 31
0.0
  0
LINE
  5
E8
330
1E
100
AcDbEntity
  8
0
100
AcDbLine
 10
18.5
 20
130.8165999999999
 30
0.0
 11
18.5
 21
129.0757999999999
 31
0.0
  0
LINE
  5
E9
330
1E
100
AcDbEntity
  8
0
100
AcDbLine
 10
18.5
 20
130.8165999999999
 30
0.0
 11
18.5
 21
133.4486
 31
0.0
  0
LINE
  5
EA
330
1E
100
AcDbEntity
  8
0
100
AcDbLine
 10
18.5
 20
129.9366
 30
0.0
 11
18.5
 21
127.7908
 31
0.0
  0
LINE
  5
EB
330
1E
100
AcDbEntity
  8
0
100
AcDbLine
 10
18.5
 20
129.9366
 30
0.0
 11
18.5
 21
133.1359999999999
 31
0.0
  0
LINE
  5
EC
330
1E
100
AcDbEntity
  8
0
100
AcDbLine
 10
18.5
 20
129.7008999999999
 30
0.0
 11
18.5
 21
129.7603999999999
 31
0.0
  0
LINE
  5
ED
330
1E
100
AcDbEntity
  8
0
100
AcDbLine
 10
18.5
 20
129.7008999999999
 30
0.0
 11
18.5
 21
128.7551
 31
0.0
  0
LINE
  5
EE
330
1E
100
AcDbEntity
  8
0
100
AcDbLine
 10
18.5
 20
129.7603999999999
 30
0.0
 11
18.5
 21
128.4861999999999
 31
0.0
  0
LINE
  5
EF
330
1E
100
AcDbEntity
  8
0
100
AcDbLine
 10
18.5
 20
129.7603999999999
 30
0.0
 11
18.5
 21
129.7008999999999
 31
0.0
  0
LINE
  5
F0
330
1E
100
AcDbEntity
  8
0
100
AcDbLine
 10
18.5
 20
137.7991
 30
0.0
 11
18.5
 21
138.7448999999999
 31
0.0
  0
LINE
  5
F1
330
1E
100
AcDbEntity
  8
0
100
AcDbLine
 10
18.5
 20
137.7991
 30
0.0
 11
18.5
 21
137.2124
 31
0.0
  0
LINE
  5
F2
330
1E
100
AcDbEntity
  8
0
100
AcDbLine
 10
18.5
 20
138.4271999999999
 30
0.0
 11
18.5
 21
136.1814999999999
 31
0.0
  0
LINE
  5
F3
330
1E
100
AcDbEntity
  8
0
100
AcDbLine
 10
18.5
 20
138.4271999999999
 30
0.0
 11
18.5
 21
139.0138
 31
0.0
  0
LINE
  5
F4
330
1E
100
AcDbEntity
  8
0
100
AcDbLine
 10
18.5
 20
139.0138
 30
0.0
 11
18.5
 21
140.192
 31
0.0
  0
LINE
  5
F5
330
1E
100
AcDbEntity
  8
0
100
AcDbLine
 10
18.5
 20
139.0138
 30
0.0
 11
18.5
 21
138.4271999999999
 31
0.0
  0
LINE
  5
F6
330
1E
100
AcDbEntity
  8
0
100
AcDbLine
 10
18.5
 20
138.7448999999999
 30
0.0
 11
18.5
 21
137.7991
 31
0.0
  0
LINE
  5
F7
330
1E
100
AcDbEntity
  8
0
100
AcDbLine
 10
18.5
 20
138.7448999999999
 30
0.0
 11
18.5
 21
138.4242
 31
0.0
  0
LINE
  5
F8
330
1E
100
AcDbEntity
  8
0
100
AcDbLine
 10
18.5
 20
140.192
 30
0.0
 11
18.5
 21
139.7092
 31
0.0
  0
LINE
  5
F9
330
1E
100
AcDbEntity
  8
0
100
AcDbLine
 10
18.5
 20
140.192
 30
0.0
 11
18.5
 21
139.0138
 31
0.0
  0
LINE
  5
FA
330
1E
100
AcDbEntity
  8
0
100
AcDbLine
 10
18.5
 20
140.192
 30
0.0
 11
68.0
 21
140.192
 31
0.0
  0
LINE
  5
FB
330
1E
100
AcDbEntity
  8
0
100
AcDbLine
 10
18.5
 20
138.4242
 30
0.0
 11
18.5
 21
138.7448999999999
 31
0.0
  0
LINE
  5
FC
330
1E
100
AcDbEntity
  8
0
100
AcDbLine
 10
18.5
 20
138.4242
 30
0.0
 11
18.5
 21
137.7396
 31
0.0
  0
LINE
  5
FD
330
1E
100
AcDbEntity
  8
0
100
AcDbLine
 10
18.5
 20
139.7092
 30
0.0
 11
18.5
 21
137.7396
 31
0.0
  0
LINE
  5
FE
330
1E
100
AcDbEntity
  8
0
100
AcDbLine
 10
18.5
 20
139.7092
 30
0.0
 11
18.5
 21
140.192
 31
0.0
  0
LINE
  5
FF
330
1E
100
AcDbEntity
  8
0
100
AcDbLine
 10
18.5
 20
137.7396
 30
0.0
 11
18.5
 21
138.4242
 31
0.0
  0
LINE
  5
100
330
1E
100
AcDbEntity
  8
0
100
AcDbLine
 10
18.5
 20
137.7396
 30
0.0
 11
18.5
 21
139.7092
 31
0.0
  0
LINE
  5
101
330
1E
100
AcDbEntity
  8
0
100
AcDbLine
 10
14.0
 20
130.2904
 30
0.0
 11
14.0
 21
129.8863
 31
0.0
  0
LINE
  5
102
330
1E
100
AcDbEntity
  8
0
100
AcDbLine
 10
14.0
 20
130.2904
 30
0.0
 11
14.0
 21
130.9097999999999
 31
0.0
  0
LINE
  5
103
330
1E
100
AcDbEntity
  8
0
100
AcDbLine
 10
8.204439999999999
 20
72.3626
 30
0.0
 11
8.767970308917039
 21
71.0484887986552
 31
0.0
  0
LINE
  5
104
330
1E
100
AcDbEntity
  8
0
100
AcDbLine
 10
8.0
 20
73.8626
 30
0.0
 11
8.204439999999999
 21
72.3626
 31
0.0
  0
LINE
  5
105
330
1E
100
AcDbEntity
  8
0
100
AcDbLine
 10
8.0
 20
73.8626
 30
0.0
 11
8.0
 21
81.59
 31
0.0
  0
LINE
  5
106
330
1E
100
AcDbEntity
  8
0
100
AcDbLine
 10
9.65554
 20
69.93120000000001
 30
0.0
 11
10.92799999999999
 21
68.98806999999999
 31
0.0
  0
LINE
  5
107
330
1E
100
AcDbEntity
  8
0
100
AcDbLine
 10
48.69698734177219
 20
140.192
 30
0.0
 11
48.9
 21
141.65
 31
0.0
  0
LINE
  5
108
330
1E
100
AcDbEntity
  8
0
100
AcDbLine
 10
51.9
 20
149.05
 30
0.0
 11
56.9
 21
155.3499999999999
 31
0.0
  0
LINE
  5
109
330
1E
100
AcDbEntity
  8
0
100
AcDbLine
 10
48.9
 20
141.65
 30
0.0
 11
51.9
 21
149.05
 31
0.0
  0
LINE
  5
10A
330
1E
100
AcDbEntity
  8
0
100
AcDbLine
 10
51.7
 20
149.15
 30
0.0
 11
56.6
 21
155.6499999999999
 31
0.0
  0
LINE
  5
10B
330
1E
100
AcDbEntity
  8
0
100
AcDbLine
 10
48.6
 20
141.7499999999999
 30
0.0
 11
51.7
 21
149.15
 31
0.0
  0
LINE
  5
10C
330
1E
100
AcDbEntity
  8
0
100
AcDbLine
 10
48.385775
 20
140.192
 30
0.0
 11
48.6
 21
141.7499999999999
 31
0.0
  0
LINE
  5
10D
330
1E
100
AcDbEntity
  8
0
100
AcDbLine
 10
56.9
 20
155.3499999999999
 30
0.0
 11
63.2
 21
160.3499999999999
 31
0.0
  0
LINE
  5
10E
330
1E
100
AcDbEntity
  8
0
100
AcDbLine
 10
56.6
 20
155.6499999999999
 30
0.0
 11
63.1
 21
160.55
 31
0.0
  0
LINE
  5
10F
330
1E
100
AcDbEntity
  8
0
100
AcDbLine
 10
68.0
 20
138.4271999999999
 30
0.0
 11
68.7145
 21
136.1814999999999
 31
0.0
  0
LINE
  5
110
330
1E
100
AcDbEntity
  8
0
100
AcDbLine
 10
68.0
 20
138.4271999999999
 30
0.0
 11
68.0
 21
139.0138
 31
0.0
  0
LINE
  5
111
330
1E
100
AcDbEntity
  8
0
100
AcDbLine
 10
68.0
 20
139.0138
 30
0.0
 11
68.0
 21
140.192
 31
0.0
  0
LINE
  5
112
330
1E
100
AcDbEntity
  8
0
100
AcDbLine
 10
68.0
 20
139.0138
 30
0.0
 11
68.0
 21
138.4271999999999
 31
0.0
  0
LINE
  5
113
330
1E
100
AcDbEntity
  8
0
100
AcDbLine
 10
68.0
 20
140.192
 30
0.0
 11
68.0
 21
139.0138
 31
0.0
  0
LINE
  5
114
330
1E
100
AcDbEntity
  8
0
100
AcDbLine
 10
68.2187692924255
 20
137.7396
 30
0.0
 11
71.5723018867925
 21
137.7396
 31
0.0
  0
LINE
  5
115
330
1E
100
AcDbEntity
  8
0
100
AcDbLine
 10
68.7145
 20
136.1814999999999
 30
0.0
 11
71.12709999999999
 21
134.0146999999999
 31
0.0
  0
LINE
  5
116
330
1E
100
AcDbEntity
  8
0
100
AcDbLine
 10
68.2187692924255
 20
137.7396
 30
0.0
 11
71.5723018867924
 21
137.7396
 31
0.0
  0
LINE
  5
117
330
1E
100
AcDbEntity
  8
0
100
AcDbLine
 10
63.2
 20
160.3499999999999
 30
0.0
 11
70.59999999999999
 21
163.3499999999999
 31
0.0
  0
LINE
  5
118
330
1E
100
AcDbEntity
  8
0
100
AcDbLine
 10
71.12709999999999
 20
134.0146999999999
 30
0.0
 11
74.7717
 21
132.6304
 31
0.0
  0
LINE
  5
119
330
1E
100
AcDbEntity
  8
0
100
AcDbLine
 10
70.77499081081079
 20
134.330935675676
 30
0.0
 11
70.98
 21
135.7659999999999
 31
0.0
  0
LINE
  5
11A
330
1E
100
AcDbEntity
  8
0
100
AcDbLine
 10
70.98
 20
135.7659999999999
 30
0.0
 11
71.74800000000001
 21
137.622
 31
0.0
  0
LINE
  5
11B
330
1E
100
AcDbEntity
  8
0
100
AcDbLine
 10
70.60336948759
 20
134.4850719117509
 30
0.0
 11
70.788
 21
135.7979999999999
 31
0.0
  0
LINE
  5
11C
330
1E
100
AcDbEntity
  8
0
100
AcDbLine
 10
71.74800000000001
 20
137.622
 30
0.0
 11
72.99600000000001
 21
139.2539999999999
 31
0.0
  0
LINE
  5
11D
330
1E
100
AcDbEntity
  8
0
100
AcDbLine
 10
72.99600000000001
 20
139.2539999999999
 30
0.0
 11
74.628
 21
140.502
 31
0.0
  0
LINE
  5
11E
330
1E
100
AcDbEntity
  8
0
100
AcDbLine
 10
71.5723018867924
 20
137.7396
 30
0.0
 11
72.83599999999999
 21
139.4139999999999
 31
0.0
  0
LINE
  5
120
330
1E
100
AcDbEntity
  8
0
100
AcDbLine
 10
72.83599999999999
 20
139.4139999999999
 30
0.0
 11
74.53199999999999
 21
140.6939999999999
 31
0.0
  0
LINE
  5
121
330
1E
100
AcDbEntity
  8
0
100
AcDbLine
 10
78.5
 20
35.2566
 30
0.0
 11
133.4999999999999
 21
35.2566
 31
0.0
  0
LINE
  5
122
330
1E
100
AcDbEntity
  8
0
100
AcDbLine
 10
78.5
 20
132.2670999999999
 30
0.0
 11
82.2283
 21
132.6304
 31
0.0
  0
LINE
  5
123
330
1E
100
AcDbEntity
  8
0
100
AcDbLine
 10
74.7717
 20
132.6304
 30
0.0
 11
78.5
 21
132.2670999999999
 31
0.0
  0
LINE
  5
124
330
1E
100
AcDbEntity
  8
0
100
AcDbLine
 10
74.628
 20
140.502
 30
0.0
 11
76.48399999999999
 21
141.27
 31
0.0
  0
LINE
  5
125
330
1E
100
AcDbEntity
  8
0
100
AcDbLine
 10
76.48399999999999
 20
141.27
 30
0.0
 11
78.5
 21
141.558
 31
0.0
  0
LINE
  5
126
330
1E
100
AcDbEntity
  8
0
100
AcDbLine
 10
74.53199999999999
 20
140.6939999999999
 30
0.0
 11
76.45199999999999
 21
141.462
 31
0.0
  0
LINE
  5
127
330
1E
100
AcDbEntity
  8
0
100
AcDbLine
 10
80.516
 20
141.27
 30
0.0
 11
82.37200000000001
 21
140.502
 31
0.0
  0
LINE
  5
128
330
1E
100
AcDbEntity
  8
0
100
AcDbLine
 10
78.5
 20
141.558
 30
0.0
 11
80.516
 21
141.27
 31
0.0
  0
LINE
  5
129
330
1E
100
AcDbEntity
  8
0
100
AcDbLine
 10
82.2283
 20
132.6304
 30
0.0
 11
85.87290000000001
 21
134.0146999999999
 31
0.0
  0
LINE
  5
12A
330
1E
100
AcDbEntity
  8
0
100
AcDbLine
 10
84.00399999999999
 20
139.2539999999999
 30
0.0
 11
85.25200000000001
 21
137.622
 31
0.0
  0
LINE
  5
12B
330
1E
100
AcDbEntity
  8
0
100
AcDbLine
 10
82.37200000000001
 20
140.502
 30
0.0
 11
84.00399999999999
 21
139.2539999999999
 31
0.0
  0
LINE
  5
12C
330
1E
100
AcDbEntity
  8
0
100
AcDbLine
 10
85.87290000000001
 20
134.0146999999999
 30
0.0
 11
88.28549999999999
 21
136.1814999999999
 31
0.0
  0
LINE
  5
12D
330
1E
100
AcDbEntity
  8
0
100
AcDbLine
 10
86.02
 20
135.7659999999999
 30
0.0
 11
86.22500918918921
 21
134.330935675676
 31
0.0
  0
LINE
  5
12E
330
1E
100
AcDbEntity
  8
0
100
AcDbLine
 10
85.25200000000001
 20
137.622
 30
0.0
 11
86.02
 21
135.7659999999999
 31
0.0
  0
LINE
  5
12F
330
1E
100
AcDbEntity
  8
0
100
AcDbLine
 10
88.28549999999999
 20
136.1814999999999
 30
0.0
 11
89.0
 21
138.4271999999999
 31
0.0
  0
LINE
  5
130
330
1E
100
AcDbEntity
  8
0
100
AcDbLine
 10
86.21199999999999
 20
135.7979999999999
 30
0.0
 11
86.39663051240999
 21
134.4850719117509
 31
0.0
  0
LINE
  5
131
330
1E
100
AcDbEntity
  8
0
100
AcDbLine
 10
89.0
 20
139.0138
 30
0.0
 11
89.0
 21
138.4271999999999
 31
0.0
  0
LINE
  5
132
330
1E
100
AcDbEntity
  8
0
100
AcDbLine
 10
89.0
 20
139.0138
 30
0.0
 11
89.0
 21
140.192
 31
0.0
  0
LINE
  5
133
330
1E
100
AcDbEntity
  8
0
100
AcDbLine
 10
89.0
 20
139.7092
 30
0.0
 11
89.0
 21
140.192
 31
0.0
  0
LINE
  5
134
330
1E
100
AcDbEntity
  8
0
100
AcDbLine
 10
89.0
 20
139.7092
 30
0.0
 11
89.0
 21
138.4271999999999
 31
0.0
  0
LINE
  5
135
330
1E
100
AcDbEntity
  8
0
100
AcDbLine
 10
89.0
 20
140.192
 30
0.0
 11
89.0
 21
139.0138
 31
0.0
  0
LINE
  5
136
330
1E
100
AcDbEntity
  8
0
100
AcDbLine
 10
89.0
 20
140.192
 30
0.0
 11
138.5
 21
140.192
 31
0.0
  0
LINE
  5
137
330
1E
100
AcDbEntity
  8
0
100
AcDbLine
 10
89.0
 20
140.192
 30
0.0
 11
89.0
 21
139.7092
 31
0.0
  0
LINE
  5
138
330
1E
100
AcDbEntity
  8
0
100
AcDbLine
 10
89.0
 20
138.7448999999999
 30
0.0
 11
89.0
 21
138.4271999999999
 31
0.0
  0
LINE
  5
139
330
1E
100
AcDbEntity
  8
0
100
AcDbLine
 10
89.0
 20
138.4271999999999
 30
0.0
 11
89.0
 21
138.7448999999999
 31
0.0
  0
LINE
  5
13A
330
1E
100
AcDbEntity
  8
0
100
AcDbLine
 10
89.0
 20
138.4271999999999
 30
0.0
 11
89.0
 21
139.7092
 31
0.0
  0
LINE
  5
13B
330
1E
100
AcDbEntity
  8
0
100
AcDbLine
 10
89.0
 20
138.4271999999999
 30
0.0
 11
89.0
 21
139.0138
 31
0.0
  0
LINE
  5
13C
330
1E
100
AcDbEntity
  8
0
100
AcDbLine
 10
85.42769811320759
 20
137.7396
 30
0.0
 11
88.7812307075745
 21
137.7396
 31
0.0
  0
LINE
  5
13D
330
1E
100
AcDbEntity
  8
0
100
AcDbLine
 10
85.44400000000001
 20
137.7179999999999
 30
0.0
 11
86.21199999999999
 21
135.7979999999999
 31
0.0
  0
LINE
  5
13E
330
1E
100
AcDbEntity
  8
0
100
AcDbLine
 10
84.16400000000001
 20
139.4139999999999
 30
0.0
 11
85.44400000000001
 21
137.7179999999999
 31
0.0
  0
LINE
  5
13F
330
1E
100
AcDbEntity
  8
0
100
AcDbLine
 10
82.46799999999998
 20
140.6939999999999
 30
0.0
 11
84.16400000000001
 21
139.4139999999999
 31
0.0
  0
LINE
  5
140
330
1E
100
AcDbEntity
  8
0
100
AcDbLine
 10
80.548
 20
141.462
 30
0.0
 11
82.46799999999998
 21
140.6939999999999
 31
0.0
  0
LINE
  5
141
330
1E
100
AcDbEntity
  8
0
100
AcDbLine
 10
78.5
 20
141.7499999999999
 30
0.0
 11
80.548
 21
141.462
 31
0.0
  0
LINE
  5
142
330
1E
100
AcDbEntity
  8
0
100
AcDbLine
 10
93.8
 20
160.3499999999999
 30
0.0
 11
100.0999999999999
 21
155.3499999999999
 31
0.0
  0
LINE
  5
143
330
1E
100
AcDbEntity
  8
0
100
AcDbLine
 10
86.4
 20
163.3499999999999
 30
0.0
 11
93.8
 21
160.3499999999999
 31
0.0
  0
LINE
  5
144
330
1E
100
AcDbEntity
  8
0
100
AcDbLine
 10
128.4999999999999
 20
35.2566
 30
0.0
 11
128.4999999999999
 21
26.1019
 31
0.0
  0
LINE
  5
145
330
1E
100
AcDbEntity
  8
0
100
AcDbLine
 10
128.4999999999999
 20
26.1019
 30
0.0
 11
128.4999999999999
 21
35.2566
 31
0.0
  0
LINE
  5
146
330
1E
100
AcDbEntity
  8
0
100
AcDbLine
 10
128.4999999999999
 20
26.1019
 30
0.0
 11
128.4999999999999
 21
15.5638
 31
0.0
  0
LINE
  5
147
330
1E
100
AcDbEntity
  8
0
100
AcDbLine
 10
128.4999999999999
 20
15.5638
 30
0.0
 11
128.4999999999999
 21
26.1019
 31
0.0
  0
LINE
  5
148
330
1E
100
AcDbEntity
  8
0
100
AcDbLine
 10
128.4999999999999
 20
15.5638
 30
0.0
 11
128.4999999999999
 21
7.383499999999999
 31
0.0
  0
LINE
  5
149
330
1E
100
AcDbEntity
  8
0
100
AcDbLine
 10
128.4999999999999
 20
7.383499999999999
 30
0.0
 11
128.4999999999999
 21
15.5638
 31
0.0
  0
LINE
  5
14A
330
1E
100
AcDbEntity
  8
0
100
AcDbLine
 10
128.4999999999999
 20
7.383499999999999
 30
0.0
 11
128.4999999999999
 21
2.2749
 31
0.0
  0
LINE
  5
14B
330
1E
100
AcDbEntity
  8
0
100
AcDbLine
 10
128.4999999999999
 20
2.2749
 30
0.0
 11
128.4999999999999
 21
7.383499999999999
 31
0.0
  0
LINE
  5
14C
330
1E
100
AcDbEntity
  8
0
100
AcDbLine
 10
128.4999999999999
 20
2.2749
 30
0.0
 11
128.4999999999999
 21
0.250000000000004
 31
0.0
  0
LINE
  5
14D
330
1E
100
AcDbEntity
  8
0
100
AcDbLine
 10
128.4999999999999
 20
0.250000000000004
 30
0.0
 11
128.4999999999999
 21
2.2749
 31
0.0
  0
LINE
  5
14E
330
1E
100
AcDbEntity
  8
0
100
AcDbLine
 10
133.4999999999999
 20
35.2566
 30
0.0
 11
135.9879999999999
 21
35.7441
 31
0.0
  0
LINE
  5
14F
330
1E
100
AcDbEntity
  8
0
100
AcDbLine
 10
135.9879999999999
 20
35.7441
 30
0.0
 11
137.6629999999999
 21
37.3191
 31
0.0
  0
LINE
  5
150
330
1E
100
AcDbEntity
  8
0
100
AcDbLine
 10
137.6629999999999
 20
37.3191
 30
0.0
 11
138.5
 21
40.1658
 31
0.0
  0
LINE
  5
151
330
1E
100
AcDbEntity
  8
0
100
AcDbLine
 10
138.5
 20
55.59336999999999
 30
0.0
 11
138.5
 21
60.763932
 31
0.0
  0
LINE
  5
152
330
1E
100
AcDbEntity
  8
0
100
AcDbLine
 10
138.5
 20
55.59336999999999
 30
0.0
 11
138.5
 21
51.1447
 31
0.0
  0
LINE
  5
153
330
1E
100
AcDbEntity
  8
0
100
AcDbLine
 10
138.5
 20
51.1447
 30
0.0
 11
138.5
 21
55.59336999999999
 31
0.0
  0
LINE
  5
154
330
1E
100
AcDbEntity
  8
0
100
AcDbLine
 10
138.5
 20
51.1447
 30
0.0
 11
138.5
 21
46.10249999999999
 31
0.0
  0
LINE
  5
155
330
1E
100
AcDbEntity
  8
0
100
AcDbLine
 10
138.5
 20
46.10249999999999
 30
0.0
 11
138.5
 21
51.1447
 31
0.0
  0
LINE
  5
156
330
1E
100
AcDbEntity
  8
0
100
AcDbLine
 10
138.5
 20
46.10249999999999
 30
0.0
 11
138.5
 21
40.1658
 31
0.0
  0
LINE
  5
157
330
1E
100
AcDbEntity
  8
0
100
AcDbLine
 10
138.5
 20
40.1658
 30
0.0
 11
138.5
 21
46.10249999999999
 31
0.0
  0
LINE
  5
158
330
1E
100
AcDbEntity
  8
0
100
AcDbLine
 10
143.0
 20
60.2137
 30
0.0
 11
146.586
 21
60.66974
 31
0.0
  0
LINE
  5
159
330
1E
100
AcDbEntity
  8
0
100
AcDbLine
 10
138.5
 20
65.92116999999999
 30
0.0
 11
138.5
 21
71.82640000000001
 31
0.0
  0
LINE
  5
15A
330
1E
100
AcDbEntity
  8
0
100
AcDbLine
 10
138.5
 20
65.92116999999999
 30
0.0
 11
138.5
 21
60.763932
 31
0.0
  0
LINE
  5
15B
330
1E
100
AcDbEntity
  8
0
100
AcDbLine
 10
138.5
 20
60.763932
 30
0.0
 11
138.5
 21
65.92116999999999
 31
0.0
  0
LINE
  5
15C
330
1E
100
AcDbEntity
  8
0
100
AcDbLine
 10
138.5
 20
60.763932
 30
0.0
 11
138.5
 21
55.59336999999999
 31
0.0
  0
LINE
  5
15D
330
1E
100
AcDbEntity
  8
0
100
AcDbLine
 10
138.5
 20
60.2137
 30
0.0
 11
143.0
 21
60.2137
 31
0.0
  0
LINE
  5
15E
330
1E
100
AcDbEntity
  8
0
100
AcDbLine
 10
146.586
 20
60.66974
 30
0.0
 11
149.9279999999999
 21
62.00679799999999
 31
0.0
  0
LINE
  5
15F
330
1E
100
AcDbEntity
  8
0
100
AcDbLine
 10
149.9279999999999
 20
62.00679799999999
 30
0.0
 11
152.798
 21
64.13374000000001
 31
0.0
  0
LINE
  5
160
330
1E
100
AcDbEntity
  8
0
100
AcDbLine
 10
152.798
 20
64.13374000000001
 30
0.0
 11
155.0
 21
66.90563
 31
0.0
  0
LINE
  5
161
330
1E
100
AcDbEntity
  8
0
100
AcDbLine
 10
155.0
 20
66.90563
 30
0.0
 11
155.1239999999999
 21
67.10111999999999
 31
0.0
  0
LINE
  5
162
330
1E
100
AcDbEntity
  8
0
100
AcDbLine
 10
155.1239999999999
 20
67.10111999999999
 30
0.0
 11
156.5229999999999
 21
70.3626
 31
0.0
  0
LINE
  5
163
330
1E
100
AcDbEntity
  8
0
100
AcDbLine
 10
143.0
 20
68.19298
 30
0.0
 11
144.5899999999999
 21
68.3952
 31
0.0
  0
LINE
  5
164
330
1E
100
AcDbEntity
  8
0
100
AcDbLine
 10
138.5
 20
71.82640000000001
 30
0.0
 11
138.5
 21
79.46670000000001
 31
0.0
  0
LINE
  5
165
330
1E
100
AcDbEntity
  8
0
100
AcDbLine
 10
138.5
 20
71.82640000000001
 30
0.0
 11
138.5
 21
65.92116999999999
 31
0.0
  0
LINE
  5
166
330
1E
100
AcDbEntity
  8
0
100
AcDbLine
 10
138.5
 20
79.46670000000001
 30
0.0
 11
138.5
 21
87.50570000000001
 31
0.0
  0
LINE
  5
167
330
1E
100
AcDbEntity
  8
0
100
AcDbLine
 10
138.5
 20
79.46670000000001
 30
0.0
 11
138.5
 21
71.82640000000001
 31
0.0
  0
LINE
  5
168
330
1E
100
AcDbEntity
  8
0
100
AcDbLine
 10
138.5
 20
87.50570000000001
 30
0.0
 11
138.5
 21
94.7474
 31
0.0
  0
LINE
  5
169
330
1E
100
AcDbEntity
  8
0
100
AcDbLine
 10
138.5
 20
87.50570000000001
 30
0.0
 11
138.5
 21
79.46670000000001
 31
0.0
  0
LINE
  5
16A
330
1E
100
AcDbEntity
  8
0
100
AcDbLine
 10
138.5
 20
94.7474
 30
0.0
 11
138.5
 21
102.2549
 31
0.0
  0
LINE
  5
16B
330
1E
100
AcDbEntity
  8
0
100
AcDbLine
 10
138.5
 20
94.7474
 30
0.0
 11
138.5
 21
87.50570000000001
 31
0.0
  0
LINE
  5
16C
330
1E
100
AcDbEntity
  8
0
100
AcDbLine
 10
138.5
 20
102.2549
 30
0.0
 11
138.5
 21
111.5562
 31
0.0
  0
LINE
  5
16D
330
1E
100
AcDbEntity
  8
0
100
AcDbLine
 10
138.5
 20
102.2549
 30
0.0
 11
138.5
 21
94.7474
 31
0.0
  0
LINE
  5
16E
330
1E
100
AcDbEntity
  8
0
100
AcDbLine
 10
138.5
 20
111.5562
 30
0.0
 11
138.5
 21
120.1265999999999
 31
0.0
  0
LINE
  5
16F
330
1E
100
AcDbEntity
  8
0
100
AcDbLine
 10
138.5
 20
111.5562
 30
0.0
 11
138.5
 21
102.2549
 31
0.0
  0
LINE
  5
170
330
1E
100
AcDbEntity
  8
0
100
AcDbLine
 10
138.5
 20
120.1265999999999
 30
0.0
 11
138.5
 21
127.5012
 31
0.0
  0
LINE
  5
171
330
1E
100
AcDbEntity
  8
0
100
AcDbLine
 10
138.5
 20
120.1265999999999
 30
0.0
 11
138.5
 21
111.5562
 31
0.0
  0
LINE
  5
172
330
1E
100
AcDbEntity
  8
0
100
AcDbLine
 10
138.5
 20
127.5012
 30
0.0
 11
138.5
 21
132.2670999999999
 31
0.0
  0
LINE
  5
173
330
1E
100
AcDbEntity
  8
0
100
AcDbLine
 10
138.5
 20
127.5012
 30
0.0
 11
138.5
 21
120.1265999999999
 31
0.0
  0
LINE
  5
174
330
1E
100
AcDbEntity
  8
0
100
AcDbLine
 10
138.5
 20
132.2670999999999
 30
0.0
 11
138.5
 21
136.1814999999999
 31
0.0
  0
LINE
  5
175
330
1E
100
AcDbEntity
  8
0
100
AcDbLine
 10
138.5
 20
132.2670999999999
 30
0.0
 11
138.5
 21
127.5012
 31
0.0
  0
LINE
  5
176
330
1E
100
AcDbEntity
  8
0
100
AcDbLine
 10
138.5
 20
136.1814999999999
 30
0.0
 11
138.5
 21
138.4271999999999
 31
0.0
  0
LINE
  5
177
330
1E
100
AcDbEntity
  8
0
100
AcDbLine
 10
138.5
 20
136.1814999999999
 30
0.0
 11
138.5
 21
132.2670999999999
 31
0.0
  0
LINE
  5
178
330
1E
100
AcDbEntity
  8
0
100
AcDbLine
 10
138.5
 20
129.7603999999999
 30
0.0
 11
143.0
 21
129.7603999999999
 31
0.0
  0
LINE
  5
179
330
1E
100
AcDbEntity
  8
0
100
AcDbLine
 10
144.5899999999999
 20
129.5581
 30
0.0
 11
146.072
 21
128.9653
 31
0.0
  0
LINE
  5
17A
330
1E
100
AcDbEntity
  8
0
100
AcDbLine
 10
143.0
 20
129.7603999999999
 30
0.0
 11
144.5899999999999
 21
129.5581
 31
0.0
  0
LINE
  5
17B
330
1E
100
AcDbEntity
  8
0
100
AcDbLine
 10
138.5
 20
137.7396
 30
0.0
 11
143.0
 21
137.7396
 31
0.0
  0
LINE
  5
17C
330
1E
100
AcDbEntity
  8
0
100
AcDbLine
 10
138.5
 20
140.192
 30
0.0
 11
138.5
 21
139.0138
 31
0.0
  0
LINE
  5
17D
330
1E
100
AcDbEntity
  8
0
100
AcDbLine
 10
138.5
 20
138.4271999999999
 30
0.0
 11
138.5
 21
139.0138
 31
0.0
  0
LINE
  5
17E
330
1E
100
AcDbEntity
  8
0
100
AcDbLine
 10
138.5
 20
138.4271999999999
 30
0.0
 11
138.5
 21
136.1814999999999
 31
0.0
  0
LINE
  5
17F
330
1E
100
AcDbEntity
  8
0
100
AcDbLine
 10
138.5
 20
139.0138
 30
0.0
 11
138.5
 21
140.192
 31
0.0
  0
LINE
  5
180
330
1E
100
AcDbEntity
  8
0
100
AcDbLine
 10
138.5
 20
139.0138
 30
0.0
 11
138.5
 21
138.4271999999999
 31
0.0
  0
LINE
  5
181
330
1E
100
AcDbEntity
  8
0
100
AcDbLine
 10
143.0
 20
137.7396
 30
0.0
 11
146.586
 21
137.2836
 31
0.0
  0
LINE
  5
182
330
1E
100
AcDbEntity
  8
0
100
AcDbLine
 10
147.3439999999999
 20
128.0221
 30
0.0
 11
148.231689168224
 21
126.905356134428
 31
0.0
  0
LINE
  5
183
330
1E
100
AcDbEntity
  8
0
100
AcDbLine
 10
146.072
 20
128.9653
 30
0.0
 11
147.3439999999999
 21
128.0221
 31
0.0
  0
LINE
  5
184
330
1E
100
AcDbEntity
  8
0
100
AcDbLine
 10
146.586
 20
137.2836
 30
0.0
 11
149.9279999999999
 21
135.9464999999999
 31
0.0
  0
LINE
  5
185
330
1E
100
AcDbEntity
  8
0
100
AcDbLine
 10
156.5229999999999
 20
70.3626
 30
0.0
 11
157.0
 21
73.8626
 31
0.0
  0
LINE
  5
186
330
1E
100
AcDbEntity
  8
0
100
AcDbLine
 10
148.1959999999999
 20
126.9885
 30
0.0
 11
148.7959999999999
 21
125.5907
 31
0.0
  0
LINE
  5
187
330
1E
100
AcDbEntity
  8
0
100
AcDbLine
 10
148.7959999999999
 20
125.5907
 30
0.0
 11
149.0
 21
124.0906999999999
 31
0.0
  0
LINE
  5
188
330
1E
100
AcDbEntity
  8
0
100
AcDbLine
 10
157.0
 20
124.0906999999999
 30
0.0
 11
157.0
 21
73.8626
 31
0.0
  0
LINE
  5
189
330
1E
100
AcDbEntity
  8
0
100
AcDbLine
 10
149.0
 20
73.8626
 30
0.0
 11
149.0
 21
124.0906999999999
 31
0.0
  0
LINE
  5
18A
330
1E
100
AcDbEntity
  8
0
100
AcDbLine
 10
157.0
 20
73.8626
 30
0.0
 11
157.0
 21
124.0906999999999
 31
0.0
  0
LINE
  5
18B
330
1E
100
AcDbEntity
  8
0
100
AcDbLine
 10
149.9279999999999
 20
135.9464999999999
 30
0.0
 11
152.798
 21
133.8196
 31
0.0
  0
LINE
  5
18C
330
1E
100
AcDbEntity
  8
0
100
AcDbLine
 10
152.798
 20
133.8196
 30
0.0
 11
155.0
 21
131.0476999999999
 31
0.0
  0
LINE
  5
18D
330
1E
100
AcDbEntity
  8
0
100
AcDbLine
 10
155.0
 20
131.0476999999999
 30
0.0
 11
155.1239999999999
 21
130.8522
 31
0.0
  0
LINE
  5
18E
330
1E
100
AcDbEntity
  8
0
100
AcDbLine
 10
155.1239999999999
 20
130.8522
 30
0.0
 11
156.5229999999999
 21
127.5906999999999
 31
0.0
  0
LINE
  5
18F
330
1E
100
AcDbEntity
  8
0
100
AcDbLine
 10
156.5229999999999
 20
127.5906999999999
 30
0.0
 11
157.0
 21
124.0906999999999
 31
0.0
  0
LINE
  5
190
330
1E
100
AcDbEntity
  8
0
100
AcDbLine
 10
149.0
 20
124.0906999999999
 30
0.0
 11
149.0
 21
73.8626
 31
0.0
  0
LINE
  5
191
330
1E
100
AcDbEntity
  8
0
100
AcDbLine
 10
148.7959999999999
 20
72.3626
 30
0.0
 11
149.0
 21
73.8626
 31
0.0
  0
LINE
  5
192
330
1E
100
AcDbEntity
  8
0
100
AcDbLine
 10
148.2316800933819
 20
71.0479415348787
 30
0.0
 11
148.7959999999999
 21
72.3626
 31
0.0
  0
LINE
  5
193
330
1E
100
AcDbEntity
  8
0
100
AcDbLine
 10
147.3439999999999
 20
69.93120000000001
 30
0.0
 11
148.3209999999999
 21
71.16030999999999
 31
0.0
  0
LINE
  5
194
330
1E
100
AcDbEntity
  8
0
100
AcDbLine
 10
146.072
 20
68.98806999999999
 30
0.0
 11
147.3439999999999
 21
69.93120000000001
 31
0.0
  0
LINE
  5
195
330
1E
100
AcDbEntity
  8
0
100
AcDbLine
 10
144.5899999999999
 20
68.3952
 30
0.0
 11
146.072
 21
68.98806999999999
 31
0.0
  0
LINE
  5
196
330
1E
100
AcDbEntity
  8
0
100
AcDbLine
 10
138.5
 20
68.19298
 30
0.0
 11
143.0
 21
68.19298
 31
0.0
  0
LINE
  5
197
330
1E
100
AcDbEntity
  8
0
100
AcDbLine
 10
108.0999999999999
 20
141.65
 30
0.0
 11
108.3030126582279
 21
140.192
 31
0.0
  0
LINE
  5
198
330
1E
100
AcDbEntity
  8
0
100
AcDbLine
 10
100.0999999999999
 20
155.3499999999999
 30
0.0
 11
105.0999999999999
 21
149.05
 31
0.0
  0
LINE
  5
199
330
1E
100
AcDbEntity
  8
0
100
AcDbLine
 10
105.0999999999999
 20
149.05
 30
0.0
 11
108.0999999999999
 21
141.65
 31
0.0
  0
LINE
  5
19A
330
1E
100
AcDbEntity
  8
0
100
AcDbLine
 10
100.4
 20
155.6499999999999
 30
0.0
 11
105.2999999999999
 21
149.15
 31
0.0
  0
LINE
  5
19B
330
1E
100
AcDbEntity
  8
0
100
AcDbLine
 10
105.2999999999999
 20
149.15
 30
0.0
 11
108.4
 21
141.7499999999999
 31
0.0
  0
LINE
  5
19C
330
1E
100
AcDbEntity
  8
0
100
AcDbLine
 10
108.4
 20
141.7499999999999
 30
0.0
 11
108.6142249999999
 21
140.192
 31
0.0
  0
LINE
  5
19D
330
1E
100
AcDbEntity
  8
0
100
AcDbLine
 10
93.9
 20
160.55
 30
0.0
 11
100.4
 21
155.6499999999999
 31
0.0
  0
LINE
  5
19E
330
1E
100
AcDbEntity
  8
0
100
AcDbLine
 10
86.5
 20
163.65
 30
0.0
 11
93.9
 21
160.55
 31
0.0
  0
LINE
  5
19F
330
1E
100
AcDbEntity
  8
0
100
AcDbLine
 10
70.59999999999999
 20
163.3499999999999
 30
0.0
 11
78.5
 21
164.4499999999999
 31
0.0
  0
LINE
  5
1A0
330
1E
100
AcDbEntity
  8
0
100
AcDbLine
 10
78.5
 20
164.4499999999999
 30
0.0
 11
86.4
 21
163.3499999999999
 31
0.0
  0
LINE
  5
1A1
330
1E
100
AcDbEntity
  8
0
100
AcDbLine
 10
78.5
 20
164.7499999999999
 30
0.0
 11
86.5
 21
163.65
 31
0.0
  0
LINE
  5
1A2
330
1E
100
AcDbEntity
  8
0
100
AcDbLine
 10
70.5
 20
163.65
 30
0.0
 11
78.5
 21
164.7499999999999
 31
0.0
  0
LINE
  5
1A3
330
1E
100
AcDbEntity
  8
0
100
AcDbLine
 10
63.1
 20
160.55
 30
0.0
 11
70.5
 21
163.65
 31
0.0
  0
LINE
  5
1A8
330
1E
100
AcDbEntity
  8
0
100
AcDbLine
 10
76.45199999999999
 20
141.462
 30
0.0
 11
78.5
 21
141.7499999999999
 31
0.0
  0
LINE
  5
1A9
330
1E
100
AcDbEntity
  8
0
100
AcDbLine
 10
71.5723018867924
 20
137.7396
 30
0.0
 11
70.788
 21
135.7979999999999
 31
0.0
  0
ENDSEC
  0
SECTION
  2
OBJECTS
  0
DICTIONARY
  5
C
330
0
100
AcDbDictionary
281
     1
  3
ACAD_GROUP
350
D
  3
ACAD_LAYOUT
350
19
  3
ACAD_MLINESTYLE
350
16
  3
ACAD_PLOTSETTINGS
350
18
  3
ACAD_PLOTSTYLENAME
350
E
  3
AcDbVariableDictionary
350
1AA
  0
DICTIONARY
  5
D
102
{ACAD_REACTORS
330
C
102
}
330
C
100
AcDbDictionary
281
     1
  0
DICTIONARY
  5
19
102
{ACAD_REACTORS
330
C
102
}
330
C
100
AcDbDictionary
281
     1
  3
Layout1
350
1D
  3
Model
350
21
  0
DICTIONARY
  5
16
102
{ACAD_REACTORS
330
C
102
}
330
C
100
AcDbDictionary
281
     1
  3
Standard
350
17
  0
DICTIONARY
  5
18
102
{ACAD_REACTORS
330
C
102
}
330
C
100
AcDbDictionary
281
     1
  0
ACDBDICTIONARYWDFLT
  5
E
102
{ACAD_REACTORS
330
C
102
}
330
C
100
AcDbDictionary
281
     1
  3
Normal
350
F
100
AcDbDictionaryWithDefault
340
F
  0
DICTIONARY
  5
1AA
102
{ACAD_REACTORS
330
C
102
}
330
C
100
AcDbDictionary
281
     1
  3
DIMASSOC
350
1AB
  0
LAYOUT
  5
1D
102
{ACAD_REACTORS
330
19
102
}
330
19
100
AcDbPlotSettings
  1

  2
hp deskjet 980c series
  4

  6

 40
0.0
 41
0.0
 42
0.0
 43
0.0
 44
0.0
 45
0.0
 46
0.0
 47
0.0
 48
0.0
 49
0.0
140
0.0
141
0.0
142
1.0
143
1.0
 70
   688
 72
     0
 73
     0
 74
     5
  7

 75
    16
147
1.0
148
0.0
149
0.0
100
AcDbLayout
  1
Layout1
 70
     1
 71
     1
 10
0.0
 20
0.0
 11
12.0
 21
9.0
 12
0.0
 22
0.0
 32
0.0
 14
1.000000000000000E+20
 24
1.000000000000000E+20
 34
1.000000000000000E+20
 15
-1.000000000000000E+20
 25
-1.000000000000000E+20
 35
-1.000000000000000E+20
146
0.0
 13
0.0
 23
0.0
 33
0.0
 16
1.0
 26
0.0
 36
0.0
 17
0.0
 27
1.0
 37
0.0
 76
     0
330
1A
  0
LAYOUT
  5
21
102
{ACAD_REACTORS
330
19
102
}
330
19
100
AcDbPlotSettings
  1

  2
hp deskjet 980c series
  4

  6

 40
0.0
 41
0.0
 42
0.0
 43
0.0
 44
0.0
 45
0.0
 46
0.0
 47
0.0
 48
0.0
 49
0.0
140
0.0
141
0.0
142
1.0
143
1.0
 70
  1712
 72
     0
 73
     0
 74
     0
  7

 75
     0
147
1.0
148
0.0
149
0.0
100
AcDbLayout
  1
Model
 70
     1
 71
     0
 10
0.0
 20
0.0
 11
12.0
 21
9.0
 12
0.0
 22
0.0
 32
0.0
 14
0.0
 24
0.0
 34
0.0
 15
0.0
 25
0.0
 35
0.0
146
0.0
 13
0.0
 23
0.0
 33
0.0
 16
1.0
 26
0.0
 36
0.0
 17
0.0
 27
1.0
 37
0.0
 76
     0
330
1E
  0
MLINESTYLE
  5
17
102
{ACAD_REACTORS
330
16
102
}
330
16
100
AcDbMlineStyle
  2
STANDARD
 70
     0
  3

 62
   256
 51
90.0
 52
90.0
 71
     2
 49
0.5
 62
   256
  6
BYLAYER
 49
-0.5
 62
   256
  6
BYLAYER
  0
ACDBPLACEHOLDER
  5
F
102
{ACAD_REACTORS
330
E
102
}
330
E
  0
DICTIONARYVAR
  5
1AB
102
{ACAD_REACTORS
330
1AA
102
}
330
1AA
100
DictionaryVariables
280
     0
  1
1
  0
ENDSEC
  0
EOF
