  0
SECTION
  2
HEADER
  9
$ACADVER
  1
AC1014
  9
$ACADMAINTVER
 70
     9
  9
$DWGCODEPAGE
  3
ANSI_1252
  9
$INSBASE
 10
0.0
 20
0.0
 30
0.0
  9
$EXTMIN
 10
0.114050000000012
 20
0.0408749999999821
 30
0.0
  9
$EXTMAX
 10
168.88595
 20
153.9591249999999
 30
0.0
  9
$LIMMIN
 10
0.0
 20
0.0
  9
$LIMMAX
 10
12.0
 20
9.0
  9
$ORTHOMODE
 70
     0
  9
$REGENMODE
 70
     1
  9
$FILLMODE
 70
     1
  9
$QTEXTMODE
 70
     0
  9
$MIRRTEXT
 70
     1
  9
$DRAGMODE
 70
     2
  9
$LTSCALE
 40
1.0
  9
$OSMODE
 70
    37
  9
$ATTMODE
 70
     1
  9
$TEXTSIZE
 40
0.2
  9
$TRACEWID
 40
0.05
  9
$TEXTSTYLE
  7
STANDARD
  9
$CLAYER
  8
0
  9
$CELTYPE
  6
CONTINUOUS
  9
$CECOLOR
 62
   256
  9
$CELTSCALE
 40
1.0
  9
$DELOBJ
 70
     1
  9
$DISPSILH
 70
     0
  9
$DIMSCALE
 40
1.0
  9
$DIMASZ
 40
0.18
  9
$DIMEXO
 40
0.0625
  9
$DIMDLI
 40
0.38
  9
$DIMRND
 40
0.0
  9
$DIMDLE
 40
0.0
  9
$DIMEXE
 40
0.18
  9
$DIMTP
 40
0.0
  9
$DIMTM
 40
0.0
  9
$DIMTXT
 40
0.18
  9
$DIMCEN
 40
0.09
  9
$DIMTSZ
 40
0.0
  9
$DIMTOL
 70
     0
  9
$DIMLIM
 70
     0
  9
$DIMTIH
 70
     1
  9
$DIMTOH
 70
     1
  9
$DIMSE1
 70
     0
  9
$DIMSE2
 70
     0
  9
$DIMTAD
 70
     0
  9
$DIMZIN
 70
     0
  9
$DIMBLK
  1

  9
$DIMASO
 70
     1
  9
$DIMSHO
 70
     1
  9
$DIMPOST
  1

  9
$DIMAPOST
  1

  9
$DIMALT
 70
     0
  9
$DIMALTD
 70
     2
  9
$DIMALTF
 40
25.4
  9
$DIMLFAC
 40
1.0
  9
$DIMTOFL
 70
     0
  9
$DIMTVP
 40
0.0
  9
$DIMTIX
 70
     0
  9
$DIMSOXD
 70
     0
  9
$DIMSAH
 70
     0
  9
$DIMBLK1
  1

  9
$DIMBLK2
  1

  9
$DIMSTYLE
  2
STANDARD
  9
$DIMCLRD
 70
     0
  9
$DIMCLRE
 70
     0
  9
$DIMCLRT
 70
     0
  9
$DIMTFAC
 40
1.0
  9
$DIMGAP
 40
0.09
  9
$DIMJUST
 70
     0
  9
$DIMSD1
 70
     0
  9
$DIMSD2
 70
     0
  9
$DIMTOLJ
 70
     1
  9
$DIMTZIN
 70
     0
  9
$DIMALTZ
 70
     0
  9
$DIMALTTZ
 70
     0
  9
$DIMFIT
 70
     3
  9
$DIMUPT
 70
     0
  9
$DIMUNIT
 70
     2
  9
$DIMDEC
 70
     4
  9
$DIMTDEC
 70
     4
  9
$DIMALTU
 70
     2
  9
$DIMALTTD
 70
     2
  9
$DIMTXSTY
  7
STANDARD
  9
$DIMAUNIT
 70
     0
  9
$LUNITS
 70
     2
  9
$LUPREC
 70
     4
  9
$SKETCHINC
 40
0.1
  9
$FILLETRAD
 40
0.0
  9
$AUNITS
 70
     0
  9
$AUPREC
 70
     0
  9
$MENU
  1
.
  9
$ELEVATION
 40
0.0
  9
$PELEVATION
 40
0.0
  9
$THICKNESS
 40
0.0
  9
$LIMCHECK
 70
     0
  9
$BLIPMODE
 70
     0
  9
$CHAMFERA
 40
0.0
  9
$CHAMFERB
 40
0.0
  9
$CHAMFERC
 40
0.0
  9
$CHAMFERD
 40
0.0
  9
$SKPOLY
 70
     0
  9
$TDCREATE
 40
2454698.437075555
  9
$TDUPDATE
 40
2454698.440293321
  9
$TDINDWG
 40
0.0032179514
  9
$TDUSRTIMER
 40
0.0032179514
  9
$USRTIMER
 70
     1
  9
$ANGBASE
 50
0.0
  9
$ANGDIR
 70
     0
  9
$PDMODE
 70
     0
  9
$PDSIZE
 40
0.0
  9
$PLINEWID
 40
0.0
  9
$COORDS
 70
     1
  9
$SPLFRAME
 70
     0
  9
$SPLINETYPE
 70
     6
  9
$SPLINESEGS
 70
     8
  9
$ATTDIA
 70
     0
  9
$ATTREQ
 70
     1
  9
$HANDLING
 70
 22529
  9
$HANDSEED
  5
15B
  9
$SURFTAB1
 70
     6
  9
$SURFTAB2
 70
     6
  9
$SURFTYPE
 70
     6
  9
$SURFU
 70
     6
  9
$SURFV
 70
     6
  9
$UCSNAME
  2

  9
$UCSORG
 10
0.0
 20
0.0
 30
0.0
  9
$UCSXDIR
 10
1.0
 20
0.0
 30
0.0
  9
$UCSYDIR
 10
0.0
 20
1.0
 30
0.0
  9
$PUCSNAME
  2

  9
$PUCSORG
 10
0.0
 20
0.0
 30
0.0
  9
$PUCSXDIR
 10
1.0
 20
0.0
 30
0.0
  9
$PUCSYDIR
 10
0.0
 20
1.0
 30
0.0
  9
$USERI1
 70
     0
  9
$USERI2
 70
     0
  9
$USERI3
 70
     0
  9
$USERI4
 70
     0
  9
$USERI5
 70
     0
  9
$USERR1
 40
0.0
  9
$USERR2
 40
0.0
  9
$USERR3
 40
0.0
  9
$USERR4
 40
0.0
  9
$USERR5
 40
0.0
  9
$WORLDVIEW
 70
     1
  9
$SHADEDGE
 70
     3
  9
$SHADEDIF
 70
    70
  9
$TILEMODE
 70
     1
  9
$MAXACTVP
 70
    64
  9
$PINSBASE
 10
0.0
 20
0.0
 30
0.0
  9
$PLIMCHECK
 70
     0
  9
$PEXTMIN
 10
1.000000000000000E+20
 20
1.000000000000000E+20
 30
1.000000000000000E+20
  9
$PEXTMAX
 10
-1.000000000000000E+20
 20
-1.000000000000000E+20
 30
-1.000000000000000E+20
  9
$PLIMMIN
 10
0.0
 20
0.0
  9
$PLIMMAX
 10
12.0
 20
9.0
  9
$UNITMODE
 70
     0
  9
$VISRETAIN
 70
     1
  9
$PLINEGEN
 70
     0
  9
$PSLTSCALE
 70
     1
  9
$TREEDEPTH
 70
  3020
  9
$PICKSTYLE
 70
     1
  9
$CMLSTYLE
  2
STANDARD
  9
$CMLJUST
 70
     0
  9
$CMLSCALE
 40
1.0
  9
$PROXYGRAPHICS
 70
     1
  9
$MEASUREMENT
 70
     0
  0
ENDSEC
  0
SECTION
  2
CLASSES
  0
CLASS
  1
ACDBDICTIONARYWDFLT
  2
AcDbDictionaryWithDefault
  3
AutoCAD 2000
 90
        0
280
     0
281
     0
  0
CLASS
  1
ACDBPLACEHOLDER
  2
AcDbPlaceHolder
  3
AutoCAD 2000
 90
        0
280
     0
281
     0
  0
CLASS
  1
LAYOUT
  2
AcDbLayout
  3
AutoCAD 2000
 90
        0
280
     0
281
     0
  0
CLASS
  1
DICTIONARYVAR
  2
AcDbDictionaryVar
  3
AutoCAD 2000
 90
        0
280
     0
281
     0
  0
CLASS
  1
LONG_TRANSACTION
  2
AcDbLongTransaction
  3
AutoCAD 2000
 90
        0
280
     0
281
     0
  0
CLASS
  1
LWPOLYLINE
  2
AcDbPolyline
  3
AutoCAD 2000
 90
        0
280
     0
281
     1
  0
CLASS
  1
HATCH
  2
AcDbHatch
  3
AutoCAD 2000
 90
        0
280
     0
281
     1
  0
CLASS
  1
XRECORD
  2
AcDbXrecord
  3
AutoCAD 2000
 90
        0
280
     0
281
     0
  0
ENDSEC
  0
SECTION
  2
TABLES
  0
TABLE
  2
VPORT
  5
8
330
0
100
AcDbSymbolTable
 70
     3
  0
VPORT
  5
136
330
8
100
AcDbSymbolTableRecord
100
AcDbViewportTableRecord
  2
*ACTIVE
 70
     0
 10
0.0
 20
0.0
 11
1.0
 21
1.0
 12
84.50000000000001
 22
77.0
 13
0.0
 23
0.0
 14
1.0
 24
1.0
 15
0.0
 25
0.0
 16
0.0
 26
0.0
 36
1.0
 17
0.0
 27
0.0
 37
0.0
 40
155.0992084398977
 41
2.078104993597951
 42
50.0
 43
0.0
 44
0.0
 50
0.0
 51
0.0
 71
     0
 72
   100
 73
     1
 74
     3
 75
     0
 76
     0
 77
     0
 78
     0
  0
ENDTAB
  0
TABLE
  2
LTYPE
  5
5
330
0
100
AcDbSymbolTable
 70
     1
  0
LTYPE
  5
13
330
5
100
AcDbSymbolTableRecord
100
AcDbLinetypeTableRecord
  2
BYBLOCK
 70
     0
  3

 72
    65
 73
     0
 40
0.0
  0
LTYPE
  5
14
330
5
100
AcDbSymbolTableRecord
100
AcDbLinetypeTableRecord
  2
BYLAYER
 70
     0
  3

 72
    65
 73
     0
 40
0.0
  0
LTYPE
  5
15
330
5
100
AcDbSymbolTableRecord
100
AcDbLinetypeTableRecord
  2
CONTINUOUS
 70
     0
  3
Solid line
 72
    65
 73
     0
 40
0.0
  0
ENDTAB
  0
TABLE
  2
LAYER
  5
2
330
0
100
AcDbSymbolTable
 70
     1
  0
LAYER
  5
10
330
2
100
AcDbSymbolTableRecord
100
AcDbLayerTableRecord
  2
0
 70
     0
 62
     7
  6
CONTINUOUS
  0
ENDTAB
  0
TABLE
  2
STYLE
  5
3
330
0
100
AcDbSymbolTable
 70
     1
  0
STYLE
  5
11
330
3
100
AcDbSymbolTableRecord
100
AcDbTextStyleTableRecord
  2
STANDARD
 70
     0
 40
0.0
 41
1.0
 50
0.0
 71
     0
 42
0.2
  3
txt
  4

  0
ENDTAB
  0
TABLE
  2
VIEW
  5
6
330
0
100
AcDbSymbolTable
 70
     0
  0
ENDTAB
  0
TABLE
  2
UCS
  5
7
330
0
100
AcDbSymbolTable
 70
     0
  0
ENDTAB
  0
TABLE
  2
APPID
  5
9
330
0
100
AcDbSymbolTable
 70
     1
  0
APPID
  5
12
330
9
100
AcDbSymbolTableRecord
100
AcDbRegAppTableRecord
  2
ACAD
 70
     0
  0
ENDTAB
  0
TABLE
  2
DIMSTYLE
  5
A
330
0
100
AcDbSymbolTable
 70
     1
  0
DIMSTYLE
105
10A
330
A
100
AcDbSymbolTableRecord
100
AcDbDimStyleTableRecord
  2
STANDARD
 70
     0
  3

  4

  5

  6

  7

 40
1.0
 41
0.18
 42
0.0625
 43
0.38
 44
0.18
 45
0.0
 46
0.0
 47
0.0
 48
0.0
140
0.18
141
0.09
142
0.0
143
25.4
144
1.0
145
0.0
146
1.0
147
0.09
 71
     0
 72
     0
 73
     1
 74
     1
 75
     0
 76
     0
 77
     0
 78
     0
170
     0
171
     2
172
     0
173
     0
174
     0
175
     0
176
     0
177
     0
178
     0
270
     2
271
     4
272
     4
273
     2
274
     2
340
11
275
     0
280
     0
281
     0
282
     0
283
     1
284
     0
285
     0
286
     0
287
     3
288
     0
  0
ENDTAB
  0
TABLE
  2
BLOCK_RECORD
  5
1
330
0
100
AcDbSymbolTable
 70
     0
  0
BLOCK_RECORD
  5
1E
102
{ACAD_XDICTIONARY
360
159
102
}
330
1
100
AcDbSymbolTableRecord
100
AcDbBlockTableRecord
  2
*MODEL_SPACE
  0
BLOCK_RECORD
  5
1A
102
{ACAD_XDICTIONARY
360
157
102
}
330
1
100
AcDbSymbolTableRecord
100
AcDbBlockTableRecord
  2
*PAPER_SPACE
  0
ENDTAB
  0
ENDSEC
  0
SECTION
  2
BLOCKS
  0
BLOCK
  5
1F
330
1E
100
AcDbEntity
  8
0
100
AcDbBlockBegin
  2
*MODEL_SPACE
 70
     0
 10
0.0
 20
0.0
 30
0.0
  3
*MODEL_SPACE
  1

  0
ENDBLK
  5
20
330
1E
100
AcDbEntity
  8
0
100
AcDbBlockEnd
  0
BLOCK
  5
1B
330
1A
100
AcDbEntity
 67
     1
  8
0
100
AcDbBlockBegin
  2
*PAPER_SPACE
 70
     0
 10
0.0
 20
0.0
 30
0.0
  3
*PAPER_SPACE
  1

  0
ENDBLK
  5
1C
330
1A
100
AcDbEntity
 67
     1
  8
0
100
AcDbBlockEnd
  0
ENDSEC
  0
SECTION
  2
ENTITIES
  0
LINE
  5
22
330
1E
100
AcDbEntity
  8
0
100
AcDbLine
 10
0.297050000000005
 20
130.133125
 30
0.0
 11
1.336350000000009
 21
129.533125
 31
0.0
  0
LINE
  5
23
330
1E
100
AcDbEntity
  8
0
100
AcDbLine
 10
0.114050000000012
 20
130.8161249999999
 30
0.0
 11
0.494450000000007
 21
132.675125
 31
0.0
  0
LINE
  5
24
330
1E
100
AcDbEntity
  8
0
100
AcDbLine
 10
0.297050000000005
 20
130.133125
 30
0.0
 11
1.336350000000009
 21
129.533125
 31
0.0
  0
LINE
  5
25
330
1E
100
AcDbEntity
  8
0
100
AcDbLine
 10
4.280850000000009
 20
127.8331249999999
 30
0.0
 11
9.043950000000009
 21
125.083125
 31
0.0
  0
LINE
  5
26
330
1E
100
AcDbEntity
  8
0
100
AcDbLine
 10
2.895150000000009
 20
128.633125
 30
0.0
 11
5.666450000000009
 21
127.0331249999999
 31
0.0
  0
LINE
  5
27
330
1E
100
AcDbEntity
  8
0
100
AcDbLine
 10
1.85595000000001
 20
129.2331249999999
 30
0.0
 11
4.003049999999999
 21
123.9521249999999
 31
0.0
  0
LINE
  5
28
330
1E
100
AcDbEntity
  8
0
100
AcDbLine
 10
1.85595000000001
 20
129.2331249999999
 30
0.0
 11
2.895150000000009
 21
128.633125
 31
0.0
  0
LINE
  5
29
330
1E
100
AcDbEntity
  8
0
100
AcDbLine
 10
4.003049999999999
 20
123.9521249999999
 30
0.0
 11
7.69915
 21
118.3541249999999
 31
0.0
  0
LINE
  5
2A
330
1E
100
AcDbEntity
  8
0
100
AcDbLine
 10
1.336350000000009
 20
129.533125
 30
0.0
 11
4.280850000000009
 21
127.8331249999999
 31
0.0
  0
LINE
  5
2B
330
1E
100
AcDbEntity
  8
0
100
AcDbLine
 10
3.694450000000009
 20
138.217125
 30
0.0
 11
5.114050000000009
 21
139.4761249999999
 31
0.0
  0
LINE
  5
2C
330
1E
100
AcDbEntity
  8
0
100
AcDbLine
 10
2.498050000000009
 20
136.945125
 30
0.0
 11
3.694450000000009
 21
138.217125
 31
0.0
  0
LINE
  5
2D
330
1E
100
AcDbEntity
  8
0
100
AcDbLine
 10
1.57485000000001
 20
135.746125
 30
0.0
 11
2.498050000000009
 21
136.945125
 31
0.0
  0
LINE
  5
2E
330
1E
100
AcDbEntity
  8
0
100
AcDbLine
 10
0.9980500000000059
 20
134.347125
 30
0.0
 11
1.57485000000001
 21
135.746125
 31
0.0
  0
LINE
  5
2F
330
1E
100
AcDbEntity
  8
0
100
AcDbLine
 10
0.494450000000007
 20
132.675125
 30
0.0
 11
0.9980500000000059
 21
134.347125
 31
0.0
  0
LINE
  5
30
330
1E
100
AcDbEntity
  8
0
100
AcDbLine
 10
0.114050000000012
 20
130.8161249999999
 30
0.0
 11
0.297050000000005
 21
130.133125
 31
0.0
  0
LINE
  5
31
330
1E
100
AcDbEntity
  8
0
100
AcDbLine
 10
0.114050000000012
 20
130.8161249999999
 30
0.0
 11
0.494450000000007
 21
132.675125
 31
0.0
  0
LINE
  5
32
330
1E
100
AcDbEntity
  8
0
100
AcDbLine
 10
45.80435
 20
96.35412500000001
 30
0.0
 11
52.50045
 21
95.952125
 31
0.0
  0
LINE
  5
33
330
1E
100
AcDbEntity
  8
0
100
AcDbLine
 10
50.95955
 20
100.883125
 30
0.0
 11
55.72275
 21
98.13312500000002
 31
0.0
  0
LINE
  5
34
330
1E
100
AcDbEntity
  8
0
100
AcDbLine
 10
37.62615
 20
98.18812499999999
 30
0.0
 11
45.80435
 21
96.35412500000001
 31
0.0
  0
LINE
  5
35
330
1E
100
AcDbEntity
  8
0
100
AcDbLine
 10
31.92995
 20
100.3221249999999
 30
0.0
 11
37.62615
 21
98.18812499999999
 31
0.0
  0
LINE
  5
36
330
1E
100
AcDbEntity
  8
0
100
AcDbLine
 10
22.24025
 20
105.339125
 30
0.0
 11
22.50005
 21
105.189125
 31
0.0
  0
LINE
  5
37
330
1E
100
AcDbEntity
  8
0
100
AcDbLine
 10
22.93315
 20
104.9391249999999
 30
0.0
 11
23.45275
 21
104.639125
 31
0.0
  0
LINE
  5
38
330
1E
100
AcDbEntity
  8
0
100
AcDbLine
 10
24.05895
 20
104.289125
 30
0.0
 11
24.75175
 21
103.889125
 31
0.0
  0
LINE
  5
39
330
1E
100
AcDbEntity
  8
0
100
AcDbLine
 10
24.75175
 20
103.889125
 30
0.0
 11
25.44455
 21
103.489125
 31
0.0
  0
LINE
  5
3A
330
1E
100
AcDbEntity
  8
0
100
AcDbLine
 10
22.15364999999999
 20
105.389125
 30
0.0
 11
22.24025
 21
105.339125
 31
0.0
  0
LINE
  5
3B
330
1E
100
AcDbEntity
  8
0
100
AcDbLine
 10
26.05075
 20
103.1391249999999
 30
0.0
 11
26.57045
 21
102.8391249999999
 31
0.0
  0
LINE
  5
3C
330
1E
100
AcDbEntity
  8
0
100
AcDbLine
 10
44.72415
 20
104.483125
 30
0.0
 11
50.95955
 21
100.883125
 31
0.0
  0
LINE
  5
3D
330
1E
100
AcDbEntity
  8
0
100
AcDbLine
 10
25.44455
 20
103.489125
 30
0.0
 11
26.05075
 21
103.1391249999999
 31
0.0
  0
LINE
  5
3E
330
1E
100
AcDbEntity
  8
0
100
AcDbLine
 10
27.34984999999999
 20
102.389125
 30
0.0
 11
31.92995
 21
100.3221249999999
 31
0.0
  0
LINE
  5
3F
330
1E
100
AcDbEntity
  8
0
100
AcDbLine
 10
54.33704999999999
 20
98.933125
 30
0.0
 11
56.20343571419129
 21
97.85557397964643
 31
0.0
  0
LINE
  5
40
330
1E
100
AcDbEntity
  8
0
100
AcDbLine
 10
55.72275
 20
98.13312500000002
 30
0.0
 11
58.66694999999999
 21
96.433125
 31
0.0
  0
LINE
  5
41
330
1E
100
AcDbEntity
  8
0
100
AcDbLine
 10
59.44695
 20
95.983125
 30
0.0
 11
64.70995000000001
 21
94.099125
 31
0.0
  0
LINE
  5
42
330
1E
100
AcDbEntity
  8
0
100
AcDbLine
 10
58.66694999999999
 20
96.433125
 30
0.0
 11
59.70595
 21
95.83312499999999
 31
0.0
  0
LINE
  5
43
330
1E
100
AcDbEntity
  8
0
100
AcDbLine
 10
52.50045
 20
95.952125
 30
0.0
 11
58.14749440987739
 21
96.73306199585908
 31
0.0
  0
LINE
  5
44
330
1E
100
AcDbEntity
  8
0
100
AcDbLine
 10
52.1756861696092
 20
100.1809973407739
 30
0.0
 11
55.72275
 21
98.13312500000002
 31
0.0
  0
LINE
  5
45
330
1E
100
AcDbEntity
  8
0
100
AcDbLine
 10
52.1756861696092
 20
100.1809973407739
 30
0.0
 11
54.33704999999999
 21
98.933125
 31
0.0
  0
LINE
  5
46
330
1E
100
AcDbEntity
  8
0
100
AcDbLine
 10
59.70595
 20
95.83312499999999
 30
0.0
 11
59.79747420573171
 21
95.85764759099399
 31
0.0
  0
LINE
  5
47
330
1E
100
AcDbEntity
  8
0
100
AcDbLine
 10
64.70995000000001
 20
94.099125
 30
0.0
 11
69.17395
 21
93.83112500000001
 31
0.0
  0
LINE
  5
48
330
1E
100
AcDbEntity
  8
0
100
AcDbLine
 10
64.26394999999999
 20
105.326125
 30
0.0
 11
65.38895
 21
104.676125
 31
0.0
  0
LINE
  5
49
330
1E
100
AcDbEntity
  8
0
100
AcDbLine
 10
37.62275
 20
108.583125
 30
0.0
 11
44.72415
 21
104.483125
 31
0.0
  0
LINE
  5
4A
330
1E
100
AcDbEntity
  8
0
100
AcDbLine
 10
18.07355
 20
108.322125
 30
0.0
 11
22.15364999999999
 21
105.389125
 31
0.0
  0
LINE
  5
4B
330
1E
100
AcDbEntity
  8
0
100
AcDbLine
 10
7.69915
 20
118.3541249999999
 30
0.0
 11
13.37744999999999
 21
112.1881249999999
 31
0.0
  0
LINE
  5
4C
330
1E
100
AcDbEntity
  8
0
100
AcDbLine
 10
13.37744999999999
 20
112.1881249999999
 30
0.0
 11
18.07355
 21
108.322125
 31
0.0
  0
LINE
  5
4D
330
1E
100
AcDbEntity
  8
0
100
AcDbLine
 10
15.97215
 20
121.083125
 30
0.0
 11
22.72715
 21
117.183125
 31
0.0
  0
LINE
  5
4E
330
1E
100
AcDbEntity
  8
0
100
AcDbLine
 10
22.72715
 20
117.183125
 30
0.0
 11
30.00175
 21
112.983125
 31
0.0
  0
LINE
  5
4F
330
1E
100
AcDbEntity
  8
0
100
AcDbLine
 10
22.38074999999999
 20
117.383125
 30
0.0
 11
30.00175
 21
112.983125
 31
0.0
  0
LINE
  5
50
330
1E
100
AcDbEntity
  8
0
100
AcDbLine
 10
30.00175
 20
112.983125
 30
0.0
 11
37.62275
 21
108.583125
 31
0.0
  0
LINE
  5
51
330
1E
100
AcDbEntity
  8
0
100
AcDbLine
 10
15.27935
 20
121.483125
 30
0.0
 11
22.38074999999999
 21
117.383125
 31
0.0
  0
LINE
  5
52
330
1E
100
AcDbEntity
  8
0
100
AcDbLine
 10
10.08315
 20
124.483125
 30
0.0
 11
15.97215
 21
121.083125
 31
0.0
  0
LINE
  5
53
330
1E
100
AcDbEntity
  8
0
100
AcDbLine
 10
9.043950000000009
 20
125.083125
 30
0.0
 11
15.27935
 21
121.483125
 31
0.0
  0
LINE
  5
54
330
1E
100
AcDbEntity
  8
0
100
AcDbLine
 10
5.666450000000009
 20
127.0331249999999
 30
0.0
 11
10.08315
 21
124.483125
 31
0.0
  0
LINE
  5
55
330
1E
100
AcDbEntity
  8
0
100
AcDbLine
 10
6.166750000000009
 20
139.0991249999999
 30
0.0
 11
9.111150000000009
 21
137.3991249999999
 31
0.0
  0
LINE
  5
56
330
1E
100
AcDbEntity
  8
0
100
AcDbLine
 10
9.111150000000009
 20
137.3991249999999
 30
0.0
 11
13.96095
 21
134.5991249999999
 31
0.0
  0
LINE
  5
57
330
1E
100
AcDbEntity
  8
0
100
AcDbLine
 10
9.184350000000009
 20
137.126125
 30
0.0
 11
13.94754999999999
 21
134.376125
 31
0.0
  0
LINE
  5
58
330
1E
100
AcDbEntity
  8
0
100
AcDbLine
 10
6.239950000000009
 20
138.826125
 30
0.0
 11
9.184350000000009
 21
137.126125
 31
0.0
  0
LINE
  5
59
330
1E
100
AcDbEntity
  8
0
100
AcDbLine
 10
5.114050000000009
 20
139.4761249999999
 30
0.0
 11
6.239950000000009
 21
138.826125
 31
0.0
  0
LINE
  5
5A
330
1E
100
AcDbEntity
  8
0
100
AcDbLine
 10
13.96095
 20
134.5991249999999
 30
0.0
 11
20.28294999999999
 21
130.949125
 31
0.0
  0
LINE
  5
5B
330
1E
100
AcDbEntity
  8
0
100
AcDbLine
 10
13.94754999999999
 20
134.376125
 30
0.0
 11
20.26955
 21
130.726125
 31
0.0
  0
LINE
  5
5C
330
1E
100
AcDbEntity
  8
0
100
AcDbLine
 10
20.28294999999999
 20
130.949125
 30
0.0
 11
27.55755
 21
126.749125
 31
0.0
  0
LINE
  5
5D
330
1E
100
AcDbEntity
  8
0
100
AcDbLine
 10
20.26955
 20
130.726125
 30
0.0
 11
27.54414999999999
 21
126.526125
 31
0.0
  0
LINE
  5
5E
330
1E
100
AcDbEntity
  8
0
100
AcDbLine
 10
27.54414999999999
 20
126.526125
 30
0.0
 11
35.25175
 21
122.076125
 31
0.0
  0
LINE
  5
5F
330
1E
100
AcDbEntity
  8
0
100
AcDbLine
 10
27.55755
 20
126.749125
 30
0.0
 11
35.35175
 21
122.249125
 31
0.0
  0
LINE
  5
60
330
1E
100
AcDbEntity
  8
0
100
AcDbLine
 10
35.25175
 20
122.076125
 30
0.0
 11
42.95935
 21
117.626125
 31
0.0
  0
LINE
  5
61
330
1E
100
AcDbEntity
  8
0
100
AcDbLine
 10
50.23405
 20
113.4261249999999
 30
0.0
 11
56.55595
 21
109.776125
 31
0.0
  0
LINE
  5
62
330
1E
100
AcDbEntity
  8
0
100
AcDbLine
 10
50.42065
 20
113.549125
 30
0.0
 11
56.74255
 21
109.899125
 31
0.0
  0
LINE
  5
63
330
1E
100
AcDbEntity
  8
0
100
AcDbLine
 10
42.95935
 20
117.626125
 30
0.0
 11
50.23405
 21
113.4261249999999
 31
0.0
  0
LINE
  5
64
330
1E
100
AcDbEntity
  8
0
100
AcDbLine
 10
43.14594999999999
 20
117.749125
 30
0.0
 11
50.42065
 21
113.549125
 31
0.0
  0
LINE
  5
65
330
1E
100
AcDbEntity
  8
0
100
AcDbLine
 10
35.35175
 20
122.249125
 30
0.0
 11
43.14594999999999
 21
117.749125
 31
0.0
  0
LINE
  5
66
330
1E
100
AcDbEntity
  8
0
100
AcDbLine
 10
56.55595
 20
109.776125
 30
0.0
 11
61.31895
 21
107.0261249999999
 31
0.0
  0
LINE
  5
67
330
1E
100
AcDbEntity
  8
0
100
AcDbLine
 10
56.74255
 20
109.899125
 30
0.0
 11
61.59195
 21
107.099125
 31
0.0
  0
LINE
  5
68
330
1E
100
AcDbEntity
  8
0
100
AcDbLine
 10
61.31895
 20
107.0261249999999
 30
0.0
 11
64.26394999999999
 21
105.326125
 31
0.0
  0
LINE
  5
69
330
1E
100
AcDbEntity
  8
0
100
AcDbLine
 10
61.59195
 20
107.099125
 30
0.0
 11
64.53695
 21
105.3991249999999
 31
0.0
  0
LINE
  5
6A
330
1E
100
AcDbEntity
  8
0
100
AcDbLine
 10
64.53695
 20
105.3991249999999
 30
0.0
 11
65.66295
 21
104.7491249999999
 31
0.0
  0
LINE
  5
6C
330
1E
100
AcDbEntity
  8
0
100
AcDbLine
 10
54.7502447354331
 20
146.192202187961
 30
0.0
 11
67.47195000000001
 21
137.884125
 31
0.0
  0
LINE
  5
6D
330
1E
100
AcDbEntity
  8
0
100
AcDbLine
 10
7.297049999999999
 20
142.257125
 30
0.0
 11
11.85594999999999
 21
146.5531249999999
 31
0.0
  0
LINE
  5
6E
330
1E
100
AcDbEntity
  8
0
100
AcDbLine
 10
5.040850000000009
 20
139.7491249999999
 30
0.0
 11
5.114050000000009
 21
139.4761249999999
 31
0.0
  0
LINE
  5
6F
330
1E
100
AcDbEntity
  8
0
100
AcDbLine
 10
5.040850000000009
 20
139.7491249999999
 30
0.0
 11
7.297049999999999
 21
142.257125
 31
0.0
  0
LINE
  5
70
330
1E
100
AcDbEntity
  8
0
100
AcDbLine
 10
5.040850000000009
 20
139.7491249999999
 30
0.0
 11
6.166750000000009
 21
139.0991249999999
 31
0.0
  0
LINE
  5
71
330
1E
100
AcDbEntity
  8
0
100
AcDbLine
 10
46.70465
 20
150.913125
 30
0.0
 11
50.75175
 21
148.923125
 31
0.0
  0
LINE
  5
72
330
1E
100
AcDbEntity
  8
0
100
AcDbLine
 10
40.90845
 20
152.8741249999999
 30
0.0
 11
46.70465
 21
150.913125
 31
0.0
  0
LINE
  5
73
330
1E
100
AcDbEntity
  8
0
100
AcDbLine
 10
34.02935
 20
153.9591249999999
 30
0.0
 11
40.90845
 21
152.8741249999999
 31
0.0
  0
LINE
  5
74
330
1E
100
AcDbEntity
  8
0
100
AcDbLine
 10
25.46715
 20
153.1291249999999
 30
0.0
 11
34.02935
 21
153.9591249999999
 31
0.0
  0
LINE
  5
75
330
1E
100
AcDbEntity
  8
0
100
AcDbLine
 10
17.45404999999999
 20
150.249125
 30
0.0
 11
25.46715
 21
153.1291249999999
 31
0.0
  0
LINE
  5
76
330
1E
100
AcDbEntity
  8
0
100
AcDbLine
 10
11.85594999999999
 20
146.5531249999999
 30
0.0
 11
17.45404999999999
 21
150.249125
 31
0.0
  0
LINE
  5
77
330
1E
100
AcDbEntity
  8
0
100
AcDbLine
 10
50.75175
 20
148.923125
 30
0.0
 11
54.49885
 21
146.413125
 31
0.0
  0
LINE
  5
78
330
1E
100
AcDbEntity
  8
0
100
AcDbLine
 10
54.49885
 20
146.413125
 30
0.0
 11
54.7502447354331
 21
146.192202187961
 31
0.0
  0
LINE
  5
79
330
1E
100
AcDbEntity
  8
0
100
AcDbLine
 10
148.62295
 20
0.0408749999999825
 30
0.0
 11
153.621667856191
 21
2.913654061271209
 31
0.0
  0
LINE
  5
7A
330
1E
100
AcDbEntity
  8
0
100
AcDbLine
 10
148.62295
 20
0.0408749999999825
 30
0.0
 11
148.9959499999999
 21
0.287284999999983
 31
0.0
  0
LINE
  5
7B
330
1E
100
AcDbEntity
  8
0
100
AcDbLine
 10
127.9429499999999
 20
28.98062499999999
 30
0.0
 11
128.4909499999999
 21
28.706525
 31
0.0
  0
LINE
  5
7C
330
1E
100
AcDbEntity
  8
0
100
AcDbLine
 10
72.58894999999999
 20
94.746125
 30
0.0
 11
74.70494999999999
 21
96.411125
 31
0.0
  0
LINE
  5
7D
330
1E
100
AcDbEntity
  8
0
100
AcDbLine
 10
69.17395
 20
93.83112500000001
 30
0.0
 11
72.58894999999999
 21
94.746125
 31
0.0
  0
LINE
  5
7E
330
1E
100
AcDbEntity
  8
0
100
AcDbLine
 10
74.70494999999999
 20
96.411125
 30
0.0
 11
77.45495
 21
101.174125
 31
0.0
  0
LINE
  5
7F
330
1E
100
AcDbEntity
  8
0
100
AcDbLine
 10
77.08895
 20
102.540125
 30
0.0
 11
77.45495
 21
101.174125
 31
0.0
  0
LINE
  5
80
330
1E
100
AcDbEntity
  8
0
100
AcDbLine
 10
76.47294999999999
 20
103.4731249999999
 30
0.0
 11
77.08895
 21
102.540125
 31
0.0
  0
LINE
  5
81
330
1E
100
AcDbEntity
  8
0
100
AcDbLine
 10
67.11195
 20
104.259125
 30
0.0
 11
69.47795000000001
 21
106.357125
 31
0.0
  0
LINE
  5
82
330
1E
100
AcDbEntity
  8
0
100
AcDbLine
 10
65.99594999999999
 20
104.326125
 30
0.0
 11
67.11195
 21
104.259125
 31
0.0
  0
LINE
  5
8A
330
1E
100
AcDbEntity
  8
0
100
AcDbLine
 10
85.83294999999999
 20
99.686125
 30
0.0
 11
89.64595
 21
95.290125
 31
0.0
  0
LINE
  5
8B
330
1E
100
AcDbEntity
  8
0
100
AcDbLine
 10
89.64595
 20
95.290125
 30
0.0
 11
90.88195
 21
92.797125
 31
0.0
  0
LINE
  5
99
330
1E
100
AcDbEntity
  8
0
100
AcDbLine
 10
90.85295
 20
92.25912499999999
 30
0.0
 11
91.43694999999999
 21
90.792125
 31
0.0
  0
LINE
  5
9A
330
1E
100
AcDbEntity
  8
0
100
AcDbLine
 10
90.85295
 20
92.25912499999999
 30
0.0
 11
90.88195
 21
92.797125
 31
0.0
  0
LINE
  5
9B
330
1E
100
AcDbEntity
  8
0
100
AcDbLine
 10
91.43694999999999
 20
90.792125
 30
0.0
 11
99.65395
 21
75.42472499999999
 31
0.0
  0
LINE
  5
9C
330
1E
100
AcDbEntity
  8
0
100
AcDbLine
 10
99.65395
 20
75.42472499999999
 30
0.0
 11
107.23595
 21
62.156325
 31
0.0
  0
LINE
  5
9D
330
1E
100
AcDbEntity
  8
0
100
AcDbLine
 10
107.23595
 20
62.156325
 30
0.0
 11
116.2729499999999
 21
47.00852499999999
 31
0.0
  0
LINE
  5
A0
330
1E
100
AcDbEntity
  8
0
100
AcDbLine
 10
120.32195
 20
92.82212499999999
 30
0.0
 11
131.8339499999999
 21
79.36222499999999
 31
0.0
  0
LINE
  5
A1
330
1E
100
AcDbEntity
  8
0
100
AcDbLine
 10
116.2729499999999
 20
47.00852499999999
 30
0.0
 11
124.91995
 21
33.586525
 31
0.0
  0
LINE
  5
A2
330
1E
100
AcDbEntity
  8
0
100
AcDbLine
 10
124.91995
 20
33.586525
 30
0.0
 11
127.9429499999999
 21
28.98062499999999
 31
0.0
  0
LINE
  5
A7
330
1E
100
AcDbEntity
  8
0
100
AcDbLine
 10
134.8699499999999
 20
26.543925
 30
0.0
 11
139.60395
 21
24.87882499999999
 31
0.0
  0
LINE
  5
A8
330
1E
100
AcDbEntity
  8
0
100
AcDbLine
 10
131.10895
 20
27.86682499999999
 30
0.0
 11
134.8699499999999
 21
26.543925
 31
0.0
  0
LINE
  5
AD
330
1E
100
AcDbEntity
  8
0
100
AcDbLine
 10
128.4909499999999
 20
28.706525
 30
0.0
 11
131.10895
 21
27.86682499999999
 31
0.0
  0
LINE
  5
AF
330
1E
100
AcDbEntity
  8
0
100
AcDbLine
 10
131.8339499999999
 20
79.36222499999999
 30
0.0
 11
143.5189499999999
 21
62.801025
 31
0.0
  0
LINE
  5
B0
330
1E
100
AcDbEntity
  8
0
100
AcDbLine
 10
128.4909499999999
 20
28.706525
 30
0.0
 11
133.8279499999999
 21
20.014525
 31
0.0
  0
LINE
  5
B1
330
1E
100
AcDbEntity
  8
0
100
AcDbLine
 10
133.8279499999999
 20
20.014525
 30
0.0
 11
141.1739499999999
 21
9.53802499999999
 31
0.0
  0
LINE
  5
B3
330
1E
100
AcDbEntity
  8
0
100
AcDbLine
 10
147.71995
 20
0.6774749999999841
 30
0.0
 11
148.7399499999999
 21
1.24352499999998
 31
0.0
  0
LINE
  5
B8
330
1E
100
AcDbEntity
  8
0
100
AcDbLine
 10
143.5189499999999
 20
62.801025
 30
0.0
 11
151.7939499999999
 21
49.132625
 31
0.0
  0
LINE
  5
B9
330
1E
100
AcDbEntity
  8
0
100
AcDbLine
 10
141.1739499999999
 20
9.53802499999999
 30
0.0
 11
147.34695
 21
0.431064999999983
 31
0.0
  0
LINE
  5
BA
330
1E
100
AcDbEntity
  8
0
100
AcDbLine
 10
141.1739499999999
 20
9.53802499999999
 30
0.0
 11
147.34695
 21
0.431064999999983
 31
0.0
  0
LINE
  5
BB
330
1E
100
AcDbEntity
  8
0
100
AcDbLine
 10
147.34695
 20
0.431064999999983
 30
0.0
 11
148.62295
 21
0.0408749999999825
 31
0.0
  0
LINE
  5
BC
330
1E
100
AcDbEntity
  8
0
100
AcDbLine
 10
147.34695
 20
0.431064999999983
 30
0.0
 11
147.71995
 21
0.6774749999999841
 31
0.0
  0
LINE
  5
BD
330
1E
100
AcDbEntity
  8
0
100
AcDbLine
 10
148.7399499999999
 20
1.24352499999998
 30
0.0
 11
150.50595
 21
2.30232499999998
 31
0.0
  0
LINE
  5
BE
330
1E
100
AcDbEntity
  8
0
100
AcDbLine
 10
148.9959499999999
 20
0.287284999999983
 30
0.0
 11
150.01595
 21
0.853324999999984
 31
0.0
  0
LINE
  5
BF
330
1E
100
AcDbEntity
  8
0
100
AcDbLine
 10
148.9959499999999
 20
0.287284999999983
 30
0.0
 11
150.01595
 21
0.853324999999984
 31
0.0
  0
LINE
  5
C0
330
1E
100
AcDbEntity
  8
0
100
AcDbLine
 10
152.73195
 20
3.557624999999979
 30
0.0
 11
155.33095
 21
5.05922499999998
 31
0.0
  0
LINE
  5
C1
330
1E
100
AcDbEntity
  8
0
100
AcDbLine
 10
150.50595
 20
2.30232499999998
 30
0.0
 11
152.73195
 21
3.557624999999979
 31
0.0
  0
LINE
  5
C2
330
1E
100
AcDbEntity
  8
0
100
AcDbLine
 10
153.63495
 20
2.921024999999979
 30
0.0
 11
156.04695
 21
4.299424999999979
 31
0.0
  0
LINE
  5
C3
330
1E
100
AcDbEntity
  8
0
100
AcDbLine
 10
151.59495
 20
1.78892499999998
 30
0.0
 11
153.63495
 21
2.921024999999979
 31
0.0
  0
LINE
  5
C4
330
1E
100
AcDbEntity
  8
0
100
AcDbLine
 10
150.01595
 20
0.853324999999984
 30
0.0
 11
153.244989636587
 21
2.704616114010029
 31
0.0
  0
LINE
  5
C5
330
1E
100
AcDbEntity
  8
0
100
AcDbLine
 10
150.01595
 20
0.853324999999984
 30
0.0
 11
151.59495
 21
1.78892499999998
 31
0.0
  0
LINE
  5
C6
330
1E
100
AcDbEntity
  8
0
100
AcDbLine
 10
150.01595
 20
0.853324999999984
 30
0.0
 11
153.244989636587
 21
2.70461611401004
 31
0.0
  0
LINE
  5
C7
330
1E
100
AcDbEntity
  8
0
100
AcDbLine
 10
158.11695
 20
6.684124999999981
 30
0.0
 11
160.90195
 21
8.309024999999991
 31
0.0
  0
LINE
  5
C8
330
1E
100
AcDbEntity
  8
0
100
AcDbLine
 10
155.33095
 20
5.05922499999998
 30
0.0
 11
158.11695
 21
6.684124999999981
 31
0.0
  0
LINE
  5
C9
330
1E
100
AcDbEntity
  8
0
100
AcDbLine
 10
163.5009499999999
 20
9.81072499999998
 30
0.0
 11
165.7269499999999
 21
11.065925
 31
0.0
  0
LINE
  5
CA
330
1E
100
AcDbEntity
  8
0
100
AcDbLine
 10
160.90195
 20
8.309024999999991
 30
0.0
 11
163.5009499999999
 21
9.81072499999998
 31
0.0
  0
LINE
  5
CB
330
1E
100
AcDbEntity
  8
0
100
AcDbLine
 10
165.7269499999999
 20
11.065925
 30
0.0
 11
167.49295
 21
12.124825
 31
0.0
  0
LINE
  5
CC
330
1E
100
AcDbEntity
  8
0
100
AcDbLine
 10
167.49295
 20
12.124825
 30
0.0
 11
168.5129499999999
 21
12.690825
 31
0.0
  0
LINE
  5
CD
330
1E
100
AcDbEntity
  8
0
100
AcDbLine
 10
167.18995
 20
10.798925
 30
0.0
 11
168.20895
 21
11.36492499999999
 31
0.0
  0
LINE
  5
CE
330
1E
100
AcDbEntity
  8
0
100
AcDbLine
 10
165.60995
 20
9.86332499999998
 30
0.0
 11
167.18995
 21
10.798925
 31
0.0
  0
LINE
  5
CF
330
1E
100
AcDbEntity
  8
0
100
AcDbLine
 10
163.57095
 20
8.73122499999998
 30
0.0
 11
165.60995
 21
9.86332499999998
 31
0.0
  0
LINE
  5
D0
330
1E
100
AcDbEntity
  8
0
100
AcDbLine
 10
161.1579499999999
 20
7.35282499999998
 30
0.0
 11
163.57095
 21
8.73122499999998
 31
0.0
  0
LINE
  5
D1
330
1E
100
AcDbEntity
  8
0
100
AcDbLine
 10
158.64595
 20
5.801124999999981
 30
0.0
 11
161.1579499999999
 21
7.35282499999998
 31
0.0
  0
LINE
  5
D2
330
1E
100
AcDbEntity
  8
0
100
AcDbLine
 10
158.64595
 20
5.801124999999981
 30
0.0
 11
165.60995
 21
9.86332499999998
 31
0.0
  0
LINE
  5
D3
330
1E
100
AcDbEntity
  8
0
100
AcDbLine
 10
158.64595
 20
5.801124999999981
 30
0.0
 11
168.20895
 21
11.36492499999999
 31
0.0
  0
LINE
  5
D4
330
1E
100
AcDbEntity
  8
0
100
AcDbLine
 10
139.60395
 20
24.87882499999999
 30
0.0
 11
155.18795
 21
19.396525
 31
0.0
  0
LINE
  5
E0
330
1E
100
AcDbEntity
  8
0
100
AcDbLine
 10
151.7939499999999
 20
49.132625
 30
0.0
 11
159.76795
 21
34.944625
 31
0.0
  0
LINE
  5
E1
330
1E
100
AcDbEntity
  8
0
100
AcDbLine
 10
159.76795
 20
34.944625
 30
0.0
 11
164.51495
 21
22.966425
 31
0.0
  0
LINE
  5
E2
330
1E
100
AcDbEntity
  8
0
100
AcDbLine
 10
164.51495
 20
22.966425
 30
0.0
 11
168.04095
 21
14.875325
 31
0.0
  0
LINE
  5
E3
330
1E
100
AcDbEntity
  8
0
100
AcDbLine
 10
168.04095
 20
14.875325
 30
0.0
 11
168.88595
 21
12.937225
 31
0.0
  0
LINE
  5
E4
330
1E
100
AcDbEntity
  8
0
100
AcDbLine
 10
168.5129499999999
 20
12.690825
 30
0.0
 11
168.88595
 21
12.937225
 31
0.0
  0
LINE
  5
E5
330
1E
100
AcDbEntity
  8
0
100
AcDbLine
 10
168.58195
 20
11.611425
 30
0.0
 11
168.88595
 21
12.937225
 31
0.0
  0
LINE
  5
E6
330
1E
100
AcDbEntity
  8
0
100
AcDbLine
 10
168.20895
 20
11.36492499999999
 30
0.0
 11
168.58195
 21
11.611425
 31
0.0
  0
LINE
  5
E7
330
1E
100
AcDbEntity
  8
0
100
AcDbLine
 10
156.04695
 20
4.299424999999979
 30
0.0
 11
158.64595
 21
5.801124999999981
 31
0.0
  0
LINE
  5
E8
330
1E
100
AcDbEntity
  8
0
100
AcDbLine
 10
148.62295
 20
0.0408749999999821
 30
0.0
 11
153.621667856191
 21
2.91365406127122
 31
0.0
  0
LINE
  5
E9
330
1E
100
AcDbEntity
  8
0
100
AcDbLine
 10
65.96095
 20
105.6656964285709
 30
0.0
 11
67.80895
 21
107.6671249999999
 31
0.0
  0
LINE
  5
EA
330
1E
100
AcDbEntity
  8
0
100
AcDbLine
 10
70.84395
 20
106.723125
 30
0.0
 11
76.47294999999999
 21
103.4731249999999
 31
0.0
  0
LINE
  5
EB
330
1E
100
AcDbEntity
  8
0
100
AcDbLine
 10
69.47795000000001
 20
106.357125
 30
0.0
 11
70.84395
 21
106.723125
 31
0.0
  0
LINE
  5
EC
330
1E
100
AcDbEntity
  8
0
100
AcDbLine
 10
67.80895
 20
107.6671249999999
 30
0.0
 11
70.96395
 21
108.732125
 31
0.0
  0
LINE
  5
ED
330
1E
100
AcDbEntity
  8
0
100
AcDbLine
 10
70.96395
 20
108.732125
 30
0.0
 11
74.45895
 21
107.9851249999999
 31
0.0
  0
LINE
  5
EE
330
1E
100
AcDbEntity
  8
0
100
AcDbLine
 10
74.45895
 20
107.9851249999999
 30
0.0
 11
78.09595
 21
105.885125
 31
0.0
  0
LINE
  5
F7
330
1E
100
AcDbEntity
  8
0
100
AcDbLine
 10
78.09595
 20
105.885125
 30
0.0
 11
85.83294999999999
 21
99.686125
 31
0.0
  0
LINE
  5
FF
330
1E
100
AcDbEntity
  8
0
100
AcDbLine
 10
67.47195000000001
 20
137.884125
 30
0.0
 11
78.03095
 21
130.1711249999999
 31
0.0
  0
LINE
  5
100
330
1E
100
AcDbEntity
  8
0
100
AcDbLine
 10
78.03095
 20
130.1711249999999
 30
0.0
 11
83.91595
 21
125.965125
 31
0.0
  0
LINE
  5
101
330
1E
100
AcDbEntity
  8
0
100
AcDbLine
 10
83.91595
 20
125.965125
 30
0.0
 11
90.91395
 21
120.885125
 31
0.0
  0
LINE
  5
102
330
1E
100
AcDbEntity
  8
0
100
AcDbLine
 10
90.91395
 20
120.885125
 30
0.0
 11
92.49695
 21
119.6351249999999
 31
0.0
  0
LINE
  5
103
330
1E
100
AcDbEntity
  8
0
100
AcDbLine
 10
92.49695
 20
119.6351249999999
 30
0.0
 11
98.52795
 21
114.8731249999999
 31
0.0
  0
LINE
  5
104
330
1E
100
AcDbEntity
  8
0
100
AcDbLine
 10
98.52795
 20
114.8731249999999
 30
0.0
 11
102.79095
 21
111.257125
 31
0.0
  0
LINE
  5
105
330
1E
100
AcDbEntity
  8
0
100
AcDbLine
 10
102.79095
 20
111.257125
 30
0.0
 11
106.02795
 21
108.4641249999999
 31
0.0
  0
LINE
  5
106
330
1E
100
AcDbEntity
  8
0
100
AcDbLine
 10
106.02795
 20
108.4641249999999
 30
0.0
 11
120.32195
 21
92.82212499999999
 31
0.0
  0
LINE
  5
107
330
1E
100
AcDbEntity
  8
0
100
AcDbLine
 10
65.66295
 20
104.7491249999999
 30
0.0
 11
65.96095
 21
105.6656964285709
 31
0.0
  0
LINE
  5
108
330
1E
100
AcDbEntity
  8
0
100
AcDbLine
 10
65.38949740333039
 20
104.676270841033
 30
0.0
 11
65.66295
 21
104.7491249999999
 31
0.0
  0
LINE
  5
109
330
1E
100
AcDbEntity
  8
0
100
AcDbLine
 10
65.38949740333039
 20
104.676270841033
 30
0.0
 11
65.99594999999999
 21
104.326125
 31
0.0
  0
LINE
  5
10E
330
1E
100
AcDbEntity
  8
0
100
AcDbLine
 10
155.18795
 20
19.396525
 30
0.0
 11
168.5129499999999
 21
12.690825
 31
0.0
  0
ENDSEC
  0
SECTION
  2
OBJECTS
  0
DICTIONARY
  5
C
330
0
100
AcDbDictionary
  3
ACAD_GROUP
350
D
  3
ACAD_LAYOUT
350
19
  3
ACAD_MLINESTYLE
350
16
  3
ACAD_PLOTSETTINGS
350
18
  3
ACAD_PLOTSTYLENAME
350
E
  3
ACDBHEADERROUNDTRIPXREC
350
137
  3
ACDBVARIABLEDICTIONARY
350
10F
  0
DICTIONARY
  5
159
330
1E
100
AcDbDictionary
280
     1
  3
ACAD_LAYOUTSELFREF
360
15A
  0
DICTIONARY
  5
157
330
1A
100
AcDbDictionary
280
     1
  3
ACAD_LAYOUTSELFREF
360
158
  0
DICTIONARY
  5
D
102
{ACAD_REACTORS
330
C
102
}
330
C
100
AcDbDictionary
  0
DICTIONARY
  5
19
102
{ACAD_REACTORS
330
C
102
}
330
C
100
AcDbDictionary
  0
DICTIONARY
  5
16
102
{ACAD_REACTORS
330
C
102
}
330
C
100
AcDbDictionary
  3
STANDARD
350
17
  0
DICTIONARY
  5
18
102
{ACAD_REACTORS
330
C
102
}
330
C
100
AcDbDictionary
  0
ACDBDICTIONARYWDFLT
  5
E
102
{ACAD_REACTORS
330
C
102
}
330
C
100
AcDbDictionary
281
     1
  3
Normal
350
F
100
AcDbDictionaryWithDefault
340
F
  0
DICTIONARY
  5
137
102
{ACAD_REACTORS
330
C
102
}
330
C
100
AcDbDictionary
  3
CEPSNTYPE
350
141
  3
FINGERPRINTGUID
350
142
  3
HYPERLINKBASE
350
13A
  3
INSUNITS
350
140
  3
LAYOUTDICT
350
13C
  3
LWETCUNION
350
13F
  3
PLOTSETDICT
350
13D
  3
PLOTSTYLNAMDICT
350
13E
  3
PSVPSCALE
350
144
  3
PUCSBASE
350
147
  3
PUCSORGBACK
350
14D
  3
PUCSORGBOTTOM
350
149
  3
PUCSORGFRONT
350
14C
  3
PUCSORGLEFT
350
14A
  3
PUCSORGRIGHT
350
14B
  3
PUCSORGTOP
350
148
  3
PUCSORTHOREF
350
145
  3
PUCSORTHOVIEW
350
146
  3
STYLESHEET
350
13B
  3
TSTACKALIGN
350
138
  3
TSTACKSIZE
350
139
  3
UCSBASE
350
150
  3
UCSORGBACK
350
156
  3
UCSORGBOTTOM
350
152
  3
UCSORGFRONT
350
155
  3
UCSORGLEFT
350
153
  3
UCSORGRIGHT
350
154
  3
UCSORGTOP
350
151
  3
UCSORTHOREF
350
14E
  3
UCSORTHOVIEW
350
14F
  3
VERSIONGUID
350
143
  0
DICTIONARY
  5
10F
102
{ACAD_REACTORS
330
C
102
}
330
C
100
AcDbDictionary
  3
DIMASSOC
350
110
  0
XRECORD
  5
15A
102
{ACAD_REACTORS
330
159
102
}
330
159
100
AcDbXrecord
340
1E
  0
XRECORD
  5
158
102
{ACAD_REACTORS
330
157
102
}
330
157
100
AcDbXrecord
340
1A
  0
MLINESTYLE
  5
17
102
{ACAD_REACTORS
330
16
102
}
330
16
100
AcDbMlineStyle
  2
STANDARD
 70
     0
  3

 62
   256
 51
90.0
 52
90.0
 71
     2
 49
0.5
 62
   256
  6
BYLAYER
 49
-0.5
 62
   256
  6
BYLAYER
  0
ACDBPLACEHOLDER
  5
F
102
{ACAD_REACTORS
330
E
102
}
330
E
100
AcDbPlaceHolder
280
     0
  0
XRECORD
  5
141
102
{ACAD_REACTORS
330
137
102
}
330
137
100
AcDbXrecord
 90
        0
  0
XRECORD
  5
142
102
{ACAD_REACTORS
330
137
102
}
330
137
100
AcDbXrecord
  1
{1FB182F5-A8C0-4DF8-9706-3AFED49AFF13}
  0
XRECORD
  5
13A
102
{ACAD_REACTORS
330
137
102
}
330
137
100
AcDbXrecord
  1

  0
XRECORD
  5
140
102
{ACAD_REACTORS
330
137
102
}
330
137
100
AcDbXrecord
 90
        0
  0
XRECORD
  5
13C
102
{ACAD_REACTORS
330
137
102
}
330
137
100
AcDbXrecord
340
19
  0
XRECORD
  5
13F
102
{ACAD_REACTORS
330
137
102
}
330
137
100
AcDbXrecord
 90
    10781
  0
XRECORD
  5
13D
102
{ACAD_REACTORS
330
137
102
}
330
137
100
AcDbXrecord
340
18
  0
XRECORD
  5
13E
102
{ACAD_REACTORS
330
137
102
}
330
137
100
AcDbXrecord
340
E
  0
XRECORD
  5
144
102
{ACAD_REACTORS
330
137
102
}
330
137
100
AcDbXrecord
 40
0.0
  0
XRECORD
  5
147
102
{ACAD_REACTORS
330
137
102
}
330
137
100
AcDbXrecord
340
0
  0
XRECORD
  5
14D
102
{ACAD_REACTORS
330
137
102
}
330
137
100
AcDbXrecord
 10
0.0
 20
0.0
 30
0.0
  0
XRECORD
  5
149
102
{ACAD_REACTORS
330
137
102
}
330
137
100
AcDbXrecord
 10
0.0
 20
0.0
 30
0.0
  0
XRECORD
  5
14C
102
{ACAD_REACTORS
330
137
102
}
330
137
100
AcDbXrecord
 10
0.0
 20
0.0
 30
0.0
  0
XRECORD
  5
14A
102
{ACAD_REACTORS
330
137
102
}
330
137
100
AcDbXrecord
 10
0.0
 20
0.0
 30
0.0
  0
XRECORD
  5
14B
102
{ACAD_REACTORS
330
137
102
}
330
137
100
AcDbXrecord
 10
0.0
 20
0.0
 30
0.0
  0
XRECORD
  5
148
102
{ACAD_REACTORS
330
137
102
}
330
137
100
AcDbXrecord
 10
0.0
 20
0.0
 30
0.0
  0
XRECORD
  5
145
102
{ACAD_REACTORS
330
137
102
}
330
137
100
AcDbXrecord
340
0
  0
XRECORD
  5
146
102
{ACAD_REACTORS
330
137
102
}
330
137
100
AcDbXrecord
 70
     0
  0
XRECORD
  5
13B
102
{ACAD_REACTORS
330
137
102
}
330
137
100
AcDbXrecord
  1

  0
XRECORD
  5
138
102
{ACAD_REACTORS
330
137
102
}
330
137
100
AcDbXrecord
 90
        1
  0
XRECORD
  5
139
102
{ACAD_REACTORS
330
137
102
}
330
137
100
AcDbXrecord
 90
       70
  0
XRECORD
  5
150
102
{ACAD_REACTORS
330
137
102
}
330
137
100
AcDbXrecord
340
0
  0
XRECORD
  5
156
102
{ACAD_REACTORS
330
137
102
}
330
137
100
AcDbXrecord
 10
0.0
 20
0.0
 30
0.0
  0
XRECORD
  5
152
102
{ACAD_REACTORS
330
137
102
}
330
137
100
AcDbXrecord
 10
0.0
 20
0.0
 30
0.0
  0
XRECORD
  5
155
102
{ACAD_REACTORS
330
137
102
}
330
137
100
AcDbXrecord
 10
0.0
 20
0.0
 30
0.0
  0
XRECORD
  5
153
102
{ACAD_REACTORS
330
137
102
}
330
137
100
AcDbXrecord
 10
0.0
 20
0.0
 30
0.0
  0
XRECORD
  5
154
102
{ACAD_REACTORS
330
137
102
}
330
137
100
AcDbXrecord
 10
0.0
 20
0.0
 30
0.0
  0
XRECORD
  5
151
102
{ACAD_REACTORS
330
137
102
}
330
137
100
AcDbXrecord
 10
0.0
 20
0.0
 30
0.0
  0
XRECORD
  5
14E
102
{ACAD_REACTORS
330
137
102
}
330
137
100
AcDbXrecord
340
0
  0
XRECORD
  5
14F
102
{ACAD_REACTORS
330
137
102
}
330
137
100
AcDbXrecord
 70
     1
  0
XRECORD
  5
143
102
{ACAD_REACTORS
330
137
102
}
330
137
100
AcDbXrecord
  1
{44ED4742-B9A6-450F-9129-6856D7C5DCB6}
  0
DICTIONARYVAR
  5
110
102
{ACAD_REACTORS
330
10F
102
}
330
10F
100
DictionaryVariables
280
     0
  1
1
  0
ENDSEC
  0
EOF
