  0
SECTION
  2
HEADER
  9
$ACADVER
  1
AC1009
  9
$INSBASE
 10
0.0
 20
0.0
 30
0.0
  9
$EXTMIN
 10
0.0000000000000006
 20
0.0709849999997994
 30
0.0
  9
$EXTMAX
 10
85.0
 20
94.967314999999786
 30
0.0
  9
$LIMMIN
 10
0.0
 20
0.0
  9
$LIMMAX
 10
12.0
 20
9.0
  9
$ORTHOMODE
 70
     0
  9
$REGENMODE
 70
     1
  9
$FILLMODE
 70
     1
  9
$QTEXTMODE
 70
     0
  9
$MIRRTEXT
 70
     1
  9
$DRAGMODE
 70
     2
  9
$LTSCALE
 40
1.0
  9
$OSMODE
 70
    37
  9
$ATTMODE
 70
     1
  9
$TEXTSIZE
 40
0.2
  9
$TRACEWID
 40
0.05
  9
$TEXTSTYLE
  7
STANDARD
  9
$CLAYER
  8
0
  9
$CELTYPE
  6
CONTINUOUS
  9
$CECOLOR
 62
   256
  9
$DIMSCALE
 40
1.0
  9
$DIMASZ
 40
0.18
  9
$DIMEXO
 40
0.0625
  9
$DIMDLI
 40
0.38
  9
$DIMRND
 40
0.0
  9
$DIMDLE
 40
0.0
  9
$DIMEXE
 40
0.18
  9
$DIMTP
 40
0.0
  9
$DIMTM
 40
0.0
  9
$DIMTXT
 40
0.18
  9
$DIMCEN
 40
0.09
  9
$DIMTSZ
 40
0.0
  9
$DIMTOL
 70
     0
  9
$DIMLIM
 70
     0
  9
$DIMTIH
 70
     1
  9
$DIMTOH
 70
     1
  9
$DIMSE1
 70
     0
  9
$DIMSE2
 70
     0
  9
$DIMTAD
 70
     0
  9
$DIMZIN
 70
     0
  9
$DIMBLK
  1

  9
$DIMASO
 70
     1
  9
$DIMSHO
 70
     1
  9
$DIMPOST
  1

  9
$DIMAPOST
  1

  9
$DIMALT
 70
     0
  9
$DIMALTD
 70
     2
  9
$DIMALTF
 40
25.399999999999999
  9
$DIMLFAC
 40
1.0
  9
$DIMTOFL
 70
     0
  9
$DIMTVP
 40
0.0
  9
$DIMTIX
 70
     0
  9
$DIMSOXD
 70
     0
  9
$DIMSAH
 70
     0
  9
$DIMBLK1
  1

  9
$DIMBLK2
  1

  9
$DIMSTYLE
  2
STANDARD
  9
$DIMCLRD
 70
     0
  9
$DIMCLRE
 70
     0
  9
$DIMCLRT
 70
     0
  9
$DIMTFAC
 40
1.0
  9
$DIMGAP
 40
0.09
  9
$LUNITS
 70
     2
  9
$LUPREC
 70
     4
  9
$SKETCHINC
 40
0.1
  9
$FILLETRAD
 40
0.0
  9
$AUNITS
 70
     0
  9
$AUPREC
 70
     0
  9
$MENU
  1
.
  9
$ELEVATION
 40
0.0
  9
$PELEVATION
 40
0.0
  9
$THICKNESS
 40
0.0
  9
$LIMCHECK
 70
     0
  9
$BLIPMODE
 70
     0
  9
$CHAMFERA
 40
0.0
  9
$CHAMFERB
 40
0.0
  9
$SKPOLY
 70
     0
  9
$TDCREATE
 40
2454698.5604591551
  9
$TDUPDATE
 40
2454698.5675549759
  9
$TDINDWG
 40
0.0070959954
  9
$TDUSRTIMER
 40
0.0070959954
  9
$USRTIMER
 70
     1
  9
$ANGBASE
 50
0.0
  9
$ANGDIR
 70
     0
  9
$PDMODE
 70
     0
  9
$PDSIZE
 40
0.0
  9
$PLINEWID
 40
0.0
  9
$COORDS
 70
     1
  9
$SPLFRAME
 70
     0
  9
$SPLINETYPE
 70
     6
  9
$SPLINESEGS
 70
     8
  9
$ATTDIA
 70
     0
  9
$ATTREQ
 70
     1
  9
$HANDLING
 70
 22529
  9
$HANDSEED
  5
4F5
  9
$SURFTAB1
 70
     6
  9
$SURFTAB2
 70
     6
  9
$SURFTYPE
 70
     6
  9
$SURFU
 70
     6
  9
$SURFV
 70
     6
  9
$UCSNAME
  2

  9
$UCSORG
 10
0.0
 20
0.0
 30
0.0
  9
$UCSXDIR
 10
1.0
 20
0.0
 30
0.0
  9
$UCSYDIR
 10
0.0
 20
1.0
 30
0.0
  9
$PUCSNAME
  2

  9
$PUCSORG
 10
0.0
 20
0.0
 30
0.0
  9
$PUCSXDIR
 10
1.0
 20
0.0
 30
0.0
  9
$PUCSYDIR
 10
0.0
 20
1.0
 30
0.0
  9
$USERI1
 70
     0
  9
$USERI2
 70
     0
  9
$USERI3
 70
     0
  9
$USERI4
 70
     0
  9
$USERI5
 70
     0
  9
$USERR1
 40
0.0
  9
$USERR2
 40
0.0
  9
$USERR3
 40
0.0
  9
$USERR4
 40
0.0
  9
$USERR5
 40
0.0
  9
$WORLDVIEW
 70
     1
  9
$SHADEDGE
 70
     3
  9
$SHADEDIF
 70
    70
  9
$TILEMODE
 70
     1
  9
$MAXACTVP
 70
    64
  9
$PLIMCHECK
 70
     0
  9
$PEXTMIN
 10
1.0000000000000000E+020
 20
1.0000000000000000E+020
 30
1.0000000000000000E+020
  9
$PEXTMAX
 10
-1.0000000000000000E+020
 20
-1.0000000000000000E+020
 30
-1.0000000000000000E+020
  9
$PLIMMIN
 10
0.0
 20
0.0
  9
$PLIMMAX
 10
12.0
 20
9.0
  9
$UNITMODE
 70
     0
  9
$VISRETAIN
 70
     1
  9
$PLINEGEN
 70
     0
  9
$PSLTSCALE
 70
     1
  0
ENDSEC
  0
SECTION
  2
TABLES
  0
TABLE
  2
VPORT
 70
     5
  0
VPORT
  2
*ACTIVE
 70
     0
 10
0.0
 20
0.0
 11
1.0
 21
1.0
 12
42.5
 22
47.51914999999979
 13
0.0
 23
0.0
 14
1.0
 24
1.0
 15
0.0
 25
0.0
 16
0.0
 26
0.0
 36
1.0
 17
0.0
 27
0.0
 37
0.0
 40
95.624434833759565
 41
2.0781049935979512
 42
50.0
 43
0.0
 44
0.0
 50
0.0
 51
0.0
 71
     0
 72
   100
 73
     1
 74
     3
 75
     0
 76
     0
 77
     0
 78
     0
  0
ENDTAB
  0
TABLE
  2
LTYPE
 70
     1
  0
LTYPE
  2
CONTINUOUS
 70
     0
  3
Solid line
 72
    65
 73
     0
 40
0.0
  0
ENDTAB
  0
TABLE
  2
LAYER
 70
     1
  0
LAYER
  2
0
 70
     0
 62
     7
  6
CONTINUOUS
  0
ENDTAB
  0
TABLE
  2
STYLE
 70
     1
  0
STYLE
  2
STANDARD
 70
     0
 40
0.0
 41
1.0
 50
0.0
 71
     0
 42
0.2
  3
txt
  4

  0
ENDTAB
  0
TABLE
  2
VIEW
 70
     0
  0
ENDTAB
  0
TABLE
  2
UCS
 70
     0
  0
ENDTAB
  0
TABLE
  2
APPID
 70
     1
  0
APPID
  2
ACAD
 70
     0
  0
ENDTAB
  0
TABLE
  2
DIMSTYLE
 70
     1
  0
DIMSTYLE
  2
STANDARD
 70
     0
  3

  4

  5

  6

  7

 40
1.0
 41
0.18
 42
0.0625
 43
0.38
 44
0.18
 45
0.0
 46
0.0
 47
0.0
 48
0.0
140
0.18
141
0.09
142
0.0
143
25.399999999999999
144
1.0
145
0.0
146
1.0
147
0.09
 71
     0
 72
     0
 73
     1
 74
     1
 75
     0
 76
     0
 77
     0
 78
     0
170
     0
171
     2
172
     0
173
     0
174
     0
175
     0
176
     0
177
     0
178
     0
  0
ENDTAB
  0
ENDSEC
  0
SECTION
  2
BLOCKS
  0
BLOCK
  8
0
  2
$MODEL_SPACE
 70
     0
 10
0.0
 20
0.0
 30
0.0
  3
$MODEL_SPACE
  1

  0
ENDBLK
  5
20
  8
0
  0
BLOCK
 67
     1
  8
0
  2
$PAPER_SPACE
 70
     0
 10
0.0
 20
0.0
 30
0.0
  3
$PAPER_SPACE
  1

  0
ENDBLK
  5
1C
 67
     1
  8
0
  0
ENDSEC
  0
SECTION
  2
ENTITIES
  0
LINE
  5
22
  8
0
 10
0.0000000000000006
 20
41.995614999999788
 30
0.0
 11
1.5
 21
49.002014999999801
 31
0.0
  0
LINE
  5
23
  8
0
 10
0.0000000000000006
 20
41.995614999999788
 30
0.0
 11
1.5
 21
34.989214999999803
 31
0.0
  0
LINE
  5
24
  8
0
 10
0.0000000000000006
 20
41.995614999999788
 30
0.0
 11
0.0000000000000006
 21
45.8258149999998
 31
0.0
  0
LINE
  5
25
  8
0
 10
0.0000000000000006
 20
45.8258149999998
 30
0.0
 11
1.5
 21
52.832214999999799
 31
0.0
  0
LINE
  5
26
  8
0
 10
0.0000000000000006
 20
45.8258149999998
 30
0.0
 11
0.0000000000000006
 21
41.995614999999788
 31
0.0
  0
LINE
  5
27
  8
0
 10
1.0
 20
38.165414999999797
 30
0.0
 11
2.5
 21
31.2875149999998
 31
0.0
  0
LINE
  5
28
  8
0
 10
0.500000000000001
 20
41.229514999999793
 30
0.0
 11
2.0
 21
48.1717149999998
 31
0.0
  0
LINE
  5
29
  8
0
 10
0.500000000000001
 20
41.229514999999793
 30
0.0
 11
1.0
 21
38.165414999999797
 31
0.0
  0
LINE
  5
2A
  8
0
 10
3.5
 20
29.565314999999799
 30
0.0
 11
7.4000000000000004
 21
23.394514999999799
 31
0.0
  0
LINE
  5
2B
  8
0
 10
2.5
 20
31.2875149999998
 30
0.0
 11
3.5
 21
29.565314999999799
 31
0.0
  0
LINE
  5
2C
  8
0
 10
2.0
 20
48.1717149999998
 30
0.0
 11
6.2000000000000002
 21
54.728114999999796
 31
0.0
  0
LINE
  5
2D
  8
0
 10
1.5
 20
34.989214999999803
 30
0.0
 11
1.79216358099533
 21
34.533133737514603
 31
0.0
  0
LINE
  5
2E
  8
0
 10
1.5
 20
49.002014999999801
 30
0.0
 11
5.7000000000000002
 21
55.558414999999798
 31
0.0
  0
LINE
  5
2F
  8
0
 10
0.0000000000000006
 20
46.591914999999787
 30
0.0
 11
1.5
 21
53.598214999999797
 31
0.0
  0
LINE
  5
30
  8
0
 10
0.0000000000000006
 20
46.591914999999787
 30
0.0
 11
0.500000000000001
 21
50.805114999999802
 31
0.0
  0
LINE
  5
31
  8
0
 10
0.0000000000000006
 20
46.591914999999787
 30
0.0
 11
0.0820071648778276
 21
46.20886499999979
 31
0.0
  0
LINE
  5
32
  8
0
 10
0.0000000000000006
 20
46.591914999999787
 30
0.0
 11
0.0820071648778276
 21
46.20886499999979
 31
0.0
  0
LINE
  5
33
  8
0
 10
1.5
 20
52.832214999999799
 30
0.0
 11
5.7000000000000002
 21
59.388614999999803
 31
0.0
  0
LINE
  5
34
  8
0
 10
1.5
 20
53.598214999999797
 30
0.0
 11
5.7000000000000002
 21
60.15471499999979
 31
0.0
  0
LINE
  5
35
  8
0
 10
2.0
 20
57.747214999999798
 30
0.0
 11
3.5
 21
61.703314999999797
 31
0.0
  0
LINE
  5
36
  8
0
 10
0.500000000000001
 20
50.805114999999802
 30
0.0
 11
2.0
 21
57.747214999999798
 31
0.0
  0
LINE
  5
37
  8
0
 10
5.5
 20
32.803114999999799
 30
0.0
 11
6.7999999999999989
 21
38.909514999999793
 31
0.0
  0
LINE
  5
38
  8
0
 10
5.5
 20
32.803114999999799
 30
0.0
 11
6.7999999999999989
 21
26.696614999999799
 31
0.0
  0
LINE
  5
39
  8
0
 10
5.7000000000000002
 20
55.558414999999798
 30
0.0
 11
12.5
 21
61.279214999999802
 31
0.0
  0
LINE
  5
3A
  8
0
 10
6.7999999999999989
 20
26.696614999999799
 30
0.0
 11
10.5
 21
20.975814999999798
 31
0.0
  0
LINE
  5
3B
  8
0
 10
5.9000000000000004
 20
32.4966149999998
 30
0.0
 11
7.2999999999999989
 21
38.538814999999794
 31
0.0
  0
LINE
  5
3C
  8
0
 10
5.9000000000000004
 20
32.4966149999998
 30
0.0
 11
7.2999999999999989
 21
26.454414999999798
 31
0.0
  0
LINE
  5
3D
  8
0
 10
6.1738969249610989
 20
33.678714999999798
 30
0.0
 11
7.2000000000000002
 21
38.845314999999793
 31
0.0
  0
LINE
  5
3E
  8
0
 10
7.2999999999999989
 20
26.454414999999798
 30
0.0
 11
10.9
 21
20.8622149999998
 31
0.0
  0
LINE
  5
3F
  8
0
 10
9.5999999999999996
 20
21.3561149999998
 30
0.0
 11
15.699999999999999
 21
16.3424149999998
 31
0.0
  0
LINE
  5
40
  8
0
 10
7.4000000000000004
 20
23.394514999999799
 30
0.0
 11
9.5999999999999996
 21
21.3561149999998
 31
0.0
  0
LINE
  5
41
  8
0
 10
7.2000000000000002
 20
38.845314999999793
 30
0.0
 11
10.800000000000001
 21
44.501814999999802
 31
0.0
  0
LINE
  5
42
  8
0
 10
6.7999999999999989
 20
38.909514999999793
 30
0.0
 11
10.5
 21
44.6304149999998
 31
0.0
  0
LINE
  5
43
  8
0
 10
6.2000000000000002
 20
54.728114999999796
 30
0.0
 11
12.800000000000001
 21
60.320314999999802
 31
0.0
  0
LINE
  5
44
  8
0
 10
5.7000000000000002
 20
59.388614999999803
 30
0.0
 11
12.5
 21
65.109414999999785
 31
0.0
  0
LINE
  5
45
  8
0
 10
5.7000000000000002
 20
60.15471499999979
 30
0.0
 11
12.5
 21
65.875514999999794
 31
0.0
  0
LINE
  5
46
  8
0
 10
3.5
 20
61.703314999999797
 30
0.0
 11
5.9000000000000004
 21
65.913914999999804
 31
0.0
  0
LINE
  5
47
  8
0
 10
5.9000000000000004
 20
65.913914999999804
 30
0.0
 11
9.5999999999999996
 21
71.827614999999795
 31
0.0
  0
LINE
  5
48
  8
0
 10
10.5
 20
20.975814999999798
 30
0.0
 11
16.399999999999991
 21
16.026314999999801
 31
0.0
  0
LINE
  5
49
  8
0
 10
10.9
 20
20.8622149999998
 30
0.0
 11
16.800000000000001
 21
15.97701499999979
 31
0.0
  0
LINE
  5
4A
  8
0
 10
10.800000000000001
 20
44.501814999999802
 30
0.0
 11
16.699999999999989
 21
49.387014999999799
 31
0.0
  0
LINE
  5
4B
  8
0
 10
10.5
 20
44.6304149999998
 30
0.0
 11
16.399999999999991
 21
49.579814999999797
 31
0.0
  0
LINE
  5
4C
  8
0
 10
11.513400000000001
 20
27.831114999999791
 30
0.0
 11
12.102
 21
27.347914999999801
 31
0.0
  0
LINE
  5
4D
  8
0
 10
12.102
 20
27.347914999999801
 30
0.0
 11
12.6905
 21
27.250414999999801
 31
0.0
  0
LINE
  5
4E
  8
0
 10
12.3857
 20
23.572214999999801
 30
0.0
 11
12.8766
 21
23.566014999999801
 31
0.0
  0
LINE
  5
50
  8
0
 10
12.3233
 20
23.220014999999801
 30
0.0
 11
12.748100000000001
 21
22.702914999999791
 31
0.0
  0
LINE
  5
51
  8
0
 10
12.3233
 20
23.220014999999801
 30
0.0
 11
12.3857
 21
23.572214999999801
 31
0.0
  0
LINE
  5
52
  8
0
 10
12.102
 20
28.6335149999998
 30
0.0
 11
12.6905
 21
28.1503149999998
 31
0.0
  0
LINE
  5
54
  8
0
 10
12.3857
 20
33.001714999999791
 30
0.0
 11
12.8766
 21
32.427214999999798
 31
0.0
  0
LINE
  5
55
  8
0
 10
12.3233
 20
33.602714999999797
 30
0.0
 11
12.748100000000001
 21
33.871014999999801
 31
0.0
  0
LINE
  5
56
  8
0
 10
12.3233
 20
33.602714999999797
 30
0.0
 11
12.3857
 21
33.001714999999791
 31
0.0
  0
LINE
  5
58
  8
0
 10
11.513400000000001
 20
28.7310149999998
 30
0.0
 11
12.102
 21
28.6335149999998
 31
0.0
  0
LINE
  5
5A
  8
0
 10
11.261200000000001
 20
28.405514999999799
 30
0.0
 11
11.513400000000001
 21
28.7310149999998
 31
0.0
  0
LINE
  5
5B
  8
0
 10
11.261200000000001
 20
28.405514999999799
 30
0.0
 11
11.513400000000001
 21
27.831114999999791
 31
0.0
  0
LINE
  5
5C
  8
0
 10
12.5
 20
61.279214999999802
 30
0.0
 11
21.399999999999999
 21
65.650214999999804
 31
0.0
  0
LINE
  5
5D
  8
0
 10
12.6905
 20
27.250414999999801
 30
0.0
 11
12.9427
 21
27.575914999999799
 31
0.0
  0
LINE
  5
5F
  8
0
 10
15.699999999999999
 20
16.3424149999998
 30
0.0
 11
23.5
 21
12.421414999999801
 31
0.0
  0
LINE
  5
60
  8
0
 10
16.399999999999991
 20
16.026314999999801
 30
0.0
 11
24.100000000000001
 21
12.23391499999979
 31
0.0
  0
LINE
  5
61
  8
0
 10
16.669899999999998
 20
17.675314999999799
 30
0.0
 11
17.029599999999999
 21
17.741114999999791
 31
0.0
  0
LINE
  5
62
  8
0
 10
16.010300000000001
 20
17.943514999999788
 30
0.0
 11
16.669899999999998
 21
17.675314999999799
 31
0.0
  0
LINE
  5
63
  8
0
 10
15.3103
 20
18.722914999999801
 30
0.0
 11
15.6699
 21
18.788614999999801
 31
0.0
  0
LINE
  5
64
  8
0
 10
15.3103
 20
18.722914999999801
 30
0.0
 11
15.441800000000001
 21
18.376614999999791
 31
0.0
  0
LINE
  5
66
  8
0
 10
15.6699
 20
18.788614999999801
 30
0.0
 11
16.329599999999989
 21
18.520514999999801
 31
0.0
  0
LINE
  5
68
  8
0
 10
16.329599999999989
 20
18.520514999999801
 30
0.0
 11
16.897999999999989
 21
18.087414999999801
 31
0.0
  0
LINE
  5
6A
  8
0
 10
15.441800000000001
 20
18.376614999999791
 30
0.0
 11
16.010300000000001
 21
17.943514999999788
 31
0.0
  0
LINE
  5
6B
  8
0
 10
13.885
 20
22.3181149999998
 30
0.0
 11
13.9475
 21
22.6702149999998
 31
0.0
  0
LINE
  5
6D
  8
0
 10
12.8766
 20
23.566014999999801
 30
0.0
 11
13.5227
 21
23.187314999999799
 31
0.0
  0
LINE
  5
70
  8
0
 10
13.5227
 20
23.187314999999799
 30
0.0
 11
13.9475
 21
22.6702149999998
 31
0.0
  0
LINE
  5
72
  8
0
 10
13.3942
 20
22.3242149999998
 30
0.0
 11
13.885
 21
22.3181149999998
 31
0.0
  0
LINE
  5
73
  8
0
 10
12.748100000000001
 20
22.702914999999791
 30
0.0
 11
13.3942
 21
22.3242149999998
 31
0.0
  0
LINE
  5
74
  8
0
 10
12.8766
 20
32.427214999999798
 30
0.0
 11
13.5227
 21
32.225314999999803
 31
0.0
  0
LINE
  5
75
  8
0
 10
13.5227
 20
32.225314999999803
 30
0.0
 11
13.9475
 21
32.4934149999998
 31
0.0
  0
LINE
  5
77
  8
0
 10
13.885
 20
33.094514999999802
 30
0.0
 11
13.9475
 21
32.4934149999998
 31
0.0
  0
LINE
  5
79
  8
0
 10
13.3942
 20
33.669014999999803
 30
0.0
 11
13.885
 21
33.094514999999802
 31
0.0
  0
LINE
  5
7A
  8
0
 10
12.748100000000001
 20
33.871014999999801
 30
0.0
 11
13.3942
 21
33.669014999999803
 31
0.0
  0
LINE
  5
7D
  8
0
 10
12.6905
 20
28.1503149999998
 30
0.0
 11
12.9427
 21
27.575914999999799
 31
0.0
  0
LINE
  5
7F
  8
0
 10
15.3103
 20
37.851114999999787
 30
0.0
 11
15.6699
 21
37.204614999999791
 31
0.0
  0
LINE
  5
80
  8
0
 10
15.3103
 20
37.851114999999787
 30
0.0
 11
15.441800000000001
 21
38.446214999999789
 31
0.0
  0
LINE
  5
81
  8
0
 10
15.6699
 20
37.204614999999791
 30
0.0
 11
16.329599999999989
 21
36.892114999999791
 31
0.0
  0
LINE
  5
82
  8
0
 10
16.329599999999989
 20
36.892114999999791
 30
0.0
 11
16.897999999999989
 21
37.076314999999788
 31
0.0
  0
LINE
  5
83
  8
0
 10
16.800000000000001
 20
15.97701499999979
 30
0.0
 11
18.5
 21
15.078014999999789
 31
0.0
  0
LINE
  5
85
  8
0
 10
16.897999999999989
 20
18.087414999999801
 30
0.0
 11
17.029599999999999
 21
17.741114999999791
 31
0.0
  0
LINE
  5
87
  8
0
 10
17.363600000000002
 20
23.973014999999801
 30
0.0
 11
17.727900000000002
 21
23.458714999999788
 31
0.0
  0
LINE
  5
88
  8
0
 10
17.363600000000002
 20
23.973014999999801
 30
0.0
 11
17.545200000000001
 21
24.350914999999791
 31
0.0
  0
LINE
  5
89
  8
0
 10
17.545200000000001
 20
24.350914999999791
 30
0.0
 11
18.143000000000001
 21
24.383014999999801
 31
0.0
  0
LINE
  5
8A
  8
0
 10
18.143000000000001
 20
24.383014999999801
 30
0.0
 11
18.819099999999992
 21
24.0328149999998
 31
0.0
  0
LINE
  5
8B
  8
0
 10
18.403999999999989
 20
23.108514999999802
 30
0.0
 11
19.001799999999989
 21
23.140614999999801
 31
0.0
  0
LINE
  5
8C
  8
0
 10
17.727900000000002
 20
23.458714999999788
 30
0.0
 11
18.403999999999989
 21
23.108514999999802
 31
0.0
  0
LINE
  5
8D
  8
0
 10
17.545200000000001
 20
27.6550149999998
 30
0.0
 11
18.143000000000001
 21
27.196914999999802
 31
0.0
  0
LINE
  5
8E
  8
0
 10
18.143000000000001
 20
27.196914999999802
 30
0.0
 11
18.819099999999992
 21
27.1213149999998
 31
0.0
  0
LINE
  5
8F
  8
0
 10
18.5
 20
15.078014999999789
 30
0.0
 11
25.5
 21
11.671314999999799
 31
0.0
  0
LINE
  5
90
  8
0
 10
18.819099999999992
 20
24.0328149999998
 30
0.0
 11
19.183399999999988
 21
23.518614999999802
 31
0.0
  0
LINE
  5
92
  8
0
 10
19.001799999999989
 20
23.140614999999801
 30
0.0
 11
19.183399999999988
 21
23.518614999999802
 31
0.0
  0
LINE
  5
94
  8
0
 10
19.060700000000001
 20
20.2556149999998
 30
0.0
 11
19.539400000000001
 21
20.378814999999801
 31
0.0
  0
LINE
  5
95
  8
0
 10
19.060700000000001
 20
20.2556149999998
 30
0.0
 11
19.074200000000001
 21
19.863414999999801
 31
0.0
  0
LINE
  5
97
  8
0
 10
19.074200000000001
 20
19.863414999999801
 30
0.0
 11
19.596499999999988
 21
19.424214999999801
 31
0.0
  0
LINE
  5
98
  8
0
 10
18.819099999999992
 20
27.1213149999998
 30
0.0
 11
19.183399999999988
 21
27.453014999999802
 31
0.0
  0
LINE
  5
99
  8
0
 10
19.001799999999989
 20
28.013514999999789
 30
0.0
 11
19.183399999999988
 21
27.453014999999802
 31
0.0
  0
LINE
  5
9B
  8
0
 10
18.403999999999989
 20
28.471514999999801
 30
0.0
 11
19.001799999999989
 21
28.013514999999789
 31
0.0
  0
LINE
  5
9C
  8
0
 10
17.727900000000002
 20
28.547114999999799
 30
0.0
 11
18.403999999999989
 21
28.471514999999801
 31
0.0
  0
LINE
  5
9D
  8
0
 10
17.363600000000002
 20
28.215414999999801
 30
0.0
 11
17.727900000000002
 21
28.547114999999799
 31
0.0
  0
LINE
  5
9E
  8
0
 10
17.363600000000002
 20
28.215414999999801
 30
0.0
 11
17.545200000000001
 21
27.6550149999998
 31
0.0
  0
LINE
  5
A0
  8
0
 10
19.060700000000001
 20
31.750314999999791
 30
0.0
 11
19.539400000000001
 21
31.201214999999799
 31
0.0
  0
LINE
  5
A1
  8
0
 10
19.060700000000001
 20
31.750314999999791
 30
0.0
 11
19.074200000000001
 21
32.325014999999802
 31
0.0
  0
LINE
  5
A3
  8
0
 10
20.087700000000002
 20
14.5253149999998
 30
0.0
 11
20.291699999999999
 21
14.6388149999998
 31
0.0
  0
LINE
  5
A4
  8
0
 10
20.087700000000002
 20
14.5253149999998
 30
0.0
 11
20.404399999999988
 21
14.216914999999799
 31
0.0
  0
LINE
  5
A7
  8
0
 10
20.291699999999999
 20
14.6388149999998
 30
0.0
 11
20.920000000000002
 21
14.4796149999998
 31
0.0
  0
LINE
  5
A9
  8
0
 10
20.3048
 20
19.191114999999801
 30
0.0
 11
20.783499999999989
 21
19.314414999999801
 31
0.0
  0
LINE
  5
AA
  8
0
 10
19.539400000000001
 20
20.378814999999801
 30
0.0
 11
20.247800000000002
 21
20.1457149999998
 31
0.0
  0
LINE
  5
AD
  8
0
 10
20.247800000000002
 20
20.1457149999998
 30
0.0
 11
20.769999999999989
 21
19.706514999999801
 31
0.0
  0
LINE
  5
AF
  8
0
 10
19.596499999999988
 20
19.424214999999801
 30
0.0
 11
20.3048
 21
19.191114999999801
 31
0.0
  0
LINE
  5
B1
  8
0
 10
19.539400000000001
 20
31.201214999999799
 30
0.0
 11
20.247800000000002
 21
31.008314999999801
 31
0.0
  0
LINE
  5
B2
  8
0
 10
20.247800000000002
 20
31.008314999999801
 30
0.0
 11
20.769999999999989
 21
31.265014999999799
 31
0.0
  0
LINE
  5
B3
  8
0
 10
20.404399999999988
 20
14.216914999999799
 30
0.0
 11
21.077699999999989
 21
13.8890149999998
 31
0.0
  0
LINE
  5
B4
  8
0
 10
20.920000000000002
 20
14.4796149999998
 30
0.0
 11
21.593299999999999
 21
14.15161499999979
 31
0.0
  0
LINE
  5
B7
  8
0
 10
20.769999999999989
 20
19.706514999999801
 30
0.0
 11
20.783499999999989
 21
19.314414999999801
 31
0.0
  0
LINE
  5
B9
  8
0
 10
20.769999999999989
 20
31.265014999999799
 30
0.0
 11
20.783499999999989
 21
31.839714999999799
 31
0.0
  0
LINE
  5
BA
  8
0
 10
20.3048
 20
32.388814999999802
 30
0.0
 11
20.783499999999989
 21
31.839714999999799
 31
0.0
  0
LINE
  5
BB
  8
0
 10
19.596499999999988
 20
32.581714999999797
 30
0.0
 11
20.3048
 21
32.388814999999802
 31
0.0
  0
LINE
  5
BC
  8
0
 10
19.074200000000001
 20
32.325014999999802
 30
0.0
 11
19.596499999999988
 21
32.581714999999797
 31
0.0
  0
LINE
  5
BD
  8
0
 10
19.074200000000001
 20
32.325014999999802
 30
0.0
 11
19.1024219363965
 21
32.371578502855101
 31
0.0
  0
LINE
  5
BE
  8
0
 10
16.897999999999989
 20
37.076314999999788
 30
0.0
 11
17.029599999999999
 21
37.67141499999979
 31
0.0
  0
LINE
  5
C0
  8
0
 10
16.669899999999998
 20
38.317914999999793
 30
0.0
 11
17.029599999999999
 21
37.67141499999979
 31
0.0
  0
LINE
  5
C1
  8
0
 10
16.010300000000001
 20
38.630414999999793
 30
0.0
 11
16.669899999999998
 21
38.317914999999793
 31
0.0
  0
LINE
  5
C2
  8
0
 10
15.441800000000001
 20
38.446214999999789
 30
0.0
 11
16.010300000000001
 21
38.630414999999793
 31
0.0
  0
LINE
  5
C4
  8
0
 10
21.705999999999989
 20
13.7298149999998
 30
0.0
 11
21.91
 21
13.8433149999998
 31
0.0
  0
LINE
  5
C5
  8
0
 10
21.593299999999999
 20
14.15161499999979
 30
0.0
 11
21.91
 21
13.8433149999998
 31
0.0
  0
LINE
  5
C7
  8
0
 10
21.077699999999989
 20
13.8890149999998
 30
0.0
 11
21.705999999999989
 21
13.7298149999998
 31
0.0
  0
LINE
  5
C8
  8
0
 10
20.920000000000002
 20
40.933014999999791
 30
0.0
 11
21.593299999999999
 21
41.012114999999788
 31
0.0
  0
LINE
  5
C9
  8
0
 10
20.087700000000002
 20
42.048614999999792
 30
0.0
 11
20.291699999999999
 21
41.354514999999793
 31
0.0
  0
LINE
  5
CA
  8
0
 10
20.087700000000002
 20
42.048614999999792
 30
0.0
 11
20.404399999999988
 21
42.60591499999979
 31
0.0
  0
LINE
  5
CB
  8
0
 10
20.291699999999999
 20
41.354514999999793
 30
0.0
 11
20.920000000000002
 21
40.933014999999791
 31
0.0
  0
LINE
  5
CC
  8
0
 10
21.593299999999999
 20
41.012114999999788
 30
0.0
 11
21.91
 21
41.569314999999797
 31
0.0
  0
LINE
  5
CE
  8
0
 10
21.705999999999989
 20
42.263514999999792
 30
0.0
 11
21.91
 21
41.569314999999797
 31
0.0
  0
LINE
  5
CF
  8
0
 10
16.699999999999989
 20
49.387014999999799
 30
0.0
 11
24.300000000000001
 21
53.1794149999998
 31
0.0
  0
LINE
  5
D0
  8
0
 10
16.399999999999991
 20
49.579814999999797
 30
0.0
 11
24.100000000000001
 21
53.372314999999801
 31
0.0
  0
LINE
  5
D1
  8
0
 10
12.800000000000001
 20
60.320314999999802
 30
0.0
 11
21.499999999999989
 21
64.562714999999798
 31
0.0
  0
LINE
  5
D3
  8
0
 10
21.499999999999989
 20
64.562714999999798
 30
0.0
 11
21.899999999999991
 21
64.6886149999998
 31
0.0
  0
LINE
  5
D4
  8
0
 10
21.077699999999989
 20
42.685014999999787
 30
0.0
 11
21.705999999999989
 21
42.263514999999792
 31
0.0
  0
LINE
  5
D5
  8
0
 10
20.404399999999988
 20
42.60591499999979
 30
0.0
 11
21.077699999999989
 21
42.685014999999787
 31
0.0
  0
LINE
  5
D8
  8
0
 10
23.5
 20
12.421414999999801
 30
0.0
 11
24.100000000000001
 21
12.23391499999979
 31
0.0
  0
LINE
  5
D9
  8
0
 10
23.718099999999989
 20
15.7235149999998
 30
0.0
 11
24.045200000000001
 21
15.9148149999998
 31
0.0
  0
LINE
  5
DA
  8
0
 10
23.0258
 20
15.8380149999998
 30
0.0
 11
23.718099999999989
 21
15.7235149999998
 31
0.0
  0
LINE
  5
DB
  8
0
 10
22.1736
 20
16.552014999999798
 30
0.0
 11
22.500599999999991
 21
16.7434149999998
 31
0.0
  0
LINE
  5
DC
  8
0
 10
22.1736
 20
16.552014999999798
 30
0.0
 11
22.381299999999989
 21
16.178514999999798
 31
0.0
  0
LINE
  5
DE
  8
0
 10
22.500599999999991
 20
16.7434149999998
 30
0.0
 11
23.192900000000002
 21
16.628814999999801
 31
0.0
  0
LINE
  5
E0
  8
0
 10
23.192900000000002
 20
16.628814999999801
 30
0.0
 11
23.837499999999999
 21
16.288314999999798
 31
0.0
  0
LINE
  5
E2
  8
0
 10
22.381299999999989
 20
16.178514999999798
 30
0.0
 11
23.0258
 21
15.8380149999998
 31
0.0
  0
LINE
  5
E3
  8
0
 10
24.100000000000001
 20
12.23391499999979
 30
0.0
 11
24.554818070517801
 21
12.112371258548199
 31
0.0
  0
LINE
  5
E4
  8
0
 10
24.100000000000001
 20
12.23391499999979
 30
0.0
 11
24.554818070517801
 21
12.112371258548199
 31
0.0
  0
LINE
  5
E6
  8
0
 10
23.837499999999999
 20
16.288314999999798
 30
0.0
 11
24.045200000000001
 21
15.9148149999998
 31
0.0
  0
LINE
  5
E8
  8
0
 10
25.5
 20
11.671314999999799
 30
0.0
 11
26.4488299519629
 21
11.414124924587
 31
0.0
  0
LINE
  5
E9
  8
0
 10
25.597200000000001
 20
20.909114999999801
 30
0.0
 11
25.697299999999991
 21
21.337014999999791
 31
0.0
  0
LINE
  5
EB
  8
0
 10
25.0184
 20
20.73851499999979
 30
0.0
 11
25.597200000000001
 21
20.909114999999801
 31
0.0
  0
LINE
  5
EC
  8
0
 10
23.92209999999999
 20
21.809614999999798
 30
0.0
 11
24.500800000000002
 21
21.980314999999791
 31
0.0
  0
LINE
  5
EE
  8
0
 10
24.500800000000002
 20
21.980314999999791
 30
0.0
 11
25.2348
 21
21.7784149999998
 31
0.0
  0
LINE
  5
EF
  8
0
 10
25.2348
 20
21.7784149999998
 30
0.0
 11
25.697299999999991
 21
21.337014999999791
 31
0.0
  0
LINE
  5
F1
  8
0
 10
24.284400000000002
 20
20.940414999999788
 30
0.0
 11
25.0184
 21
20.73851499999979
 31
0.0
  0
LINE
  5
F2
  8
0
 10
23.821899999999999
 20
21.381714999999801
 30
0.0
 11
24.284400000000002
 21
20.940414999999788
 31
0.0
  0
LINE
  5
F3
  8
0
 10
23.821899999999999
 20
21.381714999999801
 30
0.0
 11
23.92209999999999
 21
21.809614999999798
 31
0.0
  0
LINE
  5
F4
  8
0
 10
23.92209999999999
 20
27.265414999999798
 30
0.0
 11
24.500800000000002
 21
26.837314999999801
 31
0.0
  0
LINE
  5
F5
  8
0
 10
24.500800000000002
 20
26.837314999999801
 30
0.0
 11
25.2348
 21
26.781814999999799
 31
0.0
  0
LINE
  5
F6
  8
0
 10
25.2348
 20
26.781814999999799
 30
0.0
 11
25.697299999999991
 21
27.112914999999798
 31
0.0
  0
LINE
  5
F7
  8
0
 10
26.442900000000002
 20
11.3934149999998
 30
0.0
 11
26.996999999999989
 21
11.3342149999998
 31
0.0
  0
LINE
  5
F9
  8
0
 10
26.4084
 20
11.25971499999979
 30
0.0
 11
26.8886
 21
11.018714999999791
 31
0.0
  0
LINE
  5
FA
  8
0
 10
26.4084
 20
11.25971499999979
 30
0.0
 11
26.442900000000002
 21
11.3934149999998
 31
0.0
  0
LINE
  5
FC
  8
0
 10
26.8886
 20
11.018714999999791
 30
0.0
 11
27.620899999999999
 21
10.8098149999998
 31
0.0
  0
LINE
  5
FD
  8
0
 10
26.996999999999989
 20
11.3342149999998
 30
0.0
 11
27.729299999999999
 21
11.125214999999789
 31
0.0
  0
LINE
  5
FF
  8
0
 10
27.073899999999998
 20
13.162114999999799
 30
0.0
 11
27.796900000000001
 21
12.93741499999979
 31
0.0
  0
LINE
  5
100
  8
0
 10
27.620899999999999
 20
10.8098149999998
 30
0.0
 11
28.174900000000001
 21
10.75061499999979
 31
0.0
  0
LINE
  5
101
  8
0
 10
28.2268903156282
 20
10.932163453963589
 30
0.0
 11
33.6983559284471
 21
9.4490666665274698
 31
0.0
  0
LINE
  5
103
  8
0
 10
28.174900000000001
 20
10.75061499999979
 30
0.0
 11
28.209399999999999
 21
10.8843149999998
 31
0.0
  0
LINE
  5
105
  8
0
 10
27.729299999999999
 20
11.125214999999789
 30
0.0
 11
28.209399999999999
 21
10.8843149999998
 31
0.0
  0
LINE
  5
107
  8
0
 10
27.796900000000001
 20
12.93741499999979
 30
0.0
 11
28.425999999999998
 21
12.9346149999998
 31
0.0
  0
LINE
  5
109
  8
0
 10
28.425999999999998
 20
12.9346149999998
 30
0.0
 11
28.579000000000001
 21
13.166714999999799
 31
0.0
  0
LINE
  5
10A
  8
0
 10
28.191299999999991
 20
13.4897149999998
 30
0.0
 11
28.579000000000001
 21
13.166714999999799
 31
0.0
  0
LINE
  5
10C
  8
0
 10
27.468299999999999
 20
13.7145149999998
 30
0.0
 11
28.191299999999991
 21
13.4897149999998
 31
0.0
  0
LINE
  5
10E
  8
0
 10
28.532900000000001
 20
16.204314999999799
 30
0.0
 11
28.801300000000001
 21
16.520814999999789
 31
0.0
  0
LINE
  5
10F
  8
0
 10
28.532900000000001
 20
16.204314999999799
 30
0.0
 11
28.821899999999989
 21
15.8089149999998
 31
0.0
  0
LINE
  5
111
  8
0
 10
28.801300000000001
 20
16.520814999999789
 30
0.0
 11
29.4939
 21
16.564614999999801
 31
0.0
  0
LINE
  5
113
  8
0
 10
29.3461
 20
22.642314999999801
 30
0.0
 11
29.731000000000002
 21
22.183514999999801
 31
0.0
  0
LINE
  5
114
  8
0
 10
29.3461
 20
22.642314999999801
 30
0.0
 11
29.548200000000001
 21
23.075814999999789
 31
0.0
  0
LINE
  5
116
  8
0
 10
29.4939
 20
16.564614999999801
 30
0.0
 11
30.194800000000001
 21
16.323714999999801
 31
0.0
  0
LINE
  5
117
  8
0
 10
28.821899999999989
 20
15.8089149999998
 30
0.0
 11
29.522899999999989
 21
15.5680149999998
 31
0.0
  0
LINE
  5
118
  8
0
 10
26.839300000000001
 20
13.717214999999801
 30
0.0
 11
27.468299999999999
 21
13.7145149999998
 31
0.0
  0
LINE
  5
11A
  8
0
 10
26.686199999999999
 20
13.485214999999791
 30
0.0
 11
27.073899999999998
 21
13.162114999999799
 31
0.0
  0
LINE
  5
11B
  8
0
 10
26.686199999999999
 20
13.485214999999791
 30
0.0
 11
26.839300000000001
 21
13.717214999999801
 31
0.0
  0
LINE
  5
11E
  8
0
 10
25.597200000000001
 20
27.651114999999798
 30
0.0
 11
25.697299999999991
 21
27.112914999999798
 31
0.0
  0
LINE
  5
120
  8
0
 10
25.0184
 20
28.079114999999788
 30
0.0
 11
25.597200000000001
 21
27.651114999999798
 31
0.0
  0
LINE
  5
121
  8
0
 10
24.284400000000002
 20
28.134614999999801
 30
0.0
 11
25.0184
 21
28.079114999999788
 31
0.0
  0
LINE
  5
123
  8
0
 10
23.821899999999999
 20
27.803614999999802
 30
0.0
 11
24.284400000000002
 21
28.134614999999801
 31
0.0
  0
LINE
  5
124
  8
0
 10
23.821899999999999
 20
27.803614999999802
 30
0.0
 11
23.92209999999999
 21
27.265414999999798
 31
0.0
  0
LINE
  5
126
  8
0
 10
29.548200000000001
 20
23.075814999999789
 30
0.0
 11
30.193799999999989
 21
23.2373149999998
 31
0.0
  0
LINE
  5
128
  8
0
 10
30.193799999999989
 20
23.2373149999998
 30
0.0
 11
30.9176
 21
23.0164149999998
 31
0.0
  0
LINE
  5
12A
  8
0
 10
29.731000000000002
 20
22.183514999999801
 30
0.0
 11
30.454799999999992
 21
21.96271499999979
 31
0.0
  0
LINE
  5
12B
  8
0
 10
30.194800000000001
 20
16.323714999999801
 30
0.0
 11
30.483899999999991
 21
15.928314999999801
 31
0.0
  0
LINE
  5
12D
  8
0
 10
30.215499999999992
 20
15.611814999999799
 30
0.0
 11
30.483899999999991
 21
15.928314999999801
 31
0.0
  0
LINE
  5
12E
  8
0
 10
29.522899999999989
 20
15.5680149999998
 30
0.0
 11
30.215499999999992
 21
15.611814999999799
 31
0.0
  0
LINE
  5
12F
  8
0
 10
29.4939
 20
31.995614999999798
 30
0.0
 11
30.194800000000001
 21
32.126214999999803
 31
0.0
  0
LINE
  5
130
  8
0
 10
28.532900000000001
 20
32.870714999999798
 30
0.0
 11
28.801300000000001
 21
32.296814999999789
 31
0.0
  0
LINE
  5
131
  8
0
 10
28.532900000000001
 20
32.870714999999798
 30
0.0
 11
28.821899999999989
 21
33.376414999999803
 31
0.0
  0
LINE
  5
134
  8
0
 10
28.801300000000001
 20
32.296814999999789
 30
0.0
 11
29.4939
 21
31.995614999999798
 31
0.0
  0
LINE
  5
135
  8
0
 10
30.194800000000001
 20
32.126214999999803
 30
0.0
 11
30.483899999999991
 21
32.6319149999998
 31
0.0
  0
LINE
  5
136
  8
0
 10
30.454799999999992
 20
21.96271499999979
 30
0.0
 11
31.100300000000001
 21
22.124214999999801
 31
0.0
  0
LINE
  5
138
  8
0
 10
30.245699999999999
 20
26.4813149999998
 30
0.0
 11
30.768999999999998
 21
26.045714999999799
 31
0.0
  0
LINE
  5
139
  8
0
 10
30.9176
 20
23.0164149999998
 30
0.0
 11
31.302399999999999
 21
22.557714999999789
 31
0.0
  0
LINE
  5
13B
  8
0
 10
30.768999999999998
 20
26.045714999999799
 30
0.0
 11
31.521799999999988
 21
25.966414999999799
 31
0.0
  0
LINE
  5
13C
  8
0
 10
30.781500000000001
 20
27.312714999999798
 30
0.0
 11
31.534300000000002
 21
27.233414999999798
 31
0.0
  0
LINE
  5
13D
  8
0
 10
30.240200000000002
 20
27.007414999999789
 30
0.0
 11
30.781500000000001
 21
27.312714999999798
 31
0.0
  0
LINE
  5
13E
  8
0
 10
30.240200000000002
 20
27.007414999999789
 30
0.0
 11
30.245699999999999
 21
26.4813149999998
 31
0.0
  0
LINE
  5
13F
  8
0
 10
30.215499999999992
 20
33.205814999999802
 30
0.0
 11
30.483899999999991
 21
32.6319149999998
 31
0.0
  0
LINE
  5
140
  8
0
 10
22.1736
 20
35.453914999999789
 30
0.0
 11
22.500599999999991
 21
34.836614999999803
 31
0.0
  0
LINE
  5
141
  8
0
 10
22.1736
 20
35.453914999999789
 30
0.0
 11
22.381299999999989
 21
36.009914999999793
 31
0.0
  0
LINE
  5
142
  8
0
 10
22.500599999999991
 20
34.836614999999803
 30
0.0
 11
23.192900000000002
 21
34.5253149999998
 31
0.0
  0
LINE
  5
143
  8
0
 10
23.192900000000002
 20
34.5253149999998
 30
0.0
 11
23.837499999999999
 21
34.683214999999798
 31
0.0
  0
LINE
  5
144
  8
0
 10
23.837499999999999
 20
34.683214999999798
 30
0.0
 11
24.045200000000001
 21
35.239214999999788
 31
0.0
  0
LINE
  5
145
  8
0
 10
23.837499999999999
 20
34.683214999999798
 30
0.0
 11
24.15942904877619
 21
35.242822819591197
 31
0.0
  0
LINE
  5
146
  8
0
 10
23.718099999999989
 20
35.856514999999789
 30
0.0
 11
24.045200000000001
 21
35.239214999999788
 31
0.0
  0
LINE
  5
147
  8
0
 10
28.579000000000001
 20
37.987414999999793
 30
0.0
 11
28.604847818858801
 21
38.040933617289397
 31
0.0
  0
LINE
  5
148
  8
0
 10
28.191299999999991
 20
37.481814999999791
 30
0.0
 11
28.579000000000001
 21
37.987414999999793
 31
0.0
  0
LINE
  5
149
  8
0
 10
27.468299999999999
 20
37.439514999999787
 30
0.0
 11
28.191299999999991
 21
37.481814999999791
 31
0.0
  0
LINE
  5
14A
  8
0
 10
26.839300000000001
 20
37.862814999999792
 30
0.0
 11
27.468299999999999
 21
37.439514999999787
 31
0.0
  0
LINE
  5
14B
  8
0
 10
27.073899999999998
 20
39.026214999999787
 30
0.0
 11
27.796900000000001
 21
39.068514999999792
 31
0.0
  0
LINE
  5
14C
  8
0
 10
24.300000000000001
 20
53.1794149999998
 30
0.0
 11
33.100000000000001
 21
55.493514999999803
 31
0.0
  0
LINE
  5
14D
  8
0
 10
24.100000000000001
 20
53.372314999999801
 30
0.0
 11
33.0
 21
55.75061499999979
 31
0.0
  0
LINE
  5
14E
  8
0
 10
27.729299999999999
 20
44.038514999999791
 30
0.0
 11
28.209399999999999
 21
44.528314999999793
 31
0.0
  0
LINE
  5
14F
  8
0
 10
26.996999999999989
 20
44.07831499999979
 30
0.0
 11
27.729299999999999
 21
44.038514999999791
 31
0.0
  0
LINE
  5
150
  8
0
 10
26.8886
 20
45.80411499999979
 30
0.0
 11
27.620899999999999
 21
45.764214999999787
 31
0.0
  0
LINE
  5
152
  8
0
 10
27.620899999999999
 20
45.764214999999787
 30
0.0
 11
28.174900000000001
 21
45.242714999999791
 31
0.0
  0
LINE
  5
153
  8
0
 10
28.174900000000001
 20
45.242714999999791
 30
0.0
 11
28.209399999999999
 21
44.528314999999793
 31
0.0
  0
LINE
  5
154
  8
0
 10
26.442900000000002
 20
44.59991499999979
 30
0.0
 11
26.996999999999989
 21
44.07831499999979
 31
0.0
  0
LINE
  5
155
  8
0
 10
26.4084
 20
45.314214999999798
 30
0.0
 11
26.8886
 21
45.80411499999979
 31
0.0
  0
LINE
  5
156
  8
0
 10
26.4084
 20
45.314214999999798
 30
0.0
 11
26.442900000000002
 21
44.59991499999979
 31
0.0
  0
LINE
  5
157
  8
0
 10
27.796900000000001
 20
39.068514999999792
 30
0.0
 11
28.425999999999998
 21
38.645314999999798
 31
0.0
  0
LINE
  5
158
  8
0
 10
28.425999999999998
 20
38.645314999999798
 30
0.0
 11
28.579000000000001
 21
37.987414999999793
 31
0.0
  0
LINE
  5
159
  8
0
 10
26.686199999999999
 20
38.52071499999979
 30
0.0
 11
27.073899999999998
 21
39.026214999999787
 31
0.0
  0
LINE
  5
15A
  8
0
 10
26.686199999999999
 20
38.52071499999979
 30
0.0
 11
26.839300000000001
 21
37.862814999999792
 31
0.0
  0
LINE
  5
15B
  8
0
 10
23.0258
 20
36.167814999999798
 30
0.0
 11
23.718099999999989
 21
35.856514999999789
 31
0.0
  0
LINE
  5
15C
  8
0
 10
22.381299999999989
 20
36.009914999999793
 30
0.0
 11
23.0258
 21
36.167814999999798
 31
0.0
  0
LINE
  5
15D
  8
0
 10
29.522899999999989
 20
33.507014999999797
 30
0.0
 11
30.215499999999992
 21
33.205814999999802
 31
0.0
  0
LINE
  5
15F
  8
0
 10
28.821899999999989
 20
33.376414999999803
 30
0.0
 11
29.522899999999989
 21
33.507014999999797
 31
0.0
  0
LINE
  5
161
  8
0
 10
21.814992443386299
 20
64.647163556617997
 30
0.0
 11
21.899999999999991
 21
64.6886149999998
 31
0.0
  0
LINE
  5
162
  8
0
 10
21.899999999999991
 20
64.6886149999998
 30
0.0
 11
31.800000000000001
 21
67.324114999999793
 31
0.0
  0
LINE
  5
163
  8
0
 10
12.5
 20
65.109414999999785
 30
0.0
 11
12.800000000000001
 21
65.299614999999804
 31
0.0
  0
LINE
  5
164
  8
0
 10
12.5
 20
65.109414999999785
 30
0.0
 11
21.399999999999999
 21
69.480414999999795
 31
0.0
  0
LINE
  5
165
  8
0
 10
21.399999999999999
 20
65.650214999999804
 30
0.0
 11
31.600000000000001
 21
68.349914999999797
 31
0.0
  0
LINE
  5
166
  8
0
 10
12.800000000000001
 20
65.299614999999804
 30
0.0
 11
21.499999999999989
 21
69.542014999999793
 31
0.0
  0
LINE
  5
167
  8
0
 10
21.399999999999999
 20
69.480414999999795
 30
0.0
 11
31.600000000000001
 21
72.180114999999802
 31
0.0
  0
LINE
  5
168
  8
0
 10
12.5
 20
65.875514999999794
 30
0.0
 11
21.399999999999999
 21
70.246414999999786
 31
0.0
  0
LINE
  5
169
  8
0
 10
21.499999999999989
 20
69.542014999999793
 30
0.0
 11
31.699999999999989
 21
72.2417149999998
 31
0.0
  0
LINE
  5
16A
  8
0
 10
21.399999999999999
 20
70.246414999999786
 30
0.0
 11
31.600000000000001
 21
72.946214999999796
 31
0.0
  0
LINE
  5
16B
  8
0
 10
9.5999999999999996
 20
71.827614999999795
 30
0.0
 11
13.199999999999999
 21
75.138314999999807
 31
0.0
  0
LINE
  5
16C
  8
0
 10
18.5
 20
79.637814999999804
 30
0.0
 11
25.5
 21
83.044614999999794
 31
0.0
  0
LINE
  5
177
  8
0
 10
25.5
 20
83.044614999999794
 30
0.0
 11
28.300000000000001
 21
84.301014999999794
 31
0.0
  0
LINE
  5
178
  8
0
 10
31.0
 20
85.005284565217195
 30
0.0
 11
31.0
 21
87.575214999999787
 31
0.0
  0
LINE
  5
179
  8
0
 10
28.300000000000001
 20
84.301014999999794
 30
0.0
 11
35.200000000000003
 21
86.100814999999784
 31
0.0
  0
LINE
  5
17A
  8
0
 10
13.199999999999999
 20
75.138314999999807
 30
0.0
 11
18.5
 21
79.637814999999804
 31
0.0
  0
LINE
  5
17B
  8
0
 10
31.100300000000001
 20
22.124214999999801
 30
0.0
 11
31.302399999999999
 21
22.557714999999789
 31
0.0
  0
LINE
  5
17C
  8
0
 10
31.521799999999988
 20
25.966414999999799
 30
0.0
 11
32.063099999999999
 21
26.271814999999801
 31
0.0
  0
LINE
  5
17D
  8
0
 10
31.534300000000002
 20
27.233414999999798
 30
0.0
 11
32.057499999999997
 21
26.797814999999801
 31
0.0
  0
LINE
  5
180
  8
0
 10
31.600000000000001
 20
68.349914999999797
 30
0.0
 11
42.5
 21
69.314114999999802
 31
0.0
  0
LINE
  5
181
  8
0
 10
31.600000000000001
 20
72.180114999999802
 30
0.0
 11
42.5
 21
73.144314999999793
 31
0.0
  0
LINE
  5
182
  8
0
 10
31.778400000000001
 20
18.998414999999792
 30
0.0
 11
32.143599999999999
 21
19.334014999999798
 31
0.0
  0
LINE
  5
183
  8
0
 10
31.778400000000001
 20
18.998414999999792
 30
0.0
 11
31.9697
 21
18.563214999999801
 31
0.0
  0
LINE
  5
184
  8
0
 10
31.9697
 20
18.563214999999801
 30
0.0
 11
32.630600000000001
 21
18.2844149999998
 31
0.0
  0
LINE
  5
185
  8
0
 10
32.143599999999999
 20
19.334014999999798
 30
0.0
 11
32.874099999999991
 21
19.3637149999998
 31
0.0
  0
LINE
  5
187
  8
0
 10
32.234000000000002
 20
11.5232149999998
 30
0.0
 11
32.265300000000003
 21
11.280814999999791
 31
0.0
  0
LINE
  5
188
  8
0
 10
32.234000000000002
 20
11.5232149999998
 30
0.0
 11
32.756999999999998
 21
11.61791499999979
 31
0.0
  0
LINE
  5
18A
  8
0
 10
32.806600000000003
 20
11.03641499999979
 30
0.0
 11
33.558700000000002
 21
10.936414999999791
 31
0.0
  0
LINE
  5
18B
  8
0
 10
32.630600000000001
 20
18.2844149999998
 30
0.0
 11
33.3611
 21
18.314114999999799
 31
0.0
  0
LINE
  5
18C
  8
0
 10
32.874099999999991
 20
19.3637149999998
 30
0.0
 11
33.535099999999993
 21
19.084914999999789
 31
0.0
  0
LINE
  5
18E
  8
0
 10
33.3611
 20
18.314114999999799
 30
0.0
 11
33.726399999999998
 21
18.649714999999791
 31
0.0
  0
LINE
  5
18F
  8
0
 10
33.509099999999989
 20
11.518014999999791
 30
0.0
 11
34.050400000000003
 21
11.273614999999801
 31
0.0
  0
LINE
  5
191
  8
0
 10
32.756999999999998
 20
11.61791499999979
 30
0.0
 11
33.509099999999989
 21
11.518014999999791
 31
0.0
  0
LINE
  5
193
  8
0
 10
32.265300000000003
 20
11.280814999999791
 30
0.0
 11
32.806600000000003
 21
11.03641499999979
 31
0.0
  0
LINE
  5
194
  8
0
 10
33.6753
 20
9.2878149999998012
 30
0.0
 11
33.812800000000003
 21
9.1628149999998012
 31
0.0
  0
LINE
  5
195
  8
0
 10
33.6753
 20
9.2878149999998012
 30
0.0
 11
34.117400000000004
 21
9.3129149999998013
 31
0.0
  0
LINE
  5
197
  8
0
 10
34.117400000000004
 20
9.3129149999998013
 30
0.0
 11
34.858899999999991
 21
9.2287149999998004
 31
0.0
  0
LINE
  5
199
  8
0
 10
33.812800000000003
 20
9.1628149999998012
 30
0.0
 11
34.42369999999999
 21
9.0142149999998011
 31
0.0
  0
LINE
  5
19B
  8
0
 10
33.558700000000002
 20
10.936414999999791
 30
0.0
 11
34.081699999999998
 21
11.031214999999801
 31
0.0
  0
LINE
  5
19D
  8
0
 10
33.535099999999993
 20
19.084914999999789
 30
0.0
 11
33.726399999999998
 21
18.649714999999791
 31
0.0
  0
LINE
  5
19F
  8
0
 10
34.050400000000003
 20
11.273614999999801
 30
0.0
 11
34.081699999999998
 21
11.031214999999801
 31
0.0
  0
LINE
  5
1A1
  8
0
 10
34.42369999999999
 20
9.0142149999998011
 30
0.0
 11
35.165100000000002
 21
8.9299149999998004
 31
0.0
  0
LINE
  5
1A2
  8
0
 10
35.165100000000002
 20
8.9299149999998004
 30
0.0
 11
35.607199999999992
 21
8.9550149999998006
 31
0.0
  0
LINE
  5
1A3
  8
0
 10
34.858899999999991
 20
9.2287149999998004
 30
0.0
 11
35.469700000000003
 21
9.0800149999998006
 31
0.0
  0
LINE
  5
1A5
  8
0
 10
34.896999999999998
 20
29.1764149999998
 30
0.0
 11
35.6325
 21
29.2618149999998
 31
0.0
  0
LINE
  5
1A6
  8
0
 10
34.238599999999991
 20
29.498814999999802
 30
0.0
 11
34.896999999999998
 21
29.1764149999998
 31
0.0
  0
LINE
  5
1A7
  8
0
 10
34.431399999999989
 20
30.518314999999799
 30
0.0
 11
35.166899999999998
 21
30.603714999999799
 31
0.0
  0
LINE
  5
1A8
  8
0
 10
35.166899999999998
 20
30.603714999999799
 30
0.0
 11
35.825299999999999
 21
30.2814149999998
 31
0.0
  0
LINE
  5
1A9
  8
0
 10
34.05619999999999
 20
30.055914999999789
 30
0.0
 11
34.431399999999989
 21
30.518314999999799
 31
0.0
  0
LINE
  5
1AA
  8
0
 10
34.05619999999999
 20
30.055914999999789
 30
0.0
 11
34.238599999999991
 21
29.498814999999802
 31
0.0
  0
LINE
  5
1AC
  8
0
 10
33.509099999999989
 20
39.45351499999979
 30
0.0
 11
34.050400000000003
 21
39.880514999999789
 31
0.0
  0
LINE
  5
1AD
  8
0
 10
34.050400000000003
 20
39.880514999999789
 30
0.0
 11
34.081699999999998
 21
40.548814999999792
 31
0.0
  0
LINE
  5
1AE
  8
0
 10
34.050400000000003
 20
39.880514999999789
 30
0.0
 11
34.089015956484602
 21
39.999208255720887
 31
0.0
  0
LINE
  5
1AF
  8
0
 10
32.756999999999998
 20
39.536114999999789
 30
0.0
 11
33.509099999999989
 21
39.45351499999979
 31
0.0
  0
LINE
  5
1B0
  8
0
 10
32.234000000000002
 20
40.056814999999787
 30
0.0
 11
32.265300000000003
 21
40.725014999999793
 31
0.0
  0
LINE
  5
1B1
  8
0
 10
32.234000000000002
 20
40.056814999999787
 30
0.0
 11
32.756999999999998
 21
39.536114999999789
 31
0.0
  0
LINE
  5
1B3
  8
0
 10
33.100000000000001
 20
55.493514999999803
 30
0.0
 11
42.5
 21
56.2648149999998
 31
0.0
  0
LINE
  5
1B4
  8
0
 10
33.0
 20
55.75061499999979
 30
0.0
 11
42.5
 21
56.586214999999797
 31
0.0
  0
LINE
  5
1B5
  8
0
 10
32.806600000000003
 20
41.152014999999793
 30
0.0
 11
33.558700000000002
 21
41.069414999999793
 31
0.0
  0
LINE
  5
1B6
  8
0
 10
34.858899999999991
 20
45.935014999999787
 30
0.0
 11
35.469700000000003
 21
46.332514999999802
 31
0.0
  0
LINE
  5
1B7
  8
0
 10
34.117400000000004
 20
46.09971499999979
 30
0.0
 11
34.858899999999991
 21
45.935014999999787
 31
0.0
  0
LINE
  5
1B8
  8
0
 10
33.6753
 20
46.705514999999792
 30
0.0
 11
33.812800000000003
 21
47.411114999999803
 31
0.0
  0
LINE
  5
1B9
  8
0
 10
33.6753
 20
46.705514999999792
 30
0.0
 11
34.117400000000004
 21
46.09971499999979
 31
0.0
  0
LINE
  5
1BA
  8
0
 10
34.42369999999999
 20
47.80861499999979
 30
0.0
 11
35.165100000000002
 21
47.6441149999998
 31
0.0
  0
LINE
  5
1BC
  8
0
 10
35.165100000000002
 20
47.6441149999998
 30
0.0
 11
35.607199999999992
 21
47.038214999999802
 31
0.0
  0
LINE
  5
1BD
  8
0
 10
33.812800000000003
 20
47.411114999999803
 30
0.0
 11
34.42369999999999
 21
47.80861499999979
 31
0.0
  0
LINE
  5
1BE
  8
0
 10
33.558700000000002
 20
41.069414999999793
 30
0.0
 11
34.081699999999998
 21
40.548814999999792
 31
0.0
  0
LINE
  5
1BF
  8
0
 10
32.265300000000003
 20
40.725014999999793
 30
0.0
 11
32.806600000000003
 21
41.152014999999793
 31
0.0
  0
LINE
  5
1C0
  8
0
 10
32.057499999999997
 20
26.797814999999801
 30
0.0
 11
32.063099999999999
 21
26.271814999999801
 31
0.0
  0
LINE
  5
1C2
  8
0
 10
31.800000000000001
 20
67.324114999999793
 30
0.0
 11
42.5
 21
68.288314999999798
 31
0.0
  0
LINE
  5
1C3
  8
0
 10
31.699999999999989
 20
72.2417149999998
 30
0.0
 11
42.5
 21
73.205914999999806
 31
0.0
  0
LINE
  5
1C4
  8
0
 10
31.600000000000001
 20
72.946214999999796
 30
0.0
 11
42.5
 21
73.910314999999784
 31
0.0
  0
LINE
  5
1C5
  8
0
 10
41.5
 20
0.7404649999997992
 30
0.0
 11
41.5
 21
0.2176449999998
 31
0.0
  0
LINE
  5
1C6
  8
0
 10
41.5
 20
0.7404649999997992
 30
0.0
 11
41.5
 21
1.5776349999998001
 31
0.0
  0
LINE
  5
1C7
  8
0
 10
41.5
 20
0.2176449999998
 30
0.0
 11
41.5
 21
0.0709849999997994
 31
0.0
  0
LINE
  5
1C8
  8
0
 10
41.5
 20
0.2176449999998
 30
0.0
 11
41.5
 21
0.7404649999997992
 31
0.0
  0
LINE
  5
1C9
  8
0
 10
41.5
 20
0.0709849999997994
 30
0.0
 11
41.5
 21
0.4825349999998
 31
0.0
  0
LINE
  5
1CA
  8
0
 10
41.5
 20
0.0709849999997994
 30
0.0
 11
43.5
 21
0.0709849999997994
 31
0.0
  0
LINE
  5
1CB
  8
0
 10
41.5
 20
0.0709849999997994
 30
0.0
 11
41.5
 21
0.2176449999998
 31
0.0
  0
LINE
  5
1CC
  8
0
 10
41.5
 20
0.4825349999998
 30
0.0
 11
41.5
 21
1.5106249999998
 31
0.0
  0
LINE
  5
1CD
  8
0
 10
41.5
 20
0.4825349999998
 30
0.0
 11
41.5
 21
0.0709849999997994
 31
0.0
  0
LINE
  5
1CE
  8
0
 10
41.5
 20
1.5776349999998001
 30
0.0
 11
41.5
 21
0.7404649999997992
 31
0.0
  0
LINE
  5
1CF
  8
0
 10
41.5
 20
1.5776349999998001
 30
0.0
 11
41.5
 21
2.9608649999997989
 31
0.0
  0
LINE
  5
1D0
  8
0
 10
41.5
 20
2.9608649999997989
 30
0.0
 11
41.5
 21
1.5776349999998001
 31
0.0
  0
LINE
  5
1D1
  8
0
 10
41.5
 20
2.9608649999997989
 30
0.0
 11
41.5
 21
4.3352749999997986
 31
0.0
  0
LINE
  5
1D2
  8
0
 10
41.5
 20
4.3352749999997986
 30
0.0
 11
41.5
 21
2.9608649999997989
 31
0.0
  0
LINE
  5
1D3
  8
0
 10
41.5
 20
4.3352749999997986
 30
0.0
 11
41.5
 21
5.7226349999997987
 31
0.0
  0
LINE
  5
1D4
  8
0
 10
41.5
 20
1.5106249999998
 30
0.0
 11
41.5
 21
3.2571549999997989
 31
0.0
  0
LINE
  5
1D5
  8
0
 10
41.5
 20
1.5106249999998
 30
0.0
 11
41.5
 21
0.4825349999998
 31
0.0
  0
LINE
  5
1D6
  8
0
 10
41.5
 20
3.2571549999997989
 30
0.0
 11
41.5
 21
5.0708549999998001
 31
0.0
  0
LINE
  5
1D7
  8
0
 10
41.5
 20
3.2571549999997989
 30
0.0
 11
41.5
 21
1.5106249999998
 31
0.0
  0
LINE
  5
1D8
  8
0
 10
41.5
 20
5.7226349999997987
 30
0.0
 11
41.5
 21
4.3352749999997986
 31
0.0
  0
LINE
  5
1D9
  8
0
 10
41.5
 20
5.7226349999997987
 30
0.0
 11
41.5
 21
7.446914999999799
 31
0.0
  0
LINE
  5
1DB
  8
0
 10
35.469700000000003
 20
9.0800149999998006
 30
0.0
 11
35.607199999999992
 21
8.9550149999998006
 31
0.0
  0
LINE
  5
1DD
  8
0
 10
35.650441397922101
 20
9.2574425293840505
 30
0.0
 11
41.5092
 21
8.7379659333331308
 31
0.0
  0
LINE
  5
1DE
  8
0
 10
36.88539999999999
 20
16.5758149999998
 30
0.0
 11
36.898299999999999
 21
16.179514999999789
 31
0.0
  0
LINE
  5
1DF
  8
0
 10
36.88539999999999
 20
16.5758149999998
 30
0.0
 11
37.4268
 21
16.824514999999799
 31
0.0
  0
LINE
  5
1E1
  8
0
 10
36.898299999999999
 20
16.179514999999789
 30
0.0
 11
37.431699999999999
 21
15.8691149999998
 31
0.0
  0
LINE
  5
1E2
  8
0
 10
36.789999999999999
 20
13.1718149999998
 30
0.0
 11
36.9039
 21
12.8287149999998
 31
0.0
  0
LINE
  5
1E3
  8
0
 10
36.789999999999999
 20
13.1718149999998
 30
0.0
 11
37.25569999999999
 21
13.415214999999799
 31
0.0
  0
LINE
  5
1E5
  8
0
 10
36.9039
 20
12.8287149999998
 30
0.0
 11
37.504699999999993
 21
12.586614999999799
 31
0.0
  0
LINE
  5
1E7
  8
0
 10
35.825299999999999
 20
30.2814149999998
 30
0.0
 11
36.0077
 21
29.724214999999791
 31
0.0
  0
LINE
  5
1E8
  8
0
 10
35.6325
 20
29.2618149999998
 30
0.0
 11
36.0077
 21
29.724214999999791
 31
0.0
  0
LINE
  5
1E9
  8
0
 10
36.789999999999999
 20
35.645814999999793
 30
0.0
 11
36.9039
 21
36.246314999999797
 31
0.0
  0
LINE
  5
1EA
  8
0
 10
36.789999999999999
 20
35.645814999999793
 30
0.0
 11
37.25569999999999
 21
35.145014999999802
 31
0.0
  0
LINE
  5
1EB
  8
0
 10
37.504699999999993
 20
12.586614999999799
 30
0.0
 11
38.2562
 21
12.59581499999979
 31
0.0
  0
LINE
  5
1EC
  8
0
 10
37.431699999999999
 20
15.8691149999998
 30
0.0
 11
38.19169999999999
 21
15.83511499999979
 31
0.0
  0
LINE
  5
1ED
  8
0
 10
37.4268
 20
16.824514999999799
 30
0.0
 11
38.186799999999998
 21
16.7906149999998
 31
0.0
  0
LINE
  5
1EF
  8
0
 10
38.007199999999997
 20
13.424414999999801
 30
0.0
 11
38.607999999999997
 21
13.1822149999998
 31
0.0
  0
LINE
  5
1F1
  8
0
 10
37.25569999999999
 20
13.415214999999799
 30
0.0
 11
38.007199999999997
 21
13.424414999999801
 31
0.0
  0
LINE
  5
1F2
  8
0
 10
38.328299999999992
 20
10.3014149999998
 30
0.0
 11
38.541899999999998
 21
10.079814999999799
 31
0.0
  0
LINE
  5
1F3
  8
0
 10
38.328299999999992
 20
10.3014149999998
 30
0.0
 11
38.709600000000002
 21
10.4727149999998
 31
0.0
  0
LINE
  5
1F5
  8
0
 10
38.541899999999998
 20
10.079814999999799
 30
0.0
 11
39.200000000000003
 21
9.9368149999998003
 31
0.0
  0
LINE
  5
1F6
  8
0
 10
38.19169999999999
 20
15.83511499999979
 30
0.0
 11
38.733199999999989
 21
16.083914999999799
 31
0.0
  0
LINE
  5
1F7
  8
0
 10
38.186799999999998
 20
16.7906149999998
 30
0.0
 11
38.720300000000002
 21
16.480214999999799
 31
0.0
  0
LINE
  5
1F9
  8
0
 10
38.2562
 20
12.59581499999979
 30
0.0
 11
38.721899999999991
 21
12.83911499999979
 31
0.0
  0
LINE
  5
1FA
  8
0
 10
38.007199999999997
 20
35.0255149999998
 30
0.0
 11
38.607999999999997
 21
35.378014999999792
 31
0.0
  0
LINE
  5
1FB
  8
0
 10
37.504699999999993
 20
36.598714999999792
 30
0.0
 11
38.2562
 21
36.479114999999787
 31
0.0
  0
LINE
  5
1FD
  8
0
 10
38.2562
 20
36.479114999999787
 30
0.0
 11
38.721899999999991
 21
35.978514999999788
 31
0.0
  0
LINE
  5
1FF
  8
0
 10
37.25569999999999
 20
35.145014999999802
 30
0.0
 11
38.007199999999997
 21
35.0255149999998
 31
0.0
  0
LINE
  5
200
  8
0
 10
36.9039
 20
36.246314999999797
 30
0.0
 11
37.504699999999993
 21
36.598714999999792
 31
0.0
  0
LINE
  5
202
  8
0
 10
35.469700000000003
 20
46.332514999999802
 30
0.0
 11
35.607199999999992
 21
47.038214999999802
 31
0.0
  0
LINE
  5
203
  8
0
 10
38.328299999999992
 20
41.278614999999789
 30
0.0
 11
38.541899999999998
 21
41.92611499999979
 31
0.0
  0
LINE
  5
204
  8
0
 10
38.328299999999992
 20
41.278614999999789
 30
0.0
 11
38.709600000000002
 21
40.681414999999788
 31
0.0
  0
LINE
  5
205
  8
0
 10
39.200000000000003
 20
9.9368149999998003
 30
0.0
 11
39.929900000000004
 21
9.9623149999998013
 31
0.0
  0
LINE
  5
206
  8
0
 10
39.439599999999999
 20
10.4981149999998
 30
0.0
 11
40.097599999999993
 21
10.35521499999979
 31
0.0
  0
LINE
  5
208
  8
0
 10
38.709600000000002
 20
10.4727149999998
 30
0.0
 11
39.439599999999999
 21
10.4981149999998
 31
0.0
  0
LINE
  5
20B
  8
0
 10
38.720300000000002
 20
16.480214999999799
 30
0.0
 11
38.733199999999989
 21
16.083914999999799
 31
0.0
  0
LINE
  5
20E
  8
0
 10
38.607999999999997
 20
13.1822149999998
 30
0.0
 11
38.721899999999991
 21
12.83911499999979
 31
0.0
  0
LINE
  5
210
  8
0
 10
38.607999999999997
 20
35.378014999999792
 30
0.0
 11
38.721899999999991
 21
35.978514999999788
 31
0.0
  0
LINE
  5
212
  8
0
 10
39.929900000000004
 20
9.9623149999998013
 30
0.0
 11
40.311199999999999
 21
10.1336149999998
 31
0.0
  0
LINE
  5
213
  8
0
 10
40.097599999999993
 20
10.35521499999979
 30
0.0
 11
40.311199999999999
 21
10.1336149999998
 31
0.0
  0
LINE
  5
215
  8
0
 10
41.035099999999993
 20
30.697014999999801
 30
0.0
 11
41.69039999999999
 21
30.981814999999791
 31
0.0
  0
LINE
  5
216
  8
0
 10
40.302399999999999
 20
30.864414999999791
 30
0.0
 11
41.035099999999993
 21
30.697014999999801
 31
0.0
  0
LINE
  5
217
  8
0
 10
39.9148
 20
31.366914999999789
 30
0.0
 11
40.122100000000003
 21
31.919814999999801
 31
0.0
  0
LINE
  5
218
  8
0
 10
39.9148
 20
31.366914999999789
 30
0.0
 11
40.302399999999999
 21
30.864414999999791
 31
0.0
  0
LINE
  5
21A
  8
0
 10
40.777500000000003
 20
32.204714999999801
 30
0.0
 11
41.51019999999999
 21
32.037314999999801
 31
0.0
  0
LINE
  5
21B
  8
0
 10
40.122100000000003
 20
31.919814999999801
 30
0.0
 11
40.777500000000003
 21
32.204714999999801
 31
0.0
  0
LINE
  5
21D
  8
0
 10
39.439599999999999
 20
40.47341499999979
 30
0.0
 11
40.097599999999993
 21
40.798814999999792
 31
0.0
  0
LINE
  5
21E
  8
0
 10
39.200000000000003
 20
42.251614999999802
 30
0.0
 11
39.929900000000004
 21
42.043614999999789
 31
0.0
  0
LINE
  5
21F
  8
0
 10
39.929900000000004
 20
42.043614999999789
 30
0.0
 11
40.311199999999999
 21
41.446414999999803
 31
0.0
  0
LINE
  5
220
  8
0
 10
40.097599999999993
 20
40.798814999999792
 30
0.0
 11
40.311199999999999
 21
41.446414999999803
 31
0.0
  0
LINE
  5
221
  8
0
 10
38.709600000000002
 20
40.681414999999788
 30
0.0
 11
39.439599999999999
 21
40.47341499999979
 31
0.0
  0
LINE
  5
222
  8
0
 10
38.541899999999998
 20
41.92611499999979
 30
0.0
 11
39.200000000000003
 21
42.251614999999802
 31
0.0
  0
LINE
  5
224
  8
0
 10
41.5
 20
7.446914999999799
 30
0.0
 11
41.5
 21
5.7226349999997987
 31
0.0
  0
LINE
  5
225
  8
0
 10
41.5
 20
7.446914999999799
 30
0.0
 11
41.5
 21
8.7387816666664691
 31
0.0
  0
LINE
  5
226
  8
0
 10
41.5
 20
8.7387816666664691
 30
0.0
 11
41.5
 21
7.446914999999799
 31
0.0
  0
LINE
  5
227
  8
0
 10
41.5
 20
8.7387816666664691
 30
0.0
 11
41.5
 21
7.668314999999799
 31
0.0
  0
LINE
  5
228
  8
0
 10
41.5
 20
5.0708549999998001
 30
0.0
 11
41.5
 21
7.668314999999799
 31
0.0
  0
LINE
  5
229
  8
0
 10
41.5
 20
5.0708549999998001
 30
0.0
 11
41.5
 21
3.2571549999997989
 31
0.0
  0
LINE
  5
22C
  8
0
 10
41.80919999999999
 20
8.5451149999998002
 30
0.0
 11
42.509199999999993
 21
8.5828149999997994
 31
0.0
  0
LINE
  5
22E
  8
0
 10
41.5092
 20
8.4572149999997972
 30
0.0
 11
41.80919999999999
 21
8.3692149999997998
 31
0.0
  0
LINE
  5
22F
  8
0
 10
41.5092
 20
8.4572149999997972
 30
0.0
 11
41.80919999999999
 21
8.5451149999998002
 31
0.0
  0
LINE
  5
231
  8
0
 10
41.80919999999999
 20
8.3692149999997998
 30
0.0
 11
42.509199999999993
 21
8.3315149999998006
 31
0.0
  0
LINE
  5
232
  8
0
 10
41.5092
 20
47.536114999999789
 30
0.0
 11
41.80919999999999
 21
48.204814999999797
 31
0.0
  0
LINE
  5
233
  8
0
 10
41.5092
 20
47.536114999999789
 30
0.0
 11
41.80919999999999
 21
46.867514999999798
 31
0.0
  0
LINE
  5
234
  8
0
 10
41.80919999999999
 20
46.867514999999798
 30
0.0
 11
42.509199999999993
 21
46.580914999999791
 31
0.0
  0
LINE
  5
236
  8
0
 10
42.5
 20
56.2648149999998
 30
0.0
 11
51.899999999999999
 21
55.493514999999803
 31
0.0
  0
LINE
  5
237
  8
0
 10
42.5
 20
56.586214999999797
 30
0.0
 11
52.0
 21
55.75061499999979
 31
0.0
  0
LINE
  5
239
  8
0
 10
41.80919999999999
 20
48.204814999999797
 30
0.0
 11
42.509199999999993
 21
48.491314999999801
 31
0.0
  0
LINE
  5
23A
  8
0
 10
41.51019999999999
 20
32.037314999999801
 30
0.0
 11
41.8977
 21
31.5347149999998
 31
0.0
  0
LINE
  5
23B
  8
0
 10
41.69039999999999
 20
30.981814999999791
 30
0.0
 11
41.8977
 21
31.5347149999998
 31
0.0
  0
LINE
  5
23C
  8
0
 10
41.5
 20
7.668314999999799
 30
0.0
 11
41.5
 21
8.7387816666664691
 31
0.0
  0
LINE
  5
23D
  8
0
 10
41.5
 20
7.668314999999799
 30
0.0
 11
41.5
 21
5.0708549999998001
 31
0.0
  0
LINE
  5
23E
  8
0
 10
42.5
 20
68.288314999999798
 30
0.0
 11
53.200000000000003
 21
67.324114999999793
 31
0.0
  0
LINE
  5
23F
  8
0
 10
42.5
 20
69.314114999999802
 30
0.0
 11
53.399999999999991
 21
68.349914999999797
 31
0.0
  0
LINE
  5
240
  8
0
 10
42.5
 20
73.144314999999793
 30
0.0
 11
53.399999999999991
 21
72.180114999999802
 31
0.0
  0
LINE
  5
241
  8
0
 10
43.5
 20
0.0709849999997994
 30
0.0
 11
43.5
 21
0.4825349999998
 31
0.0
  0
LINE
  5
242
  8
0
 10
43.5
 20
0.4825349999998
 30
0.0
 11
43.5
 21
0.0709849999997994
 31
0.0
  0
LINE
  5
243
  8
0
 10
43.5
 20
0.4825349999998
 30
0.0
 11
43.5
 21
1.5106249999998
 31
0.0
  0
LINE
  5
244
  8
0
 10
43.5
 20
1.5106249999998
 30
0.0
 11
43.5
 21
0.4825349999998
 31
0.0
  0
LINE
  5
245
  8
0
 10
43.5
 20
1.5106249999998
 30
0.0
 11
43.5
 21
3.2571549999997989
 31
0.0
  0
LINE
  5
246
  8
0
 10
43.5
 20
3.2571549999997989
 30
0.0
 11
43.5
 21
1.5106249999998
 31
0.0
  0
LINE
  5
247
  8
0
 10
43.5
 20
3.2571549999997989
 30
0.0
 11
43.5
 21
5.0708549999998001
 31
0.0
  0
LINE
  5
248
  8
0
 10
42.509199999999993
 20
8.3315149999998006
 30
0.0
 11
43.209200000000003
 21
8.3692149999997998
 31
0.0
  0
LINE
  5
249
  8
0
 10
43.209200000000003
 20
8.3692149999997998
 30
0.0
 11
43.5092
 21
8.4572149999997972
 31
0.0
  0
LINE
  5
24A
  8
0
 10
43.5
 20
5.0708549999998001
 30
0.0
 11
43.5
 21
3.2571549999997989
 31
0.0
  0
LINE
  5
24B
  8
0
 10
43.5
 20
5.0708549999998001
 30
0.0
 11
43.5
 21
7.668314999999799
 31
0.0
  0
LINE
  5
24C
  8
0
 10
43.5
 20
7.668314999999799
 30
0.0
 11
43.5
 21
5.0708549999998001
 31
0.0
  0
LINE
  5
24D
  8
0
 10
43.5
 20
7.668314999999799
 30
0.0
 11
43.5
 21
8.4545163333331281
 31
0.0
  0
LINE
  5
24F
  8
0
 10
42.509199999999993
 20
8.5828149999997994
 30
0.0
 11
43.209200000000003
 21
8.5451149999998002
 31
0.0
  0
LINE
  5
251
  8
0
 10
42.509199999999993
 20
48.491314999999801
 30
0.0
 11
43.209200000000003
 21
48.204814999999797
 31
0.0
  0
LINE
  5
253
  8
0
 10
43.102299999999993
 20
15.71411499999979
 30
0.0
 11
43.309600000000003
 21
16.091814999999801
 31
0.0
  0
LINE
  5
254
  8
0
 10
43.102299999999993
 20
15.71411499999979
 30
0.0
 11
43.489800000000002
 21
15.3868149999998
 31
0.0
  0
LINE
  5
256
  8
0
 10
43.5092
 20
8.7395973999998002
 30
0.0
 11
49.349558602077892
 21
9.2574425293840505
 31
0.0
  0
LINE
  5
257
  8
0
 10
49.392800000000001
 20
8.9550149999998006
 30
0.0
 11
49.530299999999997
 21
9.0800149999998006
 31
0.0
  0
LINE
  5
258
  8
0
 10
49.392800000000001
 20
8.9550149999998006
 30
0.0
 11
49.83489999999999
 21
8.9299149999998004
 31
0.0
  0
LINE
  5
259
  8
0
 10
49.530299999999997
 20
9.0800149999998006
 30
0.0
 11
50.141100000000002
 21
9.2287149999998004
 31
0.0
  0
LINE
  5
25B
  8
0
 10
44.688800000000001
 20
10.1336149999998
 30
0.0
 11
44.9024
 21
10.35521499999979
 31
0.0
  0
LINE
  5
25C
  8
0
 10
44.688800000000001
 20
10.1336149999998
 30
0.0
 11
45.070099999999996
 21
9.9623149999998013
 31
0.0
  0
LINE
  5
25D
  8
0
 10
45.070099999999996
 20
9.9623149999998013
 30
0.0
 11
45.799999999999997
 21
9.9368149999998003
 31
0.0
  0
LINE
  5
25E
  8
0
 10
44.9024
 20
10.35521499999979
 30
0.0
 11
45.560400000000001
 21
10.4981149999998
 31
0.0
  0
LINE
  5
260
  8
0
 10
43.489800000000002
 20
15.3868149999998
 30
0.0
 11
44.222499999999997
 21
15.2944149999998
 31
0.0
  0
LINE
  5
261
  8
0
 10
43.309600000000003
 20
16.091814999999801
 30
0.0
 11
43.9649
 21
16.301614999999799
 31
0.0
  0
LINE
  5
264
  8
0
 10
43.9649
 20
16.301614999999799
 30
0.0
 11
44.697599999999987
 21
16.209214999999801
 31
0.0
  0
LINE
  5
267
  8
0
 10
44.697599999999987
 20
16.209214999999801
 30
0.0
 11
45.085199999999993
 21
15.8819149999998
 31
0.0
  0
LINE
  5
268
  8
0
 10
44.87789999999999
 20
15.50431499999979
 30
0.0
 11
45.085199999999993
 21
15.8819149999998
 31
0.0
  0
LINE
  5
269
  8
0
 10
44.222499999999997
 20
15.2944149999998
 30
0.0
 11
44.87789999999999
 21
15.50431499999979
 31
0.0
  0
LINE
  5
26C
  8
0
 10
45.560400000000001
 20
10.4981149999998
 30
0.0
 11
46.290399999999991
 21
10.4727149999998
 31
0.0
  0
LINE
  5
26E
  8
0
 10
46.278100000000002
 20
12.83911499999979
 30
0.0
 11
46.391999999999989
 21
13.1822149999998
 31
0.0
  0
LINE
  5
26F
  8
0
 10
46.278100000000002
 20
12.83911499999979
 30
0.0
 11
46.7438
 21
12.59581499999979
 31
0.0
  0
LINE
  5
272
  8
0
 10
46.7438
 20
12.59581499999979
 30
0.0
 11
47.4953
 21
12.586614999999799
 31
0.0
  0
LINE
  5
273
  8
0
 10
46.391999999999989
 20
13.1822149999998
 30
0.0
 11
46.992800000000003
 21
13.424414999999801
 31
0.0
  0
LINE
  5
275
  8
0
 10
46.290399999999991
 20
10.4727149999998
 30
0.0
 11
46.671700000000001
 21
10.3014149999998
 31
0.0
  0
LINE
  5
276
  8
0
 10
46.458099999999988
 20
10.079814999999799
 30
0.0
 11
46.671700000000001
 21
10.3014149999998
 31
0.0
  0
LINE
  5
277
  8
0
 10
45.799999999999997
 20
9.9368149999998003
 30
0.0
 11
46.458099999999988
 21
10.079814999999799
 31
0.0
  0
LINE
  5
279
  8
0
 10
46.808300000000003
 20
31.588914999999801
 30
0.0
 11
47.568299999999986
 21
31.630014999999801
 31
0.0
  0
LINE
  5
27A
  8
0
 10
46.266800000000003
 20
31.165014999999801
 30
0.0
 11
46.279699999999998
 21
30.593514999999801
 31
0.0
  0
LINE
  5
27B
  8
0
 10
46.266800000000003
 20
31.165014999999801
 30
0.0
 11
46.808300000000003
 21
31.588914999999801
 31
0.0
  0
LINE
  5
27C
  8
0
 10
46.279699999999998
 20
30.593514999999801
 30
0.0
 11
46.813200000000002
 21
30.208014999999801
 31
0.0
  0
LINE
  5
27E
  8
0
 10
46.992800000000003
 20
13.424414999999801
 30
0.0
 11
47.744300000000003
 21
13.415214999999799
 31
0.0
  0
LINE
  5
27F
  8
0
 10
47.4953
 20
12.586614999999799
 30
0.0
 11
48.0961
 21
12.8287149999998
 31
0.0
  0
LINE
  5
280
  8
0
 10
46.813200000000002
 20
30.208014999999801
 30
0.0
 11
47.573199999999993
 21
30.249114999999801
 31
0.0
  0
LINE
  5
281
  8
0
 10
44.688800000000001
 20
41.446414999999803
 30
0.0
 11
44.9024
 21
40.798814999999792
 31
0.0
  0
LINE
  5
282
  8
0
 10
44.688800000000001
 20
41.446414999999803
 30
0.0
 11
45.070099999999996
 21
42.043614999999789
 31
0.0
  0
LINE
  5
283
  8
0
 10
45.070099999999996
 20
42.043614999999789
 30
0.0
 11
45.799999999999997
 21
42.251614999999802
 31
0.0
  0
LINE
  5
284
  8
0
 10
44.9024
 20
40.798814999999792
 30
0.0
 11
45.560400000000001
 21
40.47341499999979
 31
0.0
  0
LINE
  5
285
  8
0
 10
45.560400000000001
 20
40.47341499999979
 30
0.0
 11
46.290399999999991
 21
40.681414999999788
 31
0.0
  0
LINE
  5
287
  8
0
 10
46.290399999999991
 20
40.681414999999788
 30
0.0
 11
46.671700000000001
 21
41.278614999999789
 31
0.0
  0
LINE
  5
288
  8
0
 10
45.799999999999997
 20
42.251614999999802
 30
0.0
 11
46.458099999999988
 21
41.92611499999979
 31
0.0
  0
LINE
  5
289
  8
0
 10
46.278100000000002
 20
35.978514999999788
 30
0.0
 11
46.391999999999989
 21
35.378014999999792
 31
0.0
  0
LINE
  5
28A
  8
0
 10
46.278100000000002
 20
35.978514999999788
 30
0.0
 11
46.7438
 21
36.479114999999787
 31
0.0
  0
LINE
  5
28B
  8
0
 10
46.458099999999988
 20
41.92611499999979
 30
0.0
 11
46.671700000000001
 21
41.278614999999789
 31
0.0
  0
LINE
  5
28E
  8
0
 10
46.7438
 20
36.479114999999787
 30
0.0
 11
47.4953
 21
36.598714999999792
 31
0.0
  0
LINE
  5
28F
  8
0
 10
46.391999999999989
 20
35.378014999999792
 30
0.0
 11
46.992800000000003
 21
35.0255149999998
 31
0.0
  0
LINE
  5
290
  8
0
 10
46.992800000000003
 20
35.0255149999998
 30
0.0
 11
47.744300000000003
 21
35.145014999999802
 31
0.0
  0
LINE
  5
291
  8
0
 10
47.744300000000003
 20
13.415214999999799
 30
0.0
 11
48.210000000000001
 21
13.1718149999998
 31
0.0
  0
LINE
  5
292
  8
0
 10
47.573199999999993
 20
30.249114999999801
 30
0.0
 11
48.114600000000003
 21
30.673014999999801
 31
0.0
  0
LINE
  5
293
  8
0
 10
47.568299999999986
 20
31.630014999999801
 30
0.0
 11
48.101700000000001
 21
31.244514999999801
 31
0.0
  0
LINE
  5
295
  8
0
 10
48.0961
 20
12.8287149999998
 30
0.0
 11
48.210000000000001
 21
13.1718149999998
 31
0.0
  0
LINE
  5
297
  8
0
 10
49.174700000000001
 20
16.967514999999789
 30
0.0
 11
49.833100000000002
 21
16.820314999999791
 31
0.0
  0
LINE
  5
29A
  8
0
 10
48.9923
 20
17.349414999999791
 30
0.0
 11
49.367499999999993
 21
17.736814999999801
 31
0.0
  0
LINE
  5
29B
  8
0
 10
48.9923
 20
17.349414999999791
 30
0.0
 11
49.174700000000001
 21
16.967514999999789
 31
0.0
  0
LINE
  5
29D
  8
0
 10
49.367499999999993
 20
17.736814999999801
 30
0.0
 11
50.103000000000002
 21
17.8973149999998
 31
0.0
  0
LINE
  5
29E
  8
0
 10
48.101700000000001
 20
31.244514999999801
 30
0.0
 11
48.114600000000003
 21
30.673014999999801
 31
0.0
  0
LINE
  5
29F
  8
0
 10
47.744300000000003
 20
35.145014999999802
 30
0.0
 11
48.210000000000001
 21
35.645814999999793
 31
0.0
  0
LINE
  5
2A0
  8
0
 10
49.530299999999997
 20
46.332514999999802
 30
0.0
 11
50.141100000000002
 21
45.935014999999787
 31
0.0
  0
LINE
  5
2A2
  8
0
 10
48.0961
 20
36.246314999999797
 30
0.0
 11
48.210000000000001
 21
35.645814999999793
 31
0.0
  0
LINE
  5
2A3
  8
0
 10
47.4953
 20
36.598714999999792
 30
0.0
 11
48.0961
 21
36.246314999999797
 31
0.0
  0
LINE
  5
2A5
  8
0
 10
43.209200000000003
 20
8.5451149999998002
 30
0.0
 11
43.5092
 21
8.4572149999997972
 31
0.0
  0
LINE
  5
2A7
  8
0
 10
49.392800000000001
 20
47.038214999999802
 30
0.0
 11
49.530299999999997
 21
46.332514999999802
 31
0.0
  0
LINE
  5
2A8
  8
0
 10
49.392800000000001
 20
47.038214999999802
 30
0.0
 11
49.83489999999999
 21
47.6441149999998
 31
0.0
  0
LINE
  5
2A9
  8
0
 10
43.209200000000003
 20
48.204814999999797
 30
0.0
 11
43.5092
 21
47.536114999999789
 31
0.0
  0
LINE
  5
2AA
  8
0
 10
43.209200000000003
 20
46.867514999999798
 30
0.0
 11
43.5092
 21
47.536114999999789
 31
0.0
  0
LINE
  5
2AB
  8
0
 10
42.509199999999993
 20
46.580914999999791
 30
0.0
 11
43.209200000000003
 21
46.867514999999798
 31
0.0
  0
LINE
  5
2AC
  8
0
 10
43.5
 20
8.4545163333331281
 30
0.0
 11
43.5
 21
7.668314999999799
 31
0.0
  0
LINE
  5
2AD
  8
0
 10
42.5
 20
73.205914999999806
 30
0.0
 11
53.299999999999997
 21
72.2417149999998
 31
0.0
  0
LINE
  5
2AE
  8
0
 10
42.5
 20
73.910314999999784
 30
0.0
 11
53.399999999999991
 21
72.946214999999796
 31
0.0
  0
LINE
  5
2AF
  8
0
 10
49.83489999999999
 20
8.9299149999998004
 30
0.0
 11
50.576300000000003
 21
9.0142149999998011
 31
0.0
  0
LINE
  5
2B2
  8
0
 10
50.141100000000002
 20
9.2287149999998004
 30
0.0
 11
50.882599999999996
 21
9.3129149999998013
 31
0.0
  0
LINE
  5
2B3
  8
0
 10
50.882599999999996
 20
9.3129149999998013
 30
0.0
 11
51.3247
 21
9.2878149999998012
 31
0.0
  0
LINE
  5
2B4
  8
0
 10
50.576300000000003
 20
9.0142149999998011
 30
0.0
 11
51.18719999999999
 21
9.1628149999998012
 31
0.0
  0
LINE
  5
2B6
  8
0
 10
51.301644071552893
 20
9.4490666665274805
 30
0.0
 11
56.773109684371789
 21
10.932163453963589
 31
0.0
  0
LINE
  5
2B7
  8
0
 10
51.18719999999999
 20
9.1628149999998012
 30
0.0
 11
51.3247
 21
9.2878149999998012
 31
0.0
  0
LINE
  5
2B8
  8
0
 10
51.441299999999998
 20
10.936414999999791
 30
0.0
 11
52.19339999999999
 21
11.03641499999979
 31
0.0
  0
LINE
  5
2B9
  8
0
 10
50.918300000000002
 20
11.031214999999801
 30
0.0
 11
50.949599999999997
 21
11.273614999999801
 31
0.0
  0
LINE
  5
2BA
  8
0
 10
50.918300000000002
 20
11.031214999999801
 30
0.0
 11
51.441299999999998
 21
10.936414999999791
 31
0.0
  0
LINE
  5
2BE
  8
0
 10
50.949599999999997
 20
11.273614999999801
 30
0.0
 11
51.490900000000011
 21
11.518014999999791
 31
0.0
  0
LINE
  5
2BF
  8
0
 10
49.833100000000002
 20
16.820314999999791
 30
0.0
 11
50.568600000000004
 21
16.980814999999801
 31
0.0
  0
LINE
  5
2C2
  8
0
 10
50.103000000000002
 20
17.8973149999998
 30
0.0
 11
50.761400000000002
 21
17.750014999999792
 31
0.0
  0
LINE
  5
2C3
  8
0
 10
50.761400000000002
 20
17.750014999999792
 30
0.0
 11
50.94380000000001
 21
17.368114999999801
 31
0.0
  0
LINE
  5
2C4
  8
0
 10
50.568600000000004
 20
16.980814999999801
 30
0.0
 11
50.94380000000001
 21
17.368114999999801
 31
0.0
  0
LINE
  5
2C5
  8
0
 10
51.490900000000011
 20
11.518014999999791
 30
0.0
 11
52.243000000000002
 21
11.61791499999979
 31
0.0
  0
LINE
  5
2C6
  8
0
 10
51.4649
 20
27.913614999999801
 30
0.0
 11
52.125900000000001
 21
27.7100149999998
 31
0.0
  0
LINE
  5
2C8
  8
0
 10
51.273600000000002
 20
28.423914999999798
 30
0.0
 11
51.6389
 21
28.934714999999791
 31
0.0
  0
LINE
  5
2C9
  8
0
 10
51.273600000000002
 20
28.423914999999798
 30
0.0
 11
51.4649
 21
27.913614999999801
 31
0.0
  0
LINE
  5
2CB
  8
0
 10
52.19339999999999
 20
11.03641499999979
 30
0.0
 11
52.734699999999989
 21
11.280814999999791
 31
0.0
  0
LINE
  5
2CC
  8
0
 10
52.125900000000001
 20
27.7100149999998
 30
0.0
 11
52.856400000000001
 21
27.914814999999798
 31
0.0
  0
LINE
  5
2CD
  8
0
 10
51.6389
 20
28.934714999999791
 30
0.0
 11
52.369399999999999
 21
29.1396149999998
 31
0.0
  0
LINE
  5
2D0
  8
0
 10
49.83489999999999
 20
47.6441149999998
 30
0.0
 11
50.576300000000003
 21
47.80861499999979
 31
0.0
  0
LINE
  5
2D1
  8
0
 10
50.141100000000002
 20
45.935014999999787
 30
0.0
 11
50.882599999999996
 21
46.09971499999979
 31
0.0
  0
LINE
  5
2D2
  8
0
 10
50.882599999999996
 20
46.09971499999979
 30
0.0
 11
51.3247
 21
46.705514999999792
 31
0.0
  0
LINE
  5
2D3
  8
0
 10
50.576300000000003
 20
47.80861499999979
 30
0.0
 11
51.18719999999999
 21
47.411114999999803
 31
0.0
  0
LINE
  5
2D4
  8
0
 10
50.918300000000002
 20
40.548814999999792
 30
0.0
 11
50.949599999999997
 21
39.880514999999789
 31
0.0
  0
LINE
  5
2D5
  8
0
 10
50.918300000000002
 20
40.548814999999792
 30
0.0
 11
51.441299999999998
 21
41.069414999999793
 31
0.0
  0
LINE
  5
2D6
  8
0
 10
51.899999999999999
 20
55.493514999999803
 30
0.0
 11
60.700000000000003
 21
53.1794149999998
 31
0.0
  0
LINE
  5
2D7
  8
0
 10
52.0
 20
55.75061499999979
 30
0.0
 11
60.899999999999991
 21
53.372314999999801
 31
0.0
  0
LINE
  5
2D8
  8
0
 10
51.18719999999999
 20
47.411114999999803
 30
0.0
 11
51.3247
 21
46.705514999999792
 31
0.0
  0
LINE
  5
2D9
  8
0
 10
51.441299999999998
 20
41.069414999999793
 30
0.0
 11
52.19339999999999
 21
41.152014999999793
 31
0.0
  0
LINE
  5
2DA
  8
0
 10
50.949599999999997
 20
39.880514999999789
 30
0.0
 11
51.490900000000011
 21
39.45351499999979
 31
0.0
  0
LINE
  5
2DB
  8
0
 10
51.490900000000011
 20
39.45351499999979
 30
0.0
 11
52.243000000000002
 21
39.536114999999789
 31
0.0
  0
LINE
  5
2DC
  8
0
 10
52.243000000000002
 20
11.61791499999979
 30
0.0
 11
52.766000000000012
 21
11.5232149999998
 31
0.0
  0
LINE
  5
2DE
  8
0
 10
52.734699999999989
 20
11.280814999999791
 30
0.0
 11
52.766000000000012
 21
11.5232149999998
 31
0.0
  0
LINE
  5
2E1
  8
0
 10
52.936900000000001
 20
20.726814999999789
 30
0.0
 11
52.942500000000003
 21
20.275814999999799
 31
0.0
  0
LINE
  5
2E2
  8
0
 10
52.936900000000001
 20
20.726814999999789
 30
0.0
 11
53.478200000000001
 21
21.10731499999979
 31
0.0
  0
LINE
  5
2E3
  8
0
 10
52.942500000000003
 20
20.275814999999799
 30
0.0
 11
53.465699999999991
 21
20.015414999999798
 31
0.0
  0
LINE
  5
2E5
  8
0
 10
53.03029999999999
 20
28.935914999999792
 30
0.0
 11
53.221600000000002
 21
28.425614999999791
 31
0.0
  0
LINE
  5
2E6
  8
0
 10
52.856400000000001
 20
27.914814999999798
 30
0.0
 11
53.221600000000002
 21
28.425614999999791
 31
0.0
  0
LINE
  5
2E7
  8
0
 10
52.369399999999999
 20
29.1396149999998
 30
0.0
 11
53.03029999999999
 21
28.935914999999792
 31
0.0
  0
LINE
  5
2E8
  8
0
 10
52.243000000000002
 20
39.536114999999789
 30
0.0
 11
52.766000000000012
 21
40.056814999999787
 31
0.0
  0
LINE
  5
2EA
  8
0
 10
52.734699999999989
 20
40.725014999999793
 30
0.0
 11
52.766000000000012
 21
40.056814999999787
 31
0.0
  0
LINE
  5
2EB
  8
0
 10
52.19339999999999
 20
41.152014999999793
 30
0.0
 11
52.734699999999989
 21
40.725014999999793
 31
0.0
  0
LINE
  5
2EC
  8
0
 10
53.200000000000003
 20
67.324114999999793
 30
0.0
 11
63.100000000000001
 21
64.6886149999998
 31
0.0
  0
LINE
  5
2F0
  8
0
 10
56.790599999999991
 20
10.8843149999998
 30
0.0
 11
57.270699999999998
 21
11.125214999999789
 31
0.0
  0
LINE
  5
2F1
  8
0
 10
56.790599999999991
 20
10.8843149999998
 30
0.0
 11
56.825099999999999
 21
10.75061499999979
 31
0.0
  0
LINE
  5
2F2
  8
0
 10
56.573999999999991
 20
12.9346149999998
 30
0.0
 11
57.203099999999999
 21
12.93741499999979
 31
0.0
  0
LINE
  5
2F3
  8
0
 10
56.421000000000006
 20
13.166714999999799
 30
0.0
 11
56.808700000000002
 21
13.4897149999998
 31
0.0
  0
LINE
  5
2F4
  8
0
 10
56.421000000000006
 20
13.166714999999799
 30
0.0
 11
56.573999999999991
 21
12.9346149999998
 31
0.0
  0
LINE
  5
2F6
  8
0
 10
56.825099999999999
 20
10.75061499999979
 30
0.0
 11
57.379100000000001
 21
10.8098149999998
 31
0.0
  0
LINE
  5
2F8
  8
0
 10
57.379100000000001
 20
10.8098149999998
 30
0.0
 11
58.111400000000003
 21
11.018714999999791
 31
0.0
  0
LINE
  5
2F9
  8
0
 10
57.270699999999998
 20
11.125214999999789
 30
0.0
 11
58.003
 21
11.3342149999998
 31
0.0
  0
LINE
  5
2FA
  8
0
 10
57.203099999999999
 20
12.93741499999979
 30
0.0
 11
57.926099999999991
 21
13.162114999999799
 31
0.0
  0
LINE
  5
2FB
  8
0
 10
56.808700000000002
 20
13.4897149999998
 30
0.0
 11
57.531700000000001
 21
13.7145149999998
 31
0.0
  0
LINE
  5
300
  8
0
 10
57.531700000000001
 20
13.7145149999998
 30
0.0
 11
58.160699999999991
 21
13.717214999999801
 31
0.0
  0
LINE
  5
301
  8
0
 10
58.003
 20
11.3342149999998
 30
0.0
 11
58.557099999999998
 21
11.3934149999998
 31
0.0
  0
LINE
  5
302
  8
0
 10
59.5
 20
11.671314999999799
 30
0.0
 11
66.5
 21
15.078014999999789
 31
0.0
  0
LINE
  5
303
  8
0
 10
58.5511700480371
 20
11.414124924587
 30
0.0
 11
59.5
 21
11.671314999999799
 31
0.0
  0
LINE
  5
305
  8
0
 10
58.557099999999998
 20
11.3934149999998
 30
0.0
 11
58.5916
 21
11.25971499999979
 31
0.0
  0
LINE
  5
306
  8
0
 10
58.111400000000003
 20
11.018714999999791
 30
0.0
 11
58.5916
 21
11.25971499999979
 31
0.0
  0
LINE
  5
308
  8
0
 10
58.160699999999991
 20
13.717214999999801
 30
0.0
 11
58.313800000000001
 21
13.485214999999791
 31
0.0
  0
LINE
  5
309
  8
0
 10
57.926099999999991
 20
13.162114999999799
 30
0.0
 11
58.313800000000001
 21
13.485214999999791
 31
0.0
  0
LINE
  5
30A
  8
0
 10
53.478200000000001
 20
21.10731499999979
 30
0.0
 11
54.231000000000002
 21
21.203214999999801
 31
0.0
  0
LINE
  5
30B
  8
0
 10
53.465699999999991
 20
20.015414999999798
 30
0.0
 11
54.218499999999999
 21
20.111314999999792
 31
0.0
  0
LINE
  5
30D
  8
0
 10
54.231000000000002
 20
21.203214999999801
 30
0.0
 11
54.754300000000001
 21
20.942714999999801
 31
0.0
  0
LINE
  5
30E
  8
0
 10
54.218499999999999
 20
20.111314999999792
 30
0.0
 11
54.759799999999991
 21
20.49171499999979
 31
0.0
  0
LINE
  5
30F
  8
0
 10
54.0824
 20
24.0572149999998
 30
0.0
 11
54.806199999999997
 21
24.0116149999998
 31
0.0
  0
LINE
  5
310
  8
0
 10
53.697600000000001
 20
24.440914999999801
 30
0.0
 11
53.899700000000003
 21
24.949414999999789
 31
0.0
  0
LINE
  5
311
  8
0
 10
53.697600000000001
 20
24.440914999999801
 30
0.0
 11
54.0824
 21
24.0572149999998
 31
0.0
  0
LINE
  5
313
  8
0
 10
53.899700000000003
 20
24.949414999999789
 30
0.0
 11
54.545200000000001
 21
25.2862149999998
 31
0.0
  0
LINE
  5
314
  8
0
 10
54.754300000000001
 20
20.942714999999801
 30
0.0
 11
54.759799999999991
 21
20.49171499999979
 31
0.0
  0
LINE
  5
315
  8
0
 10
54.545200000000001
 20
25.2862149999998
 30
0.0
 11
55.268999999999998
 21
25.2405149999998
 31
0.0
  0
LINE
  5
316
  8
0
 10
54.516100000000002
 20
32.6319149999998
 30
0.0
 11
54.784500000000001
 21
33.205814999999802
 31
0.0
  0
LINE
  5
317
  8
0
 10
54.516100000000002
 20
32.6319149999998
 30
0.0
 11
54.805199999999999
 21
32.126214999999803
 31
0.0
  0
LINE
  5
318
  8
0
 10
54.784500000000001
 20
33.205814999999802
 30
0.0
 11
55.4771
 21
33.507014999999797
 31
0.0
  0
LINE
  5
31B
  8
0
 10
54.516100000000002
 20
15.928314999999801
 30
0.0
 11
54.784500000000001
 21
15.611814999999799
 31
0.0
  0
LINE
  5
31C
  8
0
 10
54.516100000000002
 20
15.928314999999801
 30
0.0
 11
54.805199999999999
 21
16.323714999999801
 31
0.0
  0
LINE
  5
31D
  8
0
 10
56.178100000000001
 20
15.8089149999998
 30
0.0
 11
56.467100000000002
 21
16.204314999999799
 31
0.0
  0
LINE
  5
31E
  8
0
 10
54.806199999999997
 20
24.0116149999998
 30
0.0
 11
55.451799999999999
 21
24.348214999999801
 31
0.0
  0
LINE
  5
31F
  8
0
 10
55.451799999999999
 20
24.348214999999801
 30
0.0
 11
55.6539
 21
24.856714999999799
 31
0.0
  0
LINE
  5
320
  8
0
 10
55.268999999999998
 20
25.2405149999998
 30
0.0
 11
55.6539
 21
24.856714999999799
 31
0.0
  0
LINE
  5
321
  8
0
 10
55.506100000000004
 20
31.995614999999798
 30
0.0
 11
56.198700000000002
 21
32.296814999999789
 31
0.0
  0
LINE
  5
322
  8
0
 10
54.805199999999999
 20
32.126214999999803
 30
0.0
 11
55.506100000000004
 21
31.995614999999798
 31
0.0
  0
LINE
  5
324
  8
0
 10
55.4771
 20
33.507014999999797
 30
0.0
 11
56.178100000000001
 21
33.376414999999803
 31
0.0
  0
LINE
  5
327
  8
0
 10
56.178100000000001
 20
33.376414999999803
 30
0.0
 11
56.467100000000002
 21
32.870714999999798
 31
0.0
  0
LINE
  5
329
  8
0
 10
56.198700000000002
 20
32.296814999999789
 30
0.0
 11
56.467100000000002
 21
32.870714999999798
 31
0.0
  0
LINE
  5
32B
  8
0
 10
56.790599999999991
 20
44.528314999999793
 30
0.0
 11
57.270699999999998
 21
44.038514999999791
 31
0.0
  0
LINE
  5
32C
  8
0
 10
56.790599999999991
 20
44.528314999999793
 30
0.0
 11
56.825099999999999
 21
45.242714999999791
 31
0.0
  0
LINE
  5
32D
  8
0
 10
56.573999999999991
 20
38.645314999999798
 30
0.0
 11
57.203099999999999
 21
39.068514999999792
 31
0.0
  0
LINE
  5
32E
  8
0
 10
56.421000000000006
 20
37.987414999999793
 30
0.0
 11
56.808700000000002
 21
37.481814999999791
 31
0.0
  0
LINE
  5
32F
  8
0
 10
56.421000000000006
 20
37.987414999999793
 30
0.0
 11
56.573999999999991
 21
38.645314999999798
 31
0.0
  0
LINE
  5
330
  8
0
 10
56.825099999999999
 20
45.242714999999791
 30
0.0
 11
57.379100000000001
 21
45.764214999999787
 31
0.0
  0
LINE
  5
332
  8
0
 10
57.379100000000001
 20
45.764214999999787
 30
0.0
 11
58.111400000000003
 21
45.80411499999979
 31
0.0
  0
LINE
  5
333
  8
0
 10
57.270699999999998
 20
44.038514999999791
 30
0.0
 11
58.003
 21
44.07831499999979
 31
0.0
  0
LINE
  5
334
  8
0
 10
57.203099999999999
 20
39.068514999999792
 30
0.0
 11
57.926099999999991
 21
39.026214999999787
 31
0.0
  0
LINE
  5
335
  8
0
 10
56.808700000000002
 20
37.481814999999791
 30
0.0
 11
57.531700000000001
 21
37.439514999999787
 31
0.0
  0
LINE
  5
336
  8
0
 10
57.531700000000001
 20
37.439514999999787
 30
0.0
 11
58.160699999999991
 21
37.862814999999792
 31
0.0
  0
LINE
  5
338
  8
0
 10
58.003
 20
44.07831499999979
 30
0.0
 11
58.557099999999998
 21
44.59991499999979
 31
0.0
  0
LINE
  5
339
  8
0
 10
58.557099999999998
 20
44.59991499999979
 30
0.0
 11
58.5916
 21
45.314214999999798
 31
0.0
  0
LINE
  5
33A
  8
0
 10
58.111400000000003
 20
45.80411499999979
 30
0.0
 11
58.5916
 21
45.314214999999798
 31
0.0
  0
LINE
  5
33B
  8
0
 10
58.160699999999991
 20
37.862814999999792
 30
0.0
 11
58.313800000000001
 21
38.52071499999979
 31
0.0
  0
LINE
  5
33C
  8
0
 10
57.926099999999991
 20
39.026214999999787
 30
0.0
 11
58.313800000000001
 21
38.52071499999979
 31
0.0
  0
LINE
  5
33E
  8
0
 10
59.302700000000002
 20
27.112914999999798
 30
0.0
 11
59.402799999999999
 21
27.651114999999798
 31
0.0
  0
LINE
  5
33F
  8
0
 10
59.302700000000002
 20
27.112914999999798
 30
0.0
 11
59.7652
 21
26.781814999999799
 31
0.0
  0
LINE
  5
341
  8
0
 10
59.402799999999999
 20
27.651114999999798
 30
0.0
 11
59.9816
 21
28.079114999999788
 31
0.0
  0
LINE
  5
343
  8
0
 10
59.302700000000002
 20
21.337014999999791
 30
0.0
 11
59.402799999999999
 21
20.909114999999801
 31
0.0
  0
LINE
  5
344
  8
0
 10
59.302700000000002
 20
21.337014999999791
 30
0.0
 11
59.7652
 21
21.7784149999998
 31
0.0
  0
LINE
  5
345
  8
0
 10
59.402799999999999
 20
20.909114999999801
 30
0.0
 11
59.9816
 21
20.73851499999979
 31
0.0
  0
LINE
  5
348
  8
0
 10
56.198700000000002
 20
16.520814999999789
 30
0.0
 11
56.467100000000002
 21
16.204314999999799
 31
0.0
  0
LINE
  5
349
  8
0
 10
55.506100000000004
 20
16.564614999999801
 30
0.0
 11
56.198700000000002
 21
16.520814999999789
 31
0.0
  0
LINE
  5
34A
  8
0
 10
54.805199999999999
 20
16.323714999999801
 30
0.0
 11
55.506100000000004
 21
16.564614999999801
 31
0.0
  0
LINE
  5
34B
  8
0
 10
54.784500000000001
 20
15.611814999999799
 30
0.0
 11
55.4771
 21
15.5680149999998
 31
0.0
  0
LINE
  5
34C
  8
0
 10
55.4771
 20
15.5680149999998
 30
0.0
 11
56.178100000000001
 21
15.8089149999998
 31
0.0
  0
LINE
  5
34D
  8
0
 10
53.399999999999991
 20
68.349914999999797
 30
0.0
 11
63.600000000000001
 21
65.650214999999804
 31
0.0
  0
LINE
  5
34E
  8
0
 10
53.399999999999991
 20
72.180114999999802
 30
0.0
 11
63.600000000000001
 21
69.480414999999795
 31
0.0
  0
LINE
  5
34F
  8
0
 10
53.299999999999997
 20
72.2417149999998
 30
0.0
 11
63.5
 21
69.542014999999793
 31
0.0
  0
LINE
  5
350
  8
0
 10
53.399999999999991
 20
72.946214999999796
 30
0.0
 11
63.600000000000001
 21
70.246414999999786
 31
0.0
  0
LINE
  5
351
  8
0
 10
60.899999999999991
 20
12.23391499999979
 30
0.0
 11
61.5
 21
12.421414999999801
 31
0.0
  0
LINE
  5
352
  8
0
 10
60.899999999999991
 20
12.23391499999979
 30
0.0
 11
68.599999999999994
 21
16.026314999999801
 31
0.0
  0
LINE
  5
353
  8
0
 10
60.44518192948221
 20
12.112371258548199
 30
0.0
 11
60.899999999999991
 21
12.23391499999979
 31
0.0
  0
LINE
  5
354
  8
0
 10
61.5
 20
12.421414999999801
 30
0.0
 11
69.299999999999983
 21
16.3424149999998
 31
0.0
  0
LINE
  5
357
  8
0
 10
63.090000000000011
 20
13.8433149999998
 30
0.0
 11
63.29399999999999
 21
13.7298149999998
 31
0.0
  0
LINE
  5
358
  8
0
 10
63.090000000000011
 20
13.8433149999998
 30
0.0
 11
63.406700000000001
 21
14.15161499999979
 31
0.0
  0
LINE
  5
359
  8
0
 10
61.2819
 20
15.7235149999998
 30
0.0
 11
61.97420000000001
 21
15.8380149999998
 31
0.0
  0
LINE
  5
35C
  8
0
 10
62.618699999999997
 20
16.178514999999798
 30
0.0
 11
62.8264
 21
16.552014999999798
 31
0.0
  0
LINE
  5
360
  8
0
 10
62.499400000000001
 20
16.7434149999998
 30
0.0
 11
62.8264
 21
16.552014999999798
 31
0.0
  0
LINE
  5
361
  8
0
 10
61.807099999999998
 20
16.628814999999801
 30
0.0
 11
62.499400000000001
 21
16.7434149999998
 31
0.0
  0
LINE
  5
362
  8
0
 10
61.162500000000001
 20
16.288314999999798
 30
0.0
 11
61.807099999999998
 21
16.628814999999801
 31
0.0
  0
LINE
  5
363
  8
0
 10
60.954799999999999
 20
15.9148149999998
 30
0.0
 11
61.2819
 21
15.7235149999998
 31
0.0
  0
LINE
  5
364
  8
0
 10
60.954799999999999
 20
15.9148149999998
 30
0.0
 11
61.162500000000001
 21
16.288314999999798
 31
0.0
  0
LINE
  5
365
  8
0
 10
61.97420000000001
 20
15.8380149999998
 30
0.0
 11
62.618699999999997
 21
16.178514999999798
 31
0.0
  0
LINE
  5
366
  8
0
 10
59.9816
 20
20.73851499999979
 30
0.0
 11
60.715600000000002
 21
20.940414999999788
 31
0.0
  0
LINE
  5
367
  8
0
 10
59.7652
 20
26.781814999999799
 30
0.0
 11
60.499200000000002
 21
26.837314999999801
 31
0.0
  0
LINE
  5
369
  8
0
 10
61.0779
 20
21.809614999999798
 30
0.0
 11
61.178100000000001
 21
21.381714999999801
 31
0.0
  0
LINE
  5
36A
  8
0
 10
60.499200000000002
 20
26.837314999999801
 30
0.0
 11
61.0779
 21
27.265414999999798
 31
0.0
  0
LINE
  5
36B
  8
0
 10
59.9816
 20
28.079114999999788
 30
0.0
 11
60.715600000000002
 21
28.134614999999801
 31
0.0
  0
LINE
  5
36C
  8
0
 10
60.700000000000003
 20
53.1794149999998
 30
0.0
 11
68.299999999999997
 21
49.387014999999799
 31
0.0
  0
LINE
  5
36D
  8
0
 10
60.899999999999991
 20
53.372314999999801
 30
0.0
 11
68.599999999999994
 21
49.579814999999797
 31
0.0
  0
LINE
  5
36F
  8
0
 10
60.715600000000002
 20
28.134614999999801
 30
0.0
 11
61.178100000000001
 21
27.803614999999802
 31
0.0
  0
LINE
  5
370
  8
0
 10
60.95535226423489
 20
35.043298978707199
 30
0.0
 11
61.162500000000001
 21
34.683214999999798
 31
0.0
  0
LINE
  5
371
  8
0
 10
60.954799999999999
 20
35.239214999999788
 30
0.0
 11
61.2819
 21
35.856514999999789
 31
0.0
  0
LINE
  5
372
  8
0
 10
60.954799999999999
 20
35.239214999999788
 30
0.0
 11
61.162500000000001
 21
34.683214999999798
 31
0.0
  0
LINE
  5
373
  8
0
 10
61.162500000000001
 20
34.683214999999798
 30
0.0
 11
61.807099999999998
 21
34.5253149999998
 31
0.0
  0
LINE
  5
374
  8
0
 10
62.618699999999997
 20
36.009914999999793
 30
0.0
 11
62.8264
 21
35.453914999999789
 31
0.0
  0
LINE
  5
375
  8
0
 10
62.499400000000001
 20
34.836614999999803
 30
0.0
 11
62.8264
 21
35.453914999999789
 31
0.0
  0
LINE
  5
376
  8
0
 10
61.807099999999998
 20
34.5253149999998
 30
0.0
 11
62.499400000000001
 21
34.836614999999803
 31
0.0
  0
LINE
  5
377
  8
0
 10
61.2819
 20
35.856514999999789
 30
0.0
 11
61.97420000000001
 21
36.167814999999798
 31
0.0
  0
LINE
  5
378
  8
0
 10
63.067051599153793
 20
41.365113383694599
 30
0.0
 11
63.406700000000001
 21
41.012114999999788
 31
0.0
  0
LINE
  5
379
  8
0
 10
63.090000000000011
 20
41.569314999999797
 30
0.0
 11
63.29399999999999
 21
42.263514999999792
 31
0.0
  0
LINE
  5
37A
  8
0
 10
63.090000000000011
 20
41.569314999999797
 30
0.0
 11
63.406700000000001
 21
41.012114999999788
 31
0.0
  0
LINE
  5
37B
  8
0
 10
61.97420000000001
 20
36.167814999999798
 30
0.0
 11
62.618699999999997
 21
36.009914999999793
 31
0.0
  0
LINE
  5
37D
  8
0
 10
61.0779
 20
27.265414999999798
 30
0.0
 11
61.178100000000001
 21
27.803614999999802
 31
0.0
  0
LINE
  5
37F
  8
0
 10
60.499200000000002
 20
21.980314999999791
 30
0.0
 11
61.0779
 21
21.809614999999798
 31
0.0
  0
LINE
  5
380
  8
0
 10
59.7652
 20
21.7784149999998
 30
0.0
 11
60.499200000000002
 21
21.980314999999791
 31
0.0
  0
LINE
  5
381
  8
0
 10
60.715600000000002
 20
20.940414999999788
 30
0.0
 11
61.178100000000001
 21
21.381714999999801
 31
0.0
  0
LINE
  5
383
  8
0
 10
63.406700000000001
 20
14.15161499999979
 30
0.0
 11
64.079999999999998
 21
14.4796149999998
 31
0.0
  0
LINE
  5
384
  8
0
 10
63.29399999999999
 20
13.7298149999998
 30
0.0
 11
63.9223
 21
13.8890149999998
 31
0.0
  0
LINE
  5
385
  8
0
 10
64.595600000000005
 20
14.216914999999799
 30
0.0
 11
64.912300000000002
 21
14.5253149999998
 31
0.0
  0
LINE
  5
387
  8
0
 10
64.079999999999998
 20
14.4796149999998
 30
0.0
 11
64.708299999999994
 21
14.6388149999998
 31
0.0
  0
LINE
  5
388
  8
0
 10
63.9223
 20
13.8890149999998
 30
0.0
 11
64.595600000000005
 21
14.216914999999799
 31
0.0
  0
LINE
  5
389
  8
0
 10
64.216499999999996
 20
19.314414999999801
 30
0.0
 11
64.6952
 21
19.191114999999801
 31
0.0
  0
LINE
  5
38A
  8
0
 10
64.216499999999996
 20
19.314414999999801
 30
0.0
 11
64.230000000000004
 21
19.706514999999801
 31
0.0
  0
LINE
  5
38B
  8
0
 10
66.5
 20
15.078014999999789
 30
0.0
 11
68.200000000000003
 21
15.97701499999979
 31
0.0
  0
LINE
  5
38C
  8
0
 10
68.200000000000003
 20
15.97701499999979
 30
0.0
 11
74.099999999999994
 21
20.8622149999998
 31
0.0
  0
LINE
  5
38E
  8
0
 10
64.708299999999994
 20
14.6388149999998
 30
0.0
 11
64.912300000000002
 21
14.5253149999998
 31
0.0
  0
LINE
  5
38F
  8
0
 10
67.970399999999984
 20
17.741114999999791
 30
0.0
 11
68.330100000000002
 21
17.675314999999799
 31
0.0
  0
LINE
  5
390
  8
0
 10
67.970399999999984
 20
17.741114999999791
 30
0.0
 11
68.102000000000004
 21
18.087414999999801
 31
0.0
  0
LINE
  5
391
  8
0
 10
68.599999999999994
 20
16.026314999999801
 30
0.0
 11
74.5
 21
20.975814999999798
 31
0.0
  0
LINE
  5
392
  8
0
 10
69.299999999999983
 20
16.3424149999998
 30
0.0
 11
75.400000000000006
 21
21.3561149999998
 31
0.0
  0
LINE
  5
393
  8
0
 10
68.330100000000002
 20
17.675314999999799
 30
0.0
 11
68.989699999999999
 21
17.943514999999788
 31
0.0
  0
LINE
  5
396
  8
0
 10
69.558199999999999
 20
18.376614999999791
 30
0.0
 11
69.689700000000002
 21
18.722914999999801
 31
0.0
  0
LINE
  5
399
  8
0
 10
69.330100000000002
 20
18.788614999999801
 30
0.0
 11
69.689700000000002
 21
18.722914999999801
 31
0.0
  0
LINE
  5
39A
  8
0
 10
68.670400000000001
 20
18.520514999999801
 30
0.0
 11
69.330100000000002
 21
18.788614999999801
 31
0.0
  0
LINE
  5
39B
  8
0
 10
68.102000000000004
 20
18.087414999999801
 30
0.0
 11
68.670400000000001
 21
18.520514999999801
 31
0.0
  0
LINE
  5
39C
  8
0
 10
68.989699999999999
 20
17.943514999999788
 30
0.0
 11
69.558199999999999
 21
18.376614999999791
 31
0.0
  0
LINE
  5
39D
  8
0
 10
64.6952
 20
19.191114999999801
 30
0.0
 11
65.403499999999994
 21
19.424214999999801
 31
0.0
  0
LINE
  5
3A2
  8
0
 10
65.925799999999995
 20
19.863414999999801
 30
0.0
 11
65.939300000000003
 21
20.2556149999998
 31
0.0
  0
LINE
  5
3A6
  8
0
 10
65.460599999999999
 20
20.378814999999801
 30
0.0
 11
65.939300000000003
 21
20.2556149999998
 31
0.0
  0
LINE
  5
3A7
  8
0
 10
64.752200000000002
 20
20.1457149999998
 30
0.0
 11
65.460599999999999
 21
20.378814999999801
 31
0.0
  0
LINE
  5
3A8
  8
0
 10
64.230000000000004
 20
19.706514999999801
 30
0.0
 11
64.752200000000002
 21
20.1457149999998
 31
0.0
  0
LINE
  5
3A9
  8
0
 10
65.403499999999994
 20
19.424214999999801
 30
0.0
 11
65.925799999999995
 21
19.863414999999801
 31
0.0
  0
LINE
  5
3AA
  8
0
 10
71.114999999999995
 20
22.3181149999998
 30
0.0
 11
71.605800000000002
 21
22.3242149999998
 31
0.0
  0
LINE
  5
3AB
  8
0
 10
65.998199999999997
 20
23.140614999999801
 30
0.0
 11
66.596000000000004
 21
23.108514999999802
 31
0.0
  0
LINE
  5
3AC
  8
0
 10
66.596000000000004
 20
23.108514999999802
 30
0.0
 11
67.271999999999991
 21
23.458714999999788
 31
0.0
  0
LINE
  5
3AD
  8
0
 10
64.175070233301298
 20
31.3556513607505
 30
0.0
 11
64.230000000000004
 21
31.265014999999799
 31
0.0
  0
LINE
  5
3AE
  8
0
 10
64.230000000000004
 20
31.265014999999799
 30
0.0
 11
64.752200000000002
 21
31.008314999999801
 31
0.0
  0
LINE
  5
3AF
  8
0
 10
64.216499999999996
 20
31.839714999999799
 30
0.0
 11
64.6952
 21
32.388814999999802
 31
0.0
  0
LINE
  5
3B0
  8
0
 10
64.216499999999996
 20
31.839714999999799
 30
0.0
 11
64.230000000000004
 21
31.265014999999799
 31
0.0
  0
LINE
  5
3B2
  8
0
 10
65.460599999999999
 20
31.201214999999799
 30
0.0
 11
65.939300000000003
 21
31.750314999999791
 31
0.0
  0
LINE
  5
3B3
  8
0
 10
64.752200000000002
 20
31.008314999999801
 30
0.0
 11
65.460599999999999
 21
31.201214999999799
 31
0.0
  0
LINE
  5
3B4
  8
0
 10
64.6952
 20
32.388814999999802
 30
0.0
 11
65.403499999999994
 21
32.581714999999797
 31
0.0
  0
LINE
  5
3B5
  8
0
 10
65.403499999999994
 20
32.581714999999797
 30
0.0
 11
65.925799999999995
 21
32.325014999999802
 31
0.0
  0
LINE
  5
3B7
  8
0
 10
65.816599999999994
 20
27.453014999999802
 30
0.0
 11
65.998199999999997
 21
28.013514999999789
 31
0.0
  0
LINE
  5
3B8
  8
0
 10
65.816599999999994
 20
27.453014999999802
 30
0.0
 11
66.180899999999994
 21
27.1213149999998
 31
0.0
  0
LINE
  5
3B9
  8
0
 10
65.89757806360349
 20
32.371578502855101
 30
0.0
 11
65.925799999999995
 21
32.325014999999802
 31
0.0
  0
LINE
  5
3BA
  8
0
 10
66.180899999999994
 20
27.1213149999998
 30
0.0
 11
66.856999999999999
 21
27.196914999999802
 31
0.0
  0
LINE
  5
3BB
  8
0
 10
65.998199999999997
 20
28.013514999999789
 30
0.0
 11
66.596000000000004
 21
28.471514999999801
 31
0.0
  0
LINE
  5
3BC
  8
0
 10
65.925799999999995
 20
32.325014999999802
 30
0.0
 11
65.939300000000003
 21
31.750314999999791
 31
0.0
  0
LINE
  5
3C0
  8
0
 10
66.856999999999999
 20
27.196914999999802
 30
0.0
 11
67.454800000000006
 21
27.6550149999998
 31
0.0
  0
LINE
  5
3C1
  8
0
 10
66.596000000000004
 20
28.471514999999801
 30
0.0
 11
67.271999999999991
 21
28.547114999999799
 31
0.0
  0
LINE
  5
3C2
  8
0
 10
67.271999999999991
 20
28.547114999999799
 30
0.0
 11
67.636399999999995
 21
28.215414999999801
 31
0.0
  0
LINE
  5
3C3
  8
0
 10
66.856999999999999
 20
24.383014999999801
 30
0.0
 11
67.454800000000006
 21
24.350914999999791
 31
0.0
  0
LINE
  5
3C4
  8
0
 10
66.180899999999994
 20
24.0328149999998
 30
0.0
 11
66.856999999999999
 21
24.383014999999801
 31
0.0
  0
LINE
  5
3C5
  8
0
 10
65.816599999999994
 20
23.518614999999802
 30
0.0
 11
65.998199999999997
 21
23.140614999999801
 31
0.0
  0
LINE
  5
3C6
  8
0
 10
65.816599999999994
 20
23.518614999999802
 30
0.0
 11
66.180899999999994
 21
24.0328149999998
 31
0.0
  0
LINE
  5
3C7
  8
0
 10
67.489505705855194
 20
28.465306931682498
 30
0.0
 11
67.636399999999995
 21
28.215414999999801
 31
0.0
  0
LINE
  5
3C8
  8
0
 10
67.454800000000006
 20
27.6550149999998
 30
0.0
 11
67.636399999999995
 21
28.215414999999801
 31
0.0
  0
LINE
  5
3C9
  8
0
 10
67.454800000000006
 20
24.350914999999791
 30
0.0
 11
67.636399999999995
 21
23.973014999999801
 31
0.0
  0
LINE
  5
3CA
  8
0
 10
67.271999999999991
 20
23.458714999999788
 30
0.0
 11
67.636399999999995
 21
23.973014999999801
 31
0.0
  0
LINE
  5
3CB
  8
0
 10
63.406700000000001
 20
41.012114999999788
 30
0.0
 11
64.079999999999998
 21
40.933014999999791
 31
0.0
  0
LINE
  5
3CC
  8
0
 10
63.5
 20
64.562714999999798
 30
0.0
 11
72.200000000000003
 21
60.320314999999802
 31
0.0
  0
LINE
  5
3CD
  8
0
 10
63.29399999999999
 20
42.263514999999792
 30
0.0
 11
63.9223
 21
42.685014999999787
 31
0.0
  0
LINE
  5
3CF
  8
0
 10
68.670400000000001
 20
36.892114999999791
 30
0.0
 11
69.330100000000002
 21
37.204614999999791
 31
0.0
  0
LINE
  5
3D0
  8
0
 10
68.102000000000004
 20
37.076314999999788
 30
0.0
 11
68.670400000000001
 21
36.892114999999791
 31
0.0
  0
LINE
  5
3D1
  8
0
 10
67.970399999999984
 20
37.67141499999979
 30
0.0
 11
68.330100000000002
 21
38.317914999999793
 31
0.0
  0
LINE
  5
3D2
  8
0
 10
67.970399999999984
 20
37.67141499999979
 30
0.0
 11
68.102000000000004
 21
37.076314999999788
 31
0.0
  0
LINE
  5
3D3
  8
0
 10
68.330100000000002
 20
38.317914999999793
 30
0.0
 11
68.989699999999999
 21
38.630414999999793
 31
0.0
  0
LINE
  5
3D5
  8
0
 10
69.558199999999999
 20
38.446214999999789
 30
0.0
 11
69.689700000000002
 21
37.851114999999787
 31
0.0
  0
LINE
  5
3D6
  8
0
 10
69.330100000000002
 20
37.204614999999791
 30
0.0
 11
69.689700000000002
 21
37.851114999999787
 31
0.0
  0
LINE
  5
3D7
  8
0
 10
68.989699999999999
 20
38.630414999999793
 30
0.0
 11
69.558199999999999
 21
38.446214999999789
 31
0.0
  0
LINE
  5
3D8
  8
0
 10
64.261125497232101
 20
42.953537840933201
 30
0.0
 11
64.595600000000005
 21
42.60591499999979
 31
0.0
  0
LINE
  5
3D9
  8
0
 10
64.595600000000005
 20
42.60591499999979
 30
0.0
 11
64.912300000000002
 21
42.048614999999792
 31
0.0
  0
LINE
  5
3DA
  8
0
 10
68.299999999999997
 20
49.387014999999799
 30
0.0
 11
74.200000000000003
 21
44.501814999999802
 31
0.0
  0
LINE
  5
3DB
  8
0
 10
68.599999999999994
 20
49.579814999999797
 30
0.0
 11
74.5
 21
44.6304149999998
 31
0.0
  0
LINE
  5
3DC
  8
0
 10
64.708299999999994
 20
41.354514999999793
 30
0.0
 11
64.912300000000002
 21
42.048614999999792
 31
0.0
  0
LINE
  5
3DD
  8
0
 10
64.079999999999998
 20
40.933014999999791
 30
0.0
 11
64.708299999999994
 21
41.354514999999793
 31
0.0
  0
LINE
  5
3DE
  8
0
 10
63.9223
 20
42.685014999999787
 30
0.0
 11
64.595600000000005
 21
42.60591499999979
 31
0.0
  0
LINE
  5
3E1
  8
0
 10
71.052499999999995
 20
32.4934149999998
 30
0.0
 11
71.114999999999995
 21
33.094514999999802
 31
0.0
  0
LINE
  5
3E2
  8
0
 10
71.052499999999995
 20
32.4934149999998
 30
0.0
 11
71.4773
 21
32.225314999999803
 31
0.0
  0
LINE
  5
3E9
  8
0
 10
71.4773
 20
32.225314999999803
 30
0.0
 11
72.123500000000007
 21
32.427214999999798
 31
0.0
  0
LINE
  5
3EA
  8
0
 10
71.114999999999995
 20
33.094514999999802
 30
0.0
 11
71.605800000000002
 21
33.669014999999803
 31
0.0
  0
LINE
  5
3EB
  8
0
 10
71.605800000000002
 20
33.669014999999803
 30
0.0
 11
72.251900000000006
 21
33.871014999999801
 31
0.0
  0
LINE
  5
3ED
  8
0
 10
72.123500000000007
 20
32.427214999999798
 30
0.0
 11
72.6143
 21
33.001714999999791
 31
0.0
  0
LINE
  5
3EE
  8
0
 10
72.057299999999984
 20
27.575914999999799
 30
0.0
 11
72.309499999999986
 21
28.1503149999998
 31
0.0
  0
LINE
  5
3EF
  8
0
 10
72.057299999999984
 20
27.575914999999799
 30
0.0
 11
72.309499999999986
 21
27.250414999999801
 31
0.0
  0
LINE
  5
3F1
  8
0
 10
72.200000000000003
 20
60.320314999999802
 30
0.0
 11
78.799999999999983
 21
54.728114999999796
 31
0.0
  0
LINE
  5
3F3
  8
0
 10
72.123500000000007
 20
23.566014999999801
 30
0.0
 11
72.6143
 21
23.572214999999801
 31
0.0
  0
LINE
  5
3F4
  8
0
 10
71.4773
 20
23.187314999999799
 30
0.0
 11
72.123500000000007
 21
23.566014999999801
 31
0.0
  0
LINE
  5
3F5
  8
0
 10
71.052499999999995
 20
22.6702149999998
 30
0.0
 11
71.114999999999995
 21
22.3181149999998
 31
0.0
  0
LINE
  5
3F6
  8
0
 10
71.052499999999995
 20
22.6702149999998
 30
0.0
 11
71.4773
 21
23.187314999999799
 31
0.0
  0
LINE
  5
3F7
  8
0
 10
71.605800000000002
 20
22.3242149999998
 30
0.0
 11
72.251900000000006
 21
22.702914999999791
 31
0.0
  0
LINE
  5
3F8
  8
0
 10
63.100000000000001
 20
64.6886149999998
 30
0.0
 11
63.185007556613712
 21
64.647163556617997
 31
0.0
  0
LINE
  5
3F9
  8
0
 10
63.100000000000001
 20
64.6886149999998
 30
0.0
 11
63.5
 21
64.562714999999798
 31
0.0
  0
LINE
  5
3FA
  8
0
 10
63.600000000000001
 20
65.650214999999804
 30
0.0
 11
72.5
 21
61.279214999999802
 31
0.0
  0
LINE
  5
3FB
  8
0
 10
72.251900000000006
 20
33.871014999999801
 30
0.0
 11
72.676699999999997
 21
33.602714999999797
 31
0.0
  0
LINE
  5
3FD
  8
0
 10
72.309499999999986
 20
27.250414999999801
 30
0.0
 11
72.897999999999996
 21
27.347914999999801
 31
0.0
  0
LINE
  5
3FE
  8
0
 10
72.309499999999986
 20
28.1503149999998
 30
0.0
 11
72.897999999999996
 21
28.6335149999998
 31
0.0
  0
LINE
  5
400
  8
0
 10
72.251900000000006
 20
22.702914999999791
 30
0.0
 11
72.676699999999997
 21
23.220014999999801
 31
0.0
  0
LINE
  5
401
  8
0
 10
72.5
 20
61.279214999999802
 30
0.0
 11
79.299999999999983
 21
55.558414999999798
 31
0.0
  0
LINE
  5
402
  8
0
 10
74.099999999999994
 20
20.8622149999998
 30
0.0
 11
77.700000000000003
 21
26.454414999999798
 31
0.0
  0
LINE
  5
403
  8
0
 10
74.5
 20
20.975814999999798
 30
0.0
 11
78.200000000000003
 21
26.696614999999799
 31
0.0
  0
LINE
  5
404
  8
0
 10
75.400000000000006
 20
21.3561149999998
 30
0.0
 11
77.599999999999994
 21
23.394514999999799
 31
0.0
  0
LINE
  5
405
  8
0
 10
77.599999999999994
 20
23.394514999999799
 30
0.0
 11
81.5
 21
29.565314999999799
 31
0.0
  0
LINE
  5
406
  8
0
 10
73.486599999999996
 20
27.831114999999791
 30
0.0
 11
73.738799999999983
 21
28.405514999999799
 31
0.0
  0
LINE
  5
407
  8
0
 10
72.897999999999996
 20
27.347914999999801
 30
0.0
 11
73.486599999999996
 21
27.831114999999791
 31
0.0
  0
LINE
  5
408
  8
0
 10
72.6143
 20
33.001714999999791
 30
0.0
 11
72.676699999999997
 21
33.602714999999797
 31
0.0
  0
LINE
  5
40A
  8
0
 10
72.897999999999996
 20
28.6335149999998
 30
0.0
 11
73.486599999999996
 21
28.7310149999998
 31
0.0
  0
LINE
  5
40B
  8
0
 10
77.700000000000003
 20
26.454414999999798
 30
0.0
 11
79.099999999999994
 21
32.4966149999998
 31
0.0
  0
LINE
  5
40C
  8
0
 10
77.700000000000003
 20
38.538814999999794
 30
0.0
 11
79.099999999999994
 21
32.4966149999998
 31
0.0
  0
LINE
  5
40D
  8
0
 10
74.200000000000003
 20
44.501814999999802
 30
0.0
 11
77.799999999999997
 21
38.845314999999793
 31
0.0
  0
LINE
  5
40E
  8
0
 10
78.200000000000003
 20
26.696614999999799
 30
0.0
 11
79.5
 21
32.803114999999799
 31
0.0
  0
LINE
  5
40F
  8
0
 10
77.799999999999997
 20
38.845314999999793
 30
0.0
 11
78.826103075038915
 21
33.678714999999691
 31
0.0
  0
LINE
  5
410
  8
0
 10
74.5
 20
44.6304149999998
 30
0.0
 11
78.200000000000003
 21
38.909514999999793
 31
0.0
  0
LINE
  5
411
  8
0
 10
78.200000000000003
 20
38.909514999999793
 30
0.0
 11
79.5
 21
32.803114999999799
 31
0.0
  0
LINE
  5
412
  8
0
 10
78.799999999999983
 20
54.728114999999796
 30
0.0
 11
83.0
 21
48.1717149999998
 31
0.0
  0
LINE
  5
413
  8
0
 10
73.486599999999996
 20
28.7310149999998
 30
0.0
 11
73.738799999999983
 21
28.405514999999799
 31
0.0
  0
LINE
  5
414
  8
0
 10
72.6143
 20
23.572214999999801
 30
0.0
 11
72.676699999999997
 21
23.220014999999801
 31
0.0
  0
LINE
  5
415
  8
0
 10
72.5
 20
65.109414999999785
 30
0.0
 11
79.299999999999983
 21
59.388614999999803
 31
0.0
  0
LINE
  5
416
  8
0
 10
72.200000000000003
 20
65.299614999999804
 30
0.0
 11
72.5
 21
65.109414999999785
 31
0.0
  0
LINE
  5
417
  8
0
 10
63.600000000000001
 20
69.480414999999795
 30
0.0
 11
72.5
 21
65.109414999999785
 31
0.0
  0
LINE
  5
418
  8
0
 10
63.5
 20
69.542014999999793
 30
0.0
 11
72.200000000000003
 21
65.299614999999804
 31
0.0
  0
LINE
  5
419
  8
0
 10
72.5
 20
65.875514999999794
 30
0.0
 11
79.299999999999983
 21
60.15471499999979
 31
0.0
  0
LINE
  5
41A
  8
0
 10
81.5
 20
29.565314999999799
 30
0.0
 11
82.5
 21
31.2875149999998
 31
0.0
  0
LINE
  5
41B
  8
0
 10
82.5
 20
31.2875149999998
 30
0.0
 11
84.0
 21
38.165414999999797
 31
0.0
  0
LINE
  5
41C
  8
0
 10
83.0
 20
48.1717149999998
 30
0.0
 11
84.500000000000014
 21
41.229514999999793
 31
0.0
  0
LINE
  5
41D
  8
0
 10
83.207836419004707
 20
34.533133737514603
 30
0.0
 11
83.499999999999986
 21
34.989214999999803
 31
0.0
  0
LINE
  5
41E
  8
0
 10
83.499999999999986
 20
34.989214999999803
 30
0.0
 11
85.0
 21
41.995614999999788
 31
0.0
  0
LINE
  5
41F
  8
0
 10
83.499999999999986
 20
49.002014999999801
 30
0.0
 11
85.0
 21
41.995614999999788
 31
0.0
  0
LINE
  5
420
  8
0
 10
84.0
 20
38.165414999999797
 30
0.0
 11
84.500000000000014
 21
41.229514999999793
 31
0.0
  0
LINE
  5
421
  8
0
 10
83.499999999999986
 20
52.832214999999799
 30
0.0
 11
85.0
 21
45.8258149999998
 31
0.0
  0
LINE
  5
422
  8
0
 10
79.299999999999983
 20
55.558414999999798
 30
0.0
 11
83.499999999999986
 21
49.002014999999801
 31
0.0
  0
LINE
  5
423
  8
0
 10
83.499999999999986
 20
53.598214999999797
 30
0.0
 11
85.0
 21
46.591914999999787
 31
0.0
  0
LINE
  5
424
  8
0
 10
85.0
 20
45.8258149999998
 30
0.0
 11
85.0
 21
41.995614999999788
 31
0.0
  0
LINE
  5
425
  8
0
 10
84.917992835122206
 20
46.20886499999979
 30
0.0
 11
85.0
 21
46.591914999999787
 31
0.0
  0
LINE
  5
426
  8
0
 10
85.0
 20
41.995614999999788
 30
0.0
 11
85.0
 21
45.8258149999998
 31
0.0
  0
LINE
  5
427
  8
0
 10
84.500000000000014
 20
50.805114999999802
 30
0.0
 11
85.0
 21
46.591914999999787
 31
0.0
  0
LINE
  5
428
  8
0
 10
79.299999999999983
 20
59.388614999999803
 30
0.0
 11
83.499999999999986
 21
52.832214999999799
 31
0.0
  0
LINE
  5
429
  8
0
 10
79.299999999999983
 20
60.15471499999979
 30
0.0
 11
83.499999999999986
 21
53.598214999999797
 31
0.0
  0
LINE
  5
42A
  8
0
 10
81.5
 20
61.703314999999797
 30
0.0
 11
83.0
 21
57.747214999999798
 31
0.0
  0
LINE
  5
42B
  8
0
 10
83.0
 20
57.747214999999798
 30
0.0
 11
84.500000000000014
 21
50.805114999999802
 31
0.0
  0
LINE
  5
42C
  8
0
 10
79.099999999999994
 20
65.913914999999804
 30
0.0
 11
81.5
 21
61.703314999999797
 31
0.0
  0
LINE
  5
42D
  8
0
 10
71.799999999999983
 20
75.138314999999807
 30
0.0
 11
75.400000000000006
 21
71.827614999999795
 31
0.0
  0
LINE
  5
42E
  8
0
 10
75.400000000000006
 20
71.827614999999795
 30
0.0
 11
79.099999999999994
 21
65.913914999999804
 31
0.0
  0
LINE
  5
42F
  8
0
 10
66.5
 20
79.637814999999804
 30
0.0
 11
71.799999999999983
 21
75.138314999999807
 31
0.0
  0
LINE
  5
430
  8
0
 10
63.600000000000001
 20
70.246414999999786
 30
0.0
 11
72.5
 21
65.875514999999794
 31
0.0
  0
LINE
  5
431
  8
0
 10
59.5
 20
83.044614999999794
 30
0.0
 11
66.5
 21
79.637814999999804
 31
0.0
  0
LINE
  5
432
  8
0
 10
54.0
 20
85.005284565217195
 30
0.0
 11
54.0
 21
87.575214999999787
 31
0.0
  0
LINE
  5
433
  8
0
 10
56.700000000000003
 20
84.301014999999794
 30
0.0
 11
59.5
 21
83.044614999999794
 31
0.0
  0
LINE
  5
434
  8
0
 10
49.799999999999997
 20
86.100814999999784
 30
0.0
 11
56.700000000000003
 21
84.301014999999794
 31
0.0
  0
LINE
  5
435
  8
0
 10
54.0
 20
87.575214999999787
 30
0.0
 11
54.0
 21
85.005284565217195
 31
0.0
  0
LINE
  5
436
  8
0
 10
53.600000000000001
 20
89.503614999999783
 30
0.0
 11
54.0
 21
87.575214999999787
 31
0.0
  0
LINE
  5
437
  8
0
 10
42.5
 20
86.743614999999807
 30
0.0
 11
49.799999999999997
 21
86.100814999999784
 31
0.0
  0
LINE
  5
438
  8
0
 10
35.200000000000003
 20
86.100814999999784
 30
0.0
 11
42.5
 21
86.743614999999807
 31
0.0
  0
LINE
  5
44E
  8
0
 10
32.5
 20
91.239114999999785
 30
0.0
 11
34.399999999999991
 21
92.781814999999796
 31
0.0
  0
LINE
  5
454
  8
0
 10
36.79999999999999
 20
94.003114999999795
 30
0.0
 11
39.5
 21
94.710214999999792
 31
0.0
  0
LINE
  5
456
  8
0
 10
39.5
 20
94.710214999999792
 30
0.0
 11
42.5
 21
94.967314999999786
 31
0.0
  0
LINE
  5
458
  8
0
 10
48.200000000000003
 20
94.003114999999795
 30
0.0
 11
50.600000000000001
 21
92.781814999999796
 31
0.0
  0
LINE
  5
45A
  8
0
 10
45.499999999999993
 20
94.710214999999792
 30
0.0
 11
48.200000000000003
 21
94.003114999999795
 31
0.0
  0
LINE
  5
45D
  8
0
 10
50.600000000000001
 20
92.781814999999796
 30
0.0
 11
52.5
 21
91.239114999999785
 31
0.0
  0
LINE
  5
460
  8
0
 10
52.5
 20
91.239114999999785
 30
0.0
 11
53.600000000000001
 21
89.503614999999783
 31
0.0
  0
LINE
  5
472
  8
0
 10
42.5
 20
94.967314999999786
 30
0.0
 11
45.499999999999993
 21
94.710214999999792
 31
0.0
  0
LINE
  5
497
  8
0
 10
34.399999999999991
 20
92.781814999999796
 30
0.0
 11
36.79999999999999
 21
94.003114999999795
 31
0.0
  0
LINE
  5
498
  8
0
 10
31.399999999999999
 20
89.503614999999783
 30
0.0
 11
32.5
 21
91.239114999999785
 31
0.0
  0
LINE
  5
499
  8
0
 10
31.0
 20
87.575214999999787
 30
0.0
 11
31.399999999999999
 21
89.503614999999783
 31
0.0
  0
LINE
  5
49A
  8
0
 10
31.0
 20
87.575214999999787
 30
0.0
 11
31.0
 21
85.005284565217195
 31
0.0
  0
ENDSEC
  0
EOF
