  0
SECTION
  2
HEADER
  9
$ACADVER
  1
AC1018
  9
$ACADMAINTVER
 70
     0
  9
$DWGCODEPAGE
  3
ANSI_1252
  9
$INSBASE
 10
0.0
 20
0.0
 30
0.0
  9
$EXTMIN
 10
1.000000000000000E+20
 20
1.000000000000000E+20
 30
1.000000000000000E+20
  9
$EXTMAX
 10
-1.000000000000000E+20
 20
-1.000000000000000E+20
 30
-1.000000000000000E+20
  9
$LIMMIN
 10
0.0
 20
0.0
  9
$LIMMAX
 10
12.0
 20
9.0
  9
$ORTHOMODE
 70
     0
  9
$REGENMODE
 70
     1
  9
$FILLMODE
 70
     1
  9
$QTEXTMODE
 70
     0
  9
$MIRRTEXT
 70
     1
  9
$LTSCALE
 40
1.0
  9
$ATTMODE
 70
     1
  9
$TEXTSIZE
 40
0.2
  9
$TRACEWID
 40
0.05
  9
$TEXTSTYLE
  7
Standard
  9
$CLAYER
  8
0
  9
$CELTYPE
  6
ByLayer
  9
$CECOLOR
 62
   256
  9
$CELTSCALE
 40
1.0
  9
$DISPSILH
 70
     0
  9
$DIMSCALE
 40
1.0
  9
$DIMASZ
 40
0.18
  9
$DIMEXO
 40
0.0625
  9
$DIMDLI
 40
0.38
  9
$DIMRND
 40
0.0
  9
$DIMDLE
 40
0.0
  9
$DIMEXE
 40
0.18
  9
$DIMTP
 40
0.0
  9
$DIMTM
 40
0.0
  9
$DIMTXT
 40
0.18
  9
$DIMCEN
 40
0.09
  9
$DIMTSZ
 40
0.0
  9
$DIMTOL
 70
     0
  9
$DIMLIM
 70
     0
  9
$DIMTIH
 70
     1
  9
$DIMTOH
 70
     1
  9
$DIMSE1
 70
     0
  9
$DIMSE2
 70
     0
  9
$DIMTAD
 70
     0
  9
$DIMZIN
 70
     0
  9
$DIMBLK
  1

  9
$DIMASO
 70
     1
  9
$DIMSHO
 70
     1
  9
$DIMPOST
  1

  9
$DIMAPOST
  1

  9
$DIMALT
 70
     0
  9
$DIMALTD
 70
     2
  9
$DIMALTF
 40
25.4
  9
$DIMLFAC
 40
1.0
  9
$DIMTOFL
 70
     0
  9
$DIMTVP
 40
0.0
  9
$DIMTIX
 70
     0
  9
$DIMSOXD
 70
     0
  9
$DIMSAH
 70
     0
  9
$DIMBLK1
  1

  9
$DIMBLK2
  1

  9
$DIMSTYLE
  2
Standard
  9
$DIMCLRD
 70
     0
  9
$DIMCLRE
 70
     0
  9
$DIMCLRT
 70
     0
  9
$DIMTFAC
 40
1.0
  9
$DIMGAP
 40
0.09
  9
$DIMJUST
 70
     0
  9
$DIMSD1
 70
     0
  9
$DIMSD2
 70
     0
  9
$DIMTOLJ
 70
     1
  9
$DIMTZIN
 70
     0
  9
$DIMALTZ
 70
     0
  9
$DIMALTTZ
 70
     0
  9
$DIMUPT
 70
     0
  9
$DIMDEC
 70
     4
  9
$DIMTDEC
 70
     4
  9
$DIMALTU
 70
     2
  9
$DIMALTTD
 70
     2
  9
$DIMTXSTY
  7
Standard
  9
$DIMAUNIT
 70
     0
  9
$DIMADEC
 70
     0
  9
$DIMALTRND
 40
0.0
  9
$DIMAZIN
 70
     0
  9
$DIMDSEP
 70
    46
  9
$DIMATFIT
 70
     3
  9
$DIMFRAC
 70
     0
  9
$DIMLDRBLK
  1

  9
$DIMLUNIT
 70
     2
  9
$DIMLWD
 70
    -2
  9
$DIMLWE
 70
    -2
  9
$DIMTMOVE
 70
     0
  9
$LUNITS
 70
     2
  9
$LUPREC
 70
     4
  9
$SKETCHINC
 40
0.1
  9
$FILLETRAD
 40
0.5
  9
$AUNITS
 70
     0
  9
$AUPREC
 70
     0
  9
$MENU
  1
.
  9
$ELEVATION
 40
0.0
  9
$PELEVATION
 40
0.0
  9
$THICKNESS
 40
0.0
  9
$LIMCHECK
 70
     0
  9
$CHAMFERA
 40
0.5
  9
$CHAMFERB
 40
0.5
  9
$CHAMFERC
 40
1.0
  9
$CHAMFERD
 40
0.0
  9
$SKPOLY
 70
     0
  9
$TDCREATE
 40
2456367.366609201
  9
$TDUCREATE
 40
2456367.324942535
  9
$TDUPDATE
 40
2456367.366609213
  9
$TDUUPDATE
 40
2456367.324942546
  9
$TDINDWG
 40
0.0000000116
  9
$TDUSRTIMER
 40
0.0000000116
  9
$USRTIMER
 70
     1
  9
$ANGBASE
 50
0.0
  9
$ANGDIR
 70
     0
  9
$PDMODE
 70
     0
  9
$PDSIZE
 40
0.0
  9
$PLINEWID
 40
0.0
  9
$SPLFRAME
 70
     0
  9
$SPLINETYPE
 70
     6
  9
$SPLINESEGS
 70
     8
  9
$HANDSEED
  5
6CB
  9
$SURFTAB1
 70
     6
  9
$SURFTAB2
 70
     6
  9
$SURFTYPE
 70
     6
  9
$SURFU
 70
     6
  9
$SURFV
 70
     6
  9
$UCSBASE
  2

  9
$UCSNAME
  2

  9
$UCSORG
 10
0.0
 20
0.0
 30
0.0
  9
$UCSXDIR
 10
1.0
 20
0.0
 30
0.0
  9
$UCSYDIR
 10
0.0
 20
1.0
 30
0.0
  9
$UCSORTHOREF
  2

  9
$UCSORTHOVIEW
 70
     0
  9
$UCSORGTOP
 10
0.0
 20
0.0
 30
0.0
  9
$UCSORGBOTTOM
 10
0.0
 20
0.0
 30
0.0
  9
$UCSORGLEFT
 10
0.0
 20
0.0
 30
0.0
  9
$UCSORGRIGHT
 10
0.0
 20
0.0
 30
0.0
  9
$UCSORGFRONT
 10
0.0
 20
0.0
 30
0.0
  9
$UCSORGBACK
 10
0.0
 20
0.0
 30
0.0
  9
$PUCSBASE
  2

  9
$PUCSNAME
  2

  9
$PUCSORG
 10
0.0
 20
0.0
 30
0.0
  9
$PUCSXDIR
 10
1.0
 20
0.0
 30
0.0
  9
$PUCSYDIR
 10
0.0
 20
1.0
 30
0.0
  9
$PUCSORTHOREF
  2

  9
$PUCSORTHOVIEW
 70
     0
  9
$PUCSORGTOP
 10
0.0
 20
0.0
 30
0.0
  9
$PUCSORGBOTTOM
 10
0.0
 20
0.0
 30
0.0
  9
$PUCSORGLEFT
 10
0.0
 20
0.0
 30
0.0
  9
$PUCSORGRIGHT
 10
0.0
 20
0.0
 30
0.0
  9
$PUCSORGFRONT
 10
0.0
 20
0.0
 30
0.0
  9
$PUCSORGBACK
 10
0.0
 20
0.0
 30
0.0
  9
$USERI1
 70
     0
  9
$USERI2
 70
     0
  9
$USERI3
 70
     0
  9
$USERI4
 70
     0
  9
$USERI5
 70
     0
  9
$USERR1
 40
0.0
  9
$USERR2
 40
0.0
  9
$USERR3
 40
0.0
  9
$USERR4
 40
0.0
  9
$USERR5
 40
0.0
  9
$WORLDVIEW
 70
     1
  9
$SHADEDGE
 70
     3
  9
$SHADEDIF
 70
    70
  9
$TILEMODE
 70
     1
  9
$MAXACTVP
 70
    64
  9
$PINSBASE
 10
0.0
 20
0.0
 30
0.0
  9
$PLIMCHECK
 70
     0
  9
$PEXTMIN
 10
1.000000000000000E+20
 20
1.000000000000000E+20
 30
1.000000000000000E+20
  9
$PEXTMAX
 10
-1.000000000000000E+20
 20
-1.000000000000000E+20
 30
-1.000000000000000E+20
  9
$PLIMMIN
 10
0.0
 20
0.0
  9
$PLIMMAX
 10
12.0
 20
9.0
  9
$UNITMODE
 70
     0
  9
$VISRETAIN
 70
     1
  9
$PLINEGEN
 70
     0
  9
$PSLTSCALE
 70
     1
  9
$TREEDEPTH
 70
  3020
  9
$CMLSTYLE
  2
Standard
  9
$CMLJUST
 70
     0
  9
$CMLSCALE
 40
1.0
  9
$PROXYGRAPHICS
 70
     1
  9
$MEASUREMENT
 70
     0
  9
$CELWEIGHT
370
    -1
  9
$ENDCAPS
280
     0
  9
$JOINSTYLE
280
     0
  9
$LWDISPLAY
290
     1
  9
$INSUNITS
 70
     1
  9
$HYPERLINKBASE
  1

  9
$STYLESHEET
  1

  9
$XEDIT
290
     1
  9
$CEPSNTYPE
380
     0
  9
$PSTYLEMODE
290
     1
  9
$FINGERPRINTGUID
  2
{E095A04D-E00F-4C8D-87CE-1B2B455BF65C}
  9
$VERSIONGUID
  2
{FAEB1C32-E019-11D5-929B-00C0DF256EC4}
  9
$EXTNAMES
290
     1
  9
$PSVPSCALE
 40
0.0
  9
$OLESTARTUP
290
     0
  9
$SORTENTS
280
   127
  9
$INDEXCTL
280
     0
  9
$HIDETEXT
280
     1
  9
$XCLIPFRAME
290
     0
  9
$HALOGAP
280
     0
  9
$OBSCOLOR
 70
   257
  9
$OBSLTYPE
280
     0
  9
$INTERSECTIONDISPLAY
280
     0
  9
$INTERSECTIONCOLOR
 70
   257
  9
$DIMASSOC
280
     2
  9
$PROJECTNAME
  1

  0
ENDSEC
  0
SECTION
  2
CLASSES
  0
CLASS
  1
ACDBDICTIONARYWDFLT
  2
AcDbDictionaryWithDefault
  3
ObjectDBX Classes
 90
        0
 91
        3
280
     0
281
     0
  0
CLASS
  1
VISUALSTYLE
  2
AcDbVisualStyle
  3
ObjectDBX Classes
 90
     4095
 91
        3
280
     0
281
     0
  0
ENDSEC
  0
SECTION
  2
TABLES
  0
TABLE
  2
VPORT
  5
8
330
0
100
AcDbSymbolTable
 70
     1
  0
VPORT
  5
29
330
8
100
AcDbSymbolTableRecord
100
AcDbViewportTableRecord
  2
*Active
 70
     0
 10
0.0
 20
0.0
 11
1.0
 21
1.0
 12
0.0
 22
0.0
 13
0.0
 23
0.0
 14
0.5
 24
0.5
 15
0.5
 25
0.5
 16
0.0
 26
0.0
 36
1.0
 17
84.16943359375
 27
137.25927734375
 37
0.0
 40
137.4833984375
 41
1.003167996135897
 42
50.0
 43
0.0
 44
0.0
 50
0.0
 51
0.0
 71
     0
 72
   100
 73
     1
 74
     3
 75
     0
 76
     0
 77
     0
 78
     0
281
     0
 65
     1
110
0.0
120
0.0
130
0.0
111
1.0
121
0.0
131
0.0
112
0.0
122
1.0
132
0.0
 79
     0
146
0.0
  0
ENDTAB
  0
TABLE
  2
LTYPE
  5
5
330
0
100
AcDbSymbolTable
 70
     1
  0
LTYPE
  5
14
330
5
100
AcDbSymbolTableRecord
100
AcDbLinetypeTableRecord
  2
ByBlock
 70
     0
  3

 72
    65
 73
     0
 40
0.0
  0
LTYPE
  5
15
330
5
100
AcDbSymbolTableRecord
100
AcDbLinetypeTableRecord
  2
ByLayer
 70
     0
  3

 72
    65
 73
     0
 40
0.0
  0
LTYPE
  5
16
330
5
100
AcDbSymbolTableRecord
100
AcDbLinetypeTableRecord
  2
Continuous
 70
     0
  3
Solid line
 72
    65
 73
     0
 40
0.0
  0
ENDTAB
  0
TABLE
  2
LAYER
  5
2
330
0
100
AcDbSymbolTable
 70
     5
  0
LAYER
  5
10
330
2
100
AcDbSymbolTableRecord
100
AcDbLayerTableRecord
  2
0
 70
     0
 62
     7
  6
Continuous
370
    -3
390
F
  0
LAYER
  5
3B
330
2
100
AcDbSymbolTableRecord
100
AcDbLayerTableRecord
  2
Hintergrund
 70
     0
 62
     7
  6
Continuous
370
    -3
390
F
  0
LAYER
  5
3C
330
2
100
AcDbSymbolTableRecord
100
AcDbLayerTableRecord
  2
Hilfslinien
 70
     0
 62
     7
  6
Continuous
370
    -3
390
F
  0
LAYER
  5
3D
330
2
100
AcDbSymbolTableRecord
100
AcDbLayerTableRecord
  2
Vordergrund
 70
     0
 62
     7
  6
Continuous
370
    -3
390
F
  0
LAYER
  5
26F
330
2
100
AcDbSymbolTableRecord
100
AcDbLayerTableRecord
  2
Ma\U+00DFe
 70
     0
 62
     7
  6
Continuous
370
    -3
390
F
  0
ENDTAB
  0
TABLE
  2
STYLE
  5
3
330
0
100
AcDbSymbolTable
 70
     1
  0
STYLE
  5
11
330
3
100
AcDbSymbolTableRecord
100
AcDbTextStyleTableRecord
  2
Standard
 70
     0
 40
0.0
 41
1.0
 50
0.0
 71
     0
 42
0.2
  3
txt
  4

  0
ENDTAB
  0
TABLE
  2
VIEW
  5
6
330
0
100
AcDbSymbolTable
 70
     0
  0
ENDTAB
  0
TABLE
  2
UCS
  5
7
330
0
100
AcDbSymbolTable
 70
     0
  0
ENDTAB
  0
TABLE
  2
APPID
  5
9
330
0
100
AcDbSymbolTable
 70
     1
  0
APPID
  5
12
330
9
100
AcDbSymbolTableRecord
100
AcDbRegAppTableRecord
  2
ACAD
 70
     0
  0
ENDTAB
  0
TABLE
  2
DIMSTYLE
  5
A
330
0
100
AcDbSymbolTable
 70
     1
100
AcDbDimStyleTable
  0
DIMSTYLE
105
27
330
A
100
AcDbSymbolTableRecord
100
AcDbDimStyleTableRecord
  2
Standard
 70
     0
340
11
  0
ENDTAB
  0
TABLE
  2
BLOCK_RECORD
  5
1
330
0
100
AcDbSymbolTable
 70
     6
  0
BLOCK_RECORD
  5
1F
330
1
100
AcDbSymbolTableRecord
100
AcDbBlockTableRecord
  2
*Model_Space
340
22
  0
BLOCK_RECORD
  5
1B
330
1
100
AcDbSymbolTableRecord
100
AcDbBlockTableRecord
  2
*Paper_Space
340
1E
  0
BLOCK_RECORD
  5
23
330
1
100
AcDbSymbolTableRecord
100
AcDbBlockTableRecord
  2
*Paper_Space0
340
26
  0
BLOCK_RECORD
  5
3E
330
1
100
AcDbSymbolTableRecord
100
AcDbBlockTableRecord
  2
block 2
340
0
102
{BLKREFS
331
3F
102
}
  0
BLOCK_RECORD
  5
D6
330
1
100
AcDbSymbolTableRecord
100
AcDbBlockTableRecord
  2
block 3
340
0
102
{BLKREFS
331
D7
102
}
  0
BLOCK_RECORD
  5
3D6
330
1
100
AcDbSymbolTableRecord
100
AcDbBlockTableRecord
  2
block 4
340
0
102
{BLKREFS
331
3D7
102
}
  0
BLOCK_RECORD
  5
3DA
330
1
100
AcDbSymbolTableRecord
100
AcDbBlockTableRecord
  2
block 5
340
0
102
{BLKREFS
331
3DB
102
}
  0
BLOCK_RECORD
  5
5D8
330
1
100
AcDbSymbolTableRecord
100
AcDbBlockTableRecord
  2
block 6
340
0
102
{BLKREFS
331
5D9
102
}
  0
ENDTAB
  0
ENDSEC
  0
SECTION
  2
BLOCKS
  0
BLOCK
  5
20
330
1F
100
AcDbEntity
  8
0
100
AcDbBlockBegin
  2
*Model_Space
 70
     0
 71
     0
 10
0.0
 20
0.0
 30
0.0
  3
*Model_Space
  1

  0
ENDBLK
  5
21
330
1F
100
AcDbEntity
  8
0
100
AcDbBlockEnd
  0
BLOCK
  5
1C
330
1B
100
AcDbEntity
 67
     1
  8
0
100
AcDbBlockBegin
  2
*Paper_Space
 70
     0
 71
     0
 10
0.0
 20
0.0
 30
0.0
  3
*Paper_Space
  1

  0
ENDBLK
  5
1D
330
1B
100
AcDbEntity
 67
     1
  8
0
100
AcDbBlockEnd
  0
BLOCK
  5
24
330
23
100
AcDbEntity
  8
0
100
AcDbBlockBegin
  2
*Paper_Space0
 70
     0
 71
     0
 10
0.0
 20
0.0
 30
0.0
  3
*Paper_Space0
  1

  0
ENDBLK
  5
25
330
23
100
AcDbEntity
  8
0
100
AcDbBlockEnd
  0
BLOCK
  5
40
330
3E
100
AcDbEntity
  8
0
100
AcDbBlockBegin
  2
block 2
 70
     0
 71
     0
 10
0.0
 20
0.0
 30
0.0
  3
block 2
  1

  0
SPLINE
  5
42
330
3E
100
AcDbEntity
  8
Vordergrund
 62
   250
420
  1709851
370
    50
100
AcDbSpline
210
0.0
220
0.0
230
1.0
 70
     8
 71
     3
 72
     8
 73
     4
 74
     0
 42
0.0000000001
 43
0.0000000001
 40
0.0
 40
0.0
 40
0.0
 40
0.0
 40
1.0
 40
1.0
 40
1.0
 40
1.0
 10
43.5498046875
 20
135.8681640625
 30
0.0
 10
43.525390625
 20
138.7119140625
 30
0.0
 10
40.9755859375
 20
140.7548828125
 30
0.0
 10
38.2392578125
 20
140.748046875
 30
0.0
  0
POLYLINE
  5
43
330
3E
100
AcDbEntity
  8
Vordergrund
 62
   250
420
  1709851
370
    50
100
AcDb2dPolyline
 66
     1
 10
0.0
 20
0.0
 30
0.0
  0
VERTEX
  5
44
330
43
100
AcDbEntity
  8
Vordergrund
 62
   250
420
  1709851
370
    50
100
AcDbVertex
100
AcDb2dVertex
 10
38.2392578125
 20
140.748046875
 30
0.0
  0
VERTEX
  5
45
330
43
100
AcDbEntity
  8
Vordergrund
 62
   250
420
  1709851
370
    50
100
AcDbVertex
100
AcDb2dVertex
 10
34.7001953125
 20
140.748046875
 30
0.0
  0
SEQEND
  5
46
330
43
100
AcDbEntity
  8
Vordergrund
370
    50
  0
SPLINE
  5
47
330
3E
100
AcDbEntity
  8
Vordergrund
 62
   250
420
  1709851
370
    50
100
AcDbSpline
210
0.0
220
0.0
230
1.0
 70
     8
 71
     3
 72
     8
 73
     4
 74
     0
 42
0.0000000001
 43
0.0000000001
 40
0.0
 40
0.0
 40
0.0
 40
0.0
 40
1.0
 40
1.0
 40
1.0
 40
1.0
 10
34.7001953125
 20
140.748046875
 30
0.0
 10
32.0078125
 20
140.77001953125
 30
0.0
 10
29.3623046875
 20
138.69287109375
 30
0.0
 10
29.3896484375
 20
135.8681640625
 30
0.0
  0
SPLINE
  5
48
330
3E
100
AcDbEntity
  8
Vordergrund
 62
   250
420
  1709851
370
    50
100
AcDbSpline
210
0.0
220
0.0
230
1.0
 70
     8
 71
     3
 72
     8
 73
     4
 74
     0
 42
0.0000000001
 43
0.0000000001
 40
0.0
 40
0.0
 40
0.0
 40
0.0
 40
1.0
 40
1.0
 40
1.0
 40
1.0
 10
38.2392578125
 20
81.6884765625
 30
0.0
 10
41.1201171875
 20
81.7099609375
 30
0.0
 10
43.5859375
 20
84.080078125
 30
0.0
 10
43.5498046875
 20
86.998046875
 30
0.0
  0
POLYLINE
  5
49
330
3E
100
AcDbEntity
  8
Vordergrund
 62
   250
420
  1709851
370
    50
100
AcDb2dPolyline
 66
     1
 10
0.0
 20
0.0
 30
0.0
  0
VERTEX
  5
4A
330
49
100
AcDbEntity
  8
Vordergrund
 62
   250
420
  1709851
370
    50
100
AcDbVertex
100
AcDb2dVertex
 10
38.2392578125
 20
81.6884765625
 30
0.0
  0
VERTEX
  5
4B
330
49
100
AcDbEntity
  8
Vordergrund
 62
   250
420
  1709851
370
    50
100
AcDbVertex
100
AcDb2dVertex
 10
34.7001953125
 20
81.6884765625
 30
0.0
  0
SEQEND
  5
4C
330
49
100
AcDbEntity
  8
Vordergrund
370
    50
  0
SPLINE
  5
4D
330
3E
100
AcDbEntity
  8
Vordergrund
 62
   250
420
  1709851
370
    50
100
AcDbSpline
210
0.0
220
0.0
230
1.0
 70
     8
 71
     3
 72
     8
 73
     4
 74
     0
 42
0.0000000001
 43
0.0000000001
 40
0.0
 40
0.0
 40
0.0
 40
0.0
 40
1.0
 40
1.0
 40
1.0
 40
1.0
 10
29.3896484375
 20
86.998046875
 30
0.0
 10
29.345703125
 20
84.125
 30
0.0
 10
31.8310546875
 20
81.6552734375
 30
0.0
 10
34.7001953125
 20
81.6884765625
 30
0.0
  0
POLYLINE
  5
4E
330
3E
100
AcDbEntity
  8
Vordergrund
 62
   250
420
  1709851
370
    50
100
AcDb2dPolyline
 66
     1
 10
0.0
 20
0.0
 30
0.0
  0
VERTEX
  5
4F
330
4E
100
AcDbEntity
  8
Vordergrund
 62
   250
420
  1709851
370
    50
100
AcDbVertex
100
AcDb2dVertex
 10
43.5498046875
 20
121.47802734375
 30
0.0
  0
VERTEX
  5
50
330
4E
100
AcDbEntity
  8
Vordergrund
 62
   250
420
  1709851
370
    50
100
AcDbVertex
100
AcDb2dVertex
 10
43.5498046875
 20
121.498046875
 30
0.0
  0
SEQEND
  5
51
330
4E
100
AcDbEntity
  8
Vordergrund
370
    50
  0
POLYLINE
  5
52
330
3E
100
AcDbEntity
  8
Vordergrund
 62
   250
420
  1709851
370
    50
100
AcDb2dPolyline
 66
     1
 10
0.0
 20
0.0
 30
0.0
  0
VERTEX
  5
53
330
52
100
AcDbEntity
  8
Vordergrund
 62
   250
420
  1709851
370
    50
100
AcDbVertex
100
AcDb2dVertex
 10
43.5498046875
 20
121.47802734375
 30
0.0
  0
VERTEX
  5
54
330
52
100
AcDbEntity
  8
Vordergrund
 62
   250
420
  1709851
370
    50
100
AcDbVertex
100
AcDb2dVertex
 10
43.5498046875
 20
86.998046875
 30
0.0
  0
SEQEND
  5
55
330
52
100
AcDbEntity
  8
Vordergrund
370
    50
  0
POLYLINE
  5
56
330
3E
100
AcDbEntity
  8
Vordergrund
 62
   250
420
  1709851
370
    50
100
AcDb2dPolyline
 66
     1
 10
0.0
 20
0.0
 30
0.0
  0
VERTEX
  5
57
330
56
100
AcDbEntity
  8
Vordergrund
 62
   250
420
  1709851
370
    50
100
AcDbVertex
100
AcDb2dVertex
 10
43.5498046875
 20
121.498046875
 30
0.0
  0
VERTEX
  5
58
330
56
100
AcDbEntity
  8
Vordergrund
 62
   250
420
  1709851
370
    50
100
AcDbVertex
100
AcDb2dVertex
 10
43.5498046875
 20
129.337890625
 30
0.0
  0
SEQEND
  5
59
330
56
100
AcDbEntity
  8
Vordergrund
370
    50
  0
POLYLINE
  5
5A
330
3E
100
AcDbEntity
  8
Vordergrund
 62
   250
420
  1709851
370
    50
100
AcDb2dPolyline
 66
     1
 10
0.0
 20
0.0
 30
0.0
  0
VERTEX
  5
5B
330
5A
100
AcDbEntity
  8
Vordergrund
 62
   250
420
  1709851
370
    50
100
AcDbVertex
100
AcDb2dVertex
 10
43.5498046875
 20
135.8681640625
 30
0.0
  0
VERTEX
  5
5C
330
5A
100
AcDbEntity
  8
Vordergrund
 62
   250
420
  1709851
370
    50
100
AcDbVertex
100
AcDb2dVertex
 10
43.5498046875
 20
129.47802734375
 30
0.0
  0
SEQEND
  5
5D
330
5A
100
AcDbEntity
  8
Vordergrund
370
    50
  0
POLYLINE
  5
5E
330
3E
100
AcDbEntity
  8
Vordergrund
 62
   250
420
  1709851
370
    50
100
AcDb2dPolyline
 66
     1
 10
0.0
 20
0.0
 30
0.0
  0
VERTEX
  5
5F
330
5E
100
AcDbEntity
  8
Vordergrund
 62
   250
420
  1709851
370
    50
100
AcDbVertex
100
AcDb2dVertex
 10
43.5498046875
 20
129.337890625
 30
0.0
  0
VERTEX
  5
60
330
5E
100
AcDbEntity
  8
Vordergrund
 62
   250
420
  1709851
370
    50
100
AcDbVertex
100
AcDb2dVertex
 10
43.5498046875
 20
129.47802734375
 30
0.0
  0
SEQEND
  5
61
330
5E
100
AcDbEntity
  8
Vordergrund
370
    50
  0
POLYLINE
  5
62
330
3E
100
AcDbEntity
  8
Vordergrund
 62
   250
420
  1709851
370
    50
100
AcDb2dPolyline
 66
     1
 10
0.0
 20
0.0
 30
0.0
  0
VERTEX
  5
63
330
62
100
AcDbEntity
  8
Vordergrund
 62
   250
420
  1709851
370
    50
100
AcDbVertex
100
AcDb2dVertex
 10
29.3896484375
 20
135.8681640625
 30
0.0
  0
VERTEX
  5
64
330
62
100
AcDbEntity
  8
Vordergrund
 62
   250
420
  1709851
370
    50
100
AcDbVertex
100
AcDb2dVertex
 10
29.3896484375
 20
129.47802734375
 30
0.0
  0
SEQEND
  5
65
330
62
100
AcDbEntity
  8
Vordergrund
370
    50
  0
POLYLINE
  5
66
330
3E
100
AcDbEntity
  8
Vordergrund
 62
   250
420
  1709851
370
    50
100
AcDb2dPolyline
 66
     1
 10
0.0
 20
0.0
 30
0.0
  0
VERTEX
  5
67
330
66
100
AcDbEntity
  8
Vordergrund
 62
   250
420
  1709851
370
    50
100
AcDbVertex
100
AcDb2dVertex
 10
29.3896484375
 20
129.337890625
 30
0.0
  0
VERTEX
  5
68
330
66
100
AcDbEntity
  8
Vordergrund
 62
   250
420
  1709851
370
    50
100
AcDbVertex
100
AcDb2dVertex
 10
29.3896484375
 20
129.47802734375
 30
0.0
  0
SEQEND
  5
69
330
66
100
AcDbEntity
  8
Vordergrund
370
    50
  0
POLYLINE
  5
6A
330
3E
100
AcDbEntity
  8
Vordergrund
 62
   250
420
  1709851
370
    50
100
AcDb2dPolyline
 66
     1
 10
0.0
 20
0.0
 30
0.0
  0
VERTEX
  5
6B
330
6A
100
AcDbEntity
  8
Vordergrund
 62
   250
420
  1709851
370
    50
100
AcDbVertex
100
AcDb2dVertex
 10
29.3896484375
 20
121.498046875
 30
0.0
  0
VERTEX
  5
6C
330
6A
100
AcDbEntity
  8
Vordergrund
 62
   250
420
  1709851
370
    50
100
AcDbVertex
100
AcDb2dVertex
 10
29.3896484375
 20
129.337890625
 30
0.0
  0
SEQEND
  5
6D
330
6A
100
AcDbEntity
  8
Vordergrund
370
    50
  0
POLYLINE
  5
6E
330
3E
100
AcDbEntity
  8
Vordergrund
 62
   250
420
  1709851
370
    50
100
AcDb2dPolyline
 66
     1
 10
0.0
 20
0.0
 30
0.0
  0
VERTEX
  5
6F
330
6E
100
AcDbEntity
  8
Vordergrund
 62
   250
420
  1709851
370
    50
100
AcDbVertex
100
AcDb2dVertex
 10
29.3896484375
 20
121.47802734375
 30
0.0
  0
VERTEX
  5
70
330
6E
100
AcDbEntity
  8
Vordergrund
 62
   250
420
  1709851
370
    50
100
AcDbVertex
100
AcDb2dVertex
 10
29.3896484375
 20
121.498046875
 30
0.0
  0
SEQEND
  5
71
330
6E
100
AcDbEntity
  8
Vordergrund
370
    50
  0
POLYLINE
  5
72
330
3E
100
AcDbEntity
  8
Vordergrund
 62
   250
420
  1709851
370
    50
100
AcDb2dPolyline
 66
     1
 10
0.0
 20
0.0
 30
0.0
  0
VERTEX
  5
73
330
72
100
AcDbEntity
  8
Vordergrund
 62
   250
420
  1709851
370
    50
100
AcDbVertex
100
AcDb2dVertex
 10
29.3896484375
 20
121.47802734375
 30
0.0
  0
VERTEX
  5
74
330
72
100
AcDbEntity
  8
Vordergrund
 62
   250
420
  1709851
370
    50
100
AcDbVertex
100
AcDb2dVertex
 10
29.3896484375
 20
86.998046875
 30
0.0
  0
SEQEND
  5
75
330
72
100
AcDbEntity
  8
Vordergrund
370
    50
  0
POLYLINE
  5
76
330
3E
100
AcDbEntity
  8
Vordergrund
 62
   250
420
  1709851
370
    50
100
AcDb2dPolyline
 66
     1
 10
0.0
 20
0.0
 30
0.0
  0
VERTEX
  5
77
330
76
100
AcDbEntity
  8
Vordergrund
 62
   250
420
  1709851
370
    50
100
AcDbVertex
100
AcDb2dVertex
 10
40.25
 20
71.7080078125
 30
0.0
  0
VERTEX
  5
78
330
76
100
AcDbEntity
  8
Vordergrund
 62
   250
420
  1709851
370
    50
100
AcDbVertex
100
AcDb2dVertex
 10
40.25
 20
82.087890625
 30
0.0
  0
SEQEND
  5
79
330
76
100
AcDbEntity
  8
Vordergrund
370
    50
  0
POLYLINE
  5
7A
330
3E
100
AcDbEntity
  8
Vordergrund
 62
   250
420
  1709851
370
    50
100
AcDb2dPolyline
 66
     1
 10
0.0
 20
0.0
 30
0.0
  0
VERTEX
  5
7B
330
7A
100
AcDbEntity
  8
Vordergrund
 62
   250
420
  1709851
370
    50
100
AcDbVertex
100
AcDb2dVertex
 10
32.4599609375
 20
82.1884765625
 30
0.0
  0
VERTEX
  5
7C
330
7A
100
AcDbEntity
  8
Vordergrund
 62
   250
420
  1709851
370
    50
100
AcDbVertex
100
AcDb2dVertex
 10
32.4599609375
 20
71.7080078125
 30
0.0
  0
SEQEND
  5
7D
330
7A
100
AcDbEntity
  8
Vordergrund
370
    50
  0
POLYLINE
  5
7E
330
3E
100
AcDbEntity
  8
Vordergrund
 62
   250
420
  1709851
370
    50
100
AcDb2dPolyline
 66
     1
 10
0.0
 20
0.0
 30
0.0
  0
VERTEX
  5
7F
330
7E
100
AcDbEntity
  8
Vordergrund
 62
   250
420
  1709851
370
    50
100
AcDbVertex
100
AcDb2dVertex
 10
32.4599609375
 20
71.7080078125
 30
0.0
  0
VERTEX
  5
80
330
7E
100
AcDbEntity
  8
Vordergrund
 62
   250
420
  1709851
370
    50
100
AcDbVertex
100
AcDb2dVertex
 10
32.4599609375
 20
70.3583984375
 30
0.0
  0
SEQEND
  5
81
330
7E
100
AcDbEntity
  8
Vordergrund
370
    50
  0
POLYLINE
  5
82
330
3E
100
AcDbEntity
  8
Vordergrund
 62
   250
420
  1709851
370
    50
100
AcDb2dPolyline
 66
     1
 10
0.0
 20
0.0
 30
0.0
  0
VERTEX
  5
83
330
82
100
AcDbEntity
  8
Vordergrund
 62
   250
420
  1709851
370
    50
100
AcDbVertex
100
AcDb2dVertex
 10
40.25
 20
71.7080078125
 30
0.0
  0
VERTEX
  5
84
330
82
100
AcDbEntity
  8
Vordergrund
 62
   250
420
  1709851
370
    50
100
AcDbVertex
100
AcDb2dVertex
 10
40.25
 20
70.5673828125
 30
0.0
  0
SEQEND
  5
85
330
82
100
AcDbEntity
  8
Vordergrund
370
    50
  0
POLYLINE
  5
86
330
3E
100
AcDbEntity
  8
Vordergrund
 62
   250
420
  1709851
370
    50
100
AcDb2dPolyline
 66
     1
 10
0.0
 20
0.0
 30
0.0
  0
VERTEX
  5
87
330
86
100
AcDbEntity
  8
Vordergrund
 62
   250
420
  1709851
370
    50
100
AcDbVertex
100
AcDb2dVertex
 10
40.080078125
 20
69.2275390625
 30
0.0
  0
VERTEX
  5
88
330
86
100
AcDbEntity
  8
Vordergrund
 62
   250
420
  1709851
370
    50
100
AcDbVertex
100
AcDb2dVertex
 10
32.6396484375
 20
69.2275390625
 30
0.0
  0
SEQEND
  5
89
330
86
100
AcDbEntity
  8
Vordergrund
370
    50
  0
POLYLINE
  5
8A
330
3E
100
AcDbEntity
  8
Vordergrund
 62
   250
420
  1709851
370
    50
100
AcDb2dPolyline
 66
     1
 10
0.0
 20
0.0
 30
0.0
  0
VERTEX
  5
8B
330
8A
100
AcDbEntity
  8
Vordergrund
 62
   250
420
  1709851
370
    50
100
AcDbVertex
100
AcDb2dVertex
 10
40.25
 20
70.3583984375
 30
0.0
  0
VERTEX
  5
8C
330
8A
100
AcDbEntity
  8
Vordergrund
 62
   250
420
  1709851
370
    50
100
AcDbVertex
100
AcDb2dVertex
 10
40.25
 20
69.4072265625
 30
0.0
  0
SEQEND
  5
8D
330
8A
100
AcDbEntity
  8
Vordergrund
370
    50
  0
POLYLINE
  5
8E
330
3E
100
AcDbEntity
  8
Vordergrund
 62
   250
420
  1709851
370
    50
100
AcDb2dPolyline
 66
     1
 10
0.0
 20
0.0
 30
0.0
  0
VERTEX
  5
8F
330
8E
100
AcDbEntity
  8
Vordergrund
 62
   250
420
  1709851
370
    50
100
AcDbVertex
100
AcDb2dVertex
 10
32.4599609375
 20
70.3583984375
 30
0.0
  0
VERTEX
  5
90
330
8E
100
AcDbEntity
  8
Vordergrund
 62
   250
420
  1709851
370
    50
100
AcDbVertex
100
AcDb2dVertex
 10
32.4599609375
 20
69.4072265625
 30
0.0
  0
SEQEND
  5
91
330
8E
100
AcDbEntity
  8
Vordergrund
370
    50
  0
POLYLINE
  5
92
330
3E
100
AcDbEntity
  8
Vordergrund
 62
   250
420
  1709851
370
    50
100
AcDb2dPolyline
 66
     1
 10
0.0
 20
0.0
 30
0.0
  0
VERTEX
  5
93
330
92
100
AcDbEntity
  8
Vordergrund
 62
   250
420
  1709851
370
    50
100
AcDbVertex
100
AcDb2dVertex
 10
40.080078125
 20
69.2275390625
 30
0.0
  0
VERTEX
  5
94
330
92
100
AcDbEntity
  8
Vordergrund
 62
   250
420
  1709851
370
    50
100
AcDbVertex
100
AcDb2dVertex
 10
40.25
 20
69.4072265625
 30
0.0
  0
SEQEND
  5
95
330
92
100
AcDbEntity
  8
Vordergrund
370
    50
  0
POLYLINE
  5
96
330
3E
100
AcDbEntity
  8
Vordergrund
 62
   250
420
  1709851
370
    50
100
AcDb2dPolyline
 66
     1
 10
0.0
 20
0.0
 30
0.0
  0
VERTEX
  5
97
330
96
100
AcDbEntity
  8
Vordergrund
 62
   250
420
  1709851
370
    50
100
AcDbVertex
100
AcDb2dVertex
 10
32.4599609375
 20
69.4072265625
 30
0.0
  0
VERTEX
  5
98
330
96
100
AcDbEntity
  8
Vordergrund
 62
   250
420
  1709851
370
    50
100
AcDbVertex
100
AcDb2dVertex
 10
32.6396484375
 20
69.2275390625
 30
0.0
  0
SEQEND
  5
99
330
96
100
AcDbEntity
  8
Vordergrund
370
    50
  0
SPLINE
  5
9A
330
3E
100
AcDbEntity
  8
Vordergrund
 62
   250
420
  1709851
370
    50
100
AcDbSpline
210
0.0
220
0.0
230
1.0
 70
     8
 71
     3
 72
     8
 73
     4
 74
     0
 42
0.0000000001
 43
0.0000000001
 40
0.0
 40
0.0
 40
0.0
 40
0.0
 40
1.0
 40
1.0
 40
1.0
 40
1.0
 10
32.4599609375
 20
70.5673828125
 30
0.0
 10
32.4599609375
 20
70.8193359375
 30
0.0
 10
32.5546875
 20
71.220703125
 30
0.0
 10
32.7001953125
 20
71.427734375
 30
0.0
  0
SPLINE
  5
9B
330
3E
100
AcDbEntity
  8
Vordergrund
 62
   250
420
  1709851
370
    50
100
AcDbSpline
210
0.0
220
0.0
230
1.0
 70
     8
 71
     3
 72
    11
 73
     7
 74
     0
 42
0.0000000001
 43
0.0000000001
 40
0.0
 40
0.0
 40
0.0
 40
0.0
 40
1.0
 40
1.0
 40
1.0
 40
2.0
 40
2.0
 40
2.0
 40
2.0
 10
32.7001953125
 20
71.427734375
 30
0.0
 10
32.7705078125
 20
71.6103515625
 30
0.0
 10
32.943359375
 20
71.8017578125
 30
0.0
 10
33.080078125
 20
71.9384765625
 30
0.0
 10
33.6767578125
 20
72.5341796875
 30
0.0
 10
34.44921875
 20
72.828125
 30
0.0
 10
35.2900390625
 20
72.828125
 30
0.0
  0
POLYLINE
  5
9C
330
3E
100
AcDbEntity
  8
Vordergrund
 62
   250
420
  1709851
370
    50
100
AcDb2dPolyline
 66
     1
 10
0.0
 20
0.0
 30
0.0
  0
VERTEX
  5
9D
330
9C
100
AcDbEntity
  8
Vordergrund
 62
   250
420
  1709851
370
    50
100
AcDbVertex
100
AcDb2dVertex
 10
37.419921875
 20
72.828125
 30
0.0
  0
VERTEX
  5
9E
330
9C
100
AcDbEntity
  8
Vordergrund
 62
   250
420
  1709851
370
    50
100
AcDbVertex
100
AcDb2dVertex
 10
35.2900390625
 20
72.828125
 30
0.0
  0
SEQEND
  5
9F
330
9C
100
AcDbEntity
  8
Vordergrund
370
    50
  0
SPLINE
  5
A0
330
3E
100
AcDbEntity
  8
Vordergrund
 62
   250
420
  1709851
370
    50
100
AcDbSpline
210
0.0
220
0.0
230
1.0
 70
     8
 71
     3
 72
     8
 73
     4
 74
     0
 42
0.0000000001
 43
0.0000000001
 40
0.0
 40
0.0
 40
0.0
 40
0.0
 40
1.0
 40
1.0
 40
1.0
 40
1.0
 10
37.419921875
 20
72.828125
 30
0.0
 10
38.4169921875
 20
72.828125
 30
0.0
 10
39.5439453125
 20
72.359375
 30
0.0
 10
40.009765625
 20
71.427734375
 30
0.0
  0
SPLINE
  5
A1
330
3E
100
AcDbEntity
  8
Vordergrund
 62
   250
420
  1709851
370
    50
100
AcDbSpline
210
0.0
220
0.0
230
1.0
 70
     8
 71
     3
 72
     8
 73
     4
 74
     0
 42
0.0000000001
 43
0.0000000001
 40
0.0
 40
0.0
 40
0.0
 40
0.0
 40
1.0
 40
1.0
 40
1.0
 40
1.0
 10
40.25
 20
70.5673828125
 30
0.0
 10
40.25
 20
70.86328125
 30
0.0
 10
40.1611328125
 20
71.173828125
 30
0.0
 10
40.009765625
 20
71.427734375
 30
0.0
  0
POLYLINE
  5
A2
330
3E
100
AcDbEntity
  8
Vordergrund
 62
   250
420
  1709851
370
    50
100
AcDb2dPolyline
 66
     1
 10
0.0
 20
0.0
 30
0.0
  0
VERTEX
  5
A3
330
A2
100
AcDbEntity
  8
Vordergrund
 62
   250
420
  1709851
370
    50
100
AcDbVertex
100
AcDb2dVertex
 10
40.25
 20
70.5673828125
 30
0.0
  0
VERTEX
  5
A4
330
A2
100
AcDbEntity
  8
Vordergrund
 62
   250
420
  1709851
370
    50
100
AcDbVertex
100
AcDb2dVertex
 10
40.25
 20
70.3583984375
 30
0.0
  0
SEQEND
  5
A5
330
A2
100
AcDbEntity
  8
Vordergrund
370
    50
  0
POLYLINE
  5
A6
330
3E
100
AcDbEntity
  8
Vordergrund
 62
   250
420
  1709851
370
    50
100
AcDb2dPolyline
 66
     1
 10
0.0
 20
0.0
 30
0.0
  0
VERTEX
  5
A7
330
A6
100
AcDbEntity
  8
Vordergrund
 62
   250
420
  1709851
370
    50
100
AcDbVertex
100
AcDb2dVertex
 10
32.4599609375
 20
70.5673828125
 30
0.0
  0
VERTEX
  5
A8
330
A6
100
AcDbEntity
  8
Vordergrund
 62
   250
420
  1709851
370
    50
100
AcDbVertex
100
AcDb2dVertex
 10
32.4599609375
 20
70.3583984375
 30
0.0
  0
SEQEND
  5
A9
330
A6
100
AcDbEntity
  8
Vordergrund
370
    50
  0
SPLINE
  5
AA
330
3E
100
AcDbEntity
  8
Vordergrund
 62
   250
420
  1709851
370
    18
100
AcDbSpline
210
0.0
220
0.0
230
1.0
 70
     8
 71
     3
 72
     8
 73
     4
 74
     0
 42
0.0000000001
 43
0.0000000001
 40
0.0
 40
0.0
 40
0.0
 40
0.0
 40
1.0
 40
1.0
 40
1.0
 40
1.0
 10
32.4599609375
 20
70.328125
 30
0.0
 10
32.4287109375
 20
70.5478515625
 30
0.0
 10
32.6083984375
 20
70.9013671875
 30
0.0
 10
32.7001953125
 20
71.09765625
 30
0.0
  0
SPLINE
  5
AB
330
3E
100
AcDbEntity
  8
Vordergrund
 62
   250
420
  1709851
370
    18
100
AcDbSpline
210
0.0
220
0.0
230
1.0
 70
     8
 71
     3
 72
    11
 73
     7
 74
     0
 42
0.0000000001
 43
0.0000000001
 40
0.0
 40
0.0
 40
0.0
 40
0.0
 40
1.0
 40
1.0
 40
1.0
 40
2.0
 40
2.0
 40
2.0
 40
2.0
 10
32.7197265625
 20
71.1376953125
 30
0.0
 10
32.9833984375
 20
71.7158203125
 30
0.0
 10
33.857421875
 20
72.283203125
 30
0.0
 10
34.4697265625
 20
72.3974609375
 30
0.0
 10
34.7470703125
 20
72.4501953125
 30
0.0
 10
35.0166015625
 20
72.4560546875
 30
0.0
 10
35.2900390625
 20
72.498046875
 30
0.0
  0
POLYLINE
  5
AC
330
3E
100
AcDbEntity
  8
Vordergrund
 62
   250
420
  1709851
370
    18
100
AcDb2dPolyline
 66
     1
 10
0.0
 20
0.0
 30
0.0
  0
VERTEX
  5
AD
330
AC
100
AcDbEntity
  8
Vordergrund
 62
   250
420
  1709851
370
    18
100
AcDbVertex
100
AcDb2dVertex
 10
35.2900390625
 20
72.498046875
 30
0.0
  0
VERTEX
  5
AE
330
AC
100
AcDbEntity
  8
Vordergrund
 62
   250
420
  1709851
370
    18
100
AcDbVertex
100
AcDb2dVertex
 10
37.419921875
 20
72.498046875
 30
0.0
  0
SEQEND
  5
AF
330
AC
100
AcDbEntity
  8
Vordergrund
370
    18
  0
SPLINE
  5
B0
330
3E
100
AcDbEntity
  8
Vordergrund
 62
   250
420
  1709851
370
    18
100
AcDbSpline
210
0.0
220
0.0
230
1.0
 70
     8
 71
     3
 72
    11
 73
     7
 74
     0
 42
0.0000000001
 43
0.0000000001
 40
0.0
 40
0.0
 40
0.0
 40
0.0
 40
1.0
 40
1.0
 40
1.0
 40
2.0
 40
2.0
 40
2.0
 40
2.0
 10
37.419921875
 20
72.498046875
 30
0.0
 10
37.6123046875
 20
72.4716796875
 30
0.0
 10
37.806640625
 20
72.4833984375
 30
0.0
 10
38.0
 20
72.4482421875
 30
0.0
 10
38.7353515625
 20
72.3095703125
 30
0.0
 10
39.662109375
 20
71.8564453125
 30
0.0
 10
39.9892578125
 20
71.1376953125
 30
0.0
  0
SPLINE
  5
B1
330
3E
100
AcDbEntity
  8
Vordergrund
 62
   250
420
  1709851
370
    18
100
AcDbSpline
210
0.0
220
0.0
230
1.0
 70
     8
 71
     3
 72
     8
 73
     4
 74
     0
 42
0.0000000001
 43
0.0000000001
 40
0.0
 40
0.0
 40
0.0
 40
0.0
 40
1.0
 40
1.0
 40
1.0
 40
1.0
 10
40.01953125
 20
71.09765625
 30
0.0
 10
40.13671875
 20
70.880859375
 30
0.0
 10
40.25
 20
70.5771484375
 30
0.0
 10
40.25
 20
70.328125
 30
0.0
  0
POLYLINE
  5
B2
330
3E
100
AcDbEntity
  8
Vordergrund
 62
   250
420
  1709851
370
    18
100
AcDb2dPolyline
 66
     1
 10
0.0
 20
0.0
 30
0.0
  0
VERTEX
  5
B3
330
B2
100
AcDbEntity
  8
Vordergrund
 62
   250
420
  1709851
370
    18
100
AcDbVertex
100
AcDb2dVertex
 10
40.25
 20
71.7080078125
 30
0.0
  0
VERTEX
  5
B4
330
B2
100
AcDbEntity
  8
Vordergrund
 62
   250
420
  1709851
370
    18
100
AcDbVertex
100
AcDb2dVertex
 10
40.25
 20
70.5673828125
 30
0.0
  0
SEQEND
  5
B5
330
B2
100
AcDbEntity
  8
Vordergrund
370
    18
  0
POLYLINE
  5
B6
330
3E
100
AcDbEntity
  8
Vordergrund
 62
   250
420
  1709851
370
    18
100
AcDb2dPolyline
 66
     1
 10
0.0
 20
0.0
 30
0.0
  0
VERTEX
  5
B7
330
B6
100
AcDbEntity
  8
Vordergrund
 62
   250
420
  1709851
370
    18
100
AcDbVertex
100
AcDb2dVertex
 10
32.4599609375
 20
71.7080078125
 30
0.0
  0
VERTEX
  5
B8
330
B6
100
AcDbEntity
  8
Vordergrund
 62
   250
420
  1709851
370
    18
100
AcDbVertex
100
AcDb2dVertex
 10
32.4599609375
 20
69.9384765625
 30
0.0
  0
SEQEND
  5
B9
330
B6
100
AcDbEntity
  8
Vordergrund
370
    18
  0
POLYLINE
  5
BA
330
3E
100
AcDbEntity
  8
Vordergrund
 62
   250
420
  1709851
370
    18
100
AcDb2dPolyline
 66
     1
 10
0.0
 20
0.0
 30
0.0
  0
VERTEX
  5
BB
330
BA
100
AcDbEntity
  8
Vordergrund
 62
   250
420
  1709851
370
    18
100
AcDbVertex
100
AcDb2dVertex
 10
32.4599609375
 20
82.1884765625
 30
0.0
  0
VERTEX
  5
BC
330
BA
100
AcDbEntity
  8
Vordergrund
 62
   250
420
  1709851
370
    18
100
AcDbVertex
100
AcDb2dVertex
 10
32.4599609375
 20
71.7080078125
 30
0.0
  0
SEQEND
  5
BD
330
BA
100
AcDbEntity
  8
Vordergrund
370
    18
  0
POLYLINE
  5
BE
330
3E
100
AcDbEntity
  8
Vordergrund
 62
   250
420
  1709851
370
    18
100
AcDb2dPolyline
 66
     1
 10
0.0
 20
0.0
 30
0.0
  0
VERTEX
  5
BF
330
BE
100
AcDbEntity
  8
Vordergrund
 62
   250
420
  1709851
370
    18
100
AcDbVertex
100
AcDb2dVertex
 10
40.25
 20
71.7080078125
 30
0.0
  0
VERTEX
  5
C0
330
BE
100
AcDbEntity
  8
Vordergrund
 62
   250
420
  1709851
370
    18
100
AcDbVertex
100
AcDb2dVertex
 10
40.25
 20
82.087890625
 30
0.0
  0
SEQEND
  5
C1
330
BE
100
AcDbEntity
  8
Vordergrund
370
    18
  0
POLYLINE
  5
C2
330
3E
100
AcDbEntity
  8
Vordergrund
 62
   250
420
  1709851
370
    18
100
AcDb2dPolyline
 66
     1
 10
0.0
 20
0.0
 30
0.0
  0
VERTEX
  5
C3
330
C2
100
AcDbEntity
  8
Vordergrund
 62
   250
420
  1709851
370
    18
100
AcDbVertex
100
AcDb2dVertex
 10
29.3994140625
 20
86.6474609375
 30
0.0
  0
VERTEX
  5
C4
330
C2
100
AcDbEntity
  8
Vordergrund
 62
   250
420
  1709851
370
    18
100
AcDbVertex
100
AcDb2dVertex
 10
29.3896484375
 20
86.7373046875
 30
0.0
  0
SEQEND
  5
C5
330
C2
100
AcDbEntity
  8
Vordergrund
370
    18
  0
POLYLINE
  5
C6
330
3E
100
AcDbEntity
  8
Vordergrund
 62
   250
420
  1709851
370
    18
100
AcDb2dPolyline
 66
     1
 10
0.0
 20
0.0
 30
0.0
  0
VERTEX
  5
C7
330
C6
100
AcDbEntity
  8
Vordergrund
 62
   250
420
  1709851
370
    18
100
AcDbVertex
100
AcDb2dVertex
 10
43.5400390625
 20
86.7373046875
 30
0.0
  0
VERTEX
  5
C8
330
C6
100
AcDbEntity
  8
Vordergrund
 62
   250
420
  1709851
370
    18
100
AcDbVertex
100
AcDb2dVertex
 10
43.5400390625
 20
86.6474609375
 30
0.0
  0
SEQEND
  5
C9
330
C6
100
AcDbEntity
  8
Vordergrund
370
    18
  0
POLYLINE
  5
CA
330
3E
100
AcDbEntity
  8
Vordergrund
 62
   250
420
  1709851
370
    18
100
AcDb2dPolyline
 66
     1
 10
0.0
 20
0.0
 30
0.0
  0
VERTEX
  5
CB
330
CA
100
AcDbEntity
  8
Vordergrund
 62
   250
420
  1709851
370
    18
100
AcDbVertex
100
AcDb2dVertex
 10
37.76953125
 20
71.7080078125
 30
0.0
  0
VERTEX
  5
CC
330
CA
100
AcDbEntity
  8
Vordergrund
 62
   250
420
  1709851
370
    18
100
AcDbVertex
100
AcDb2dVertex
 10
34.939453125
 20
71.7080078125
 30
0.0
  0
SEQEND
  5
CD
330
CA
100
AcDbEntity
  8
Vordergrund
370
    18
  0
POLYLINE
  5
CE
330
3E
100
AcDbEntity
  8
Vordergrund
 62
   250
420
  1709851
370
    18
100
AcDb2dPolyline
 66
     1
 10
0.0
 20
0.0
 30
0.0
  0
VERTEX
  5
CF
330
CE
100
AcDbEntity
  8
Vordergrund
 62
   250
420
  1709851
370
    18
100
AcDbVertex
100
AcDb2dVertex
 10
32.109375
 20
71.7080078125
 30
0.0
  0
VERTEX
  5
D0
330
CE
100
AcDbEntity
  8
Vordergrund
 62
   250
420
  1709851
370
    18
100
AcDbVertex
100
AcDb2dVertex
 10
31.8896484375
 20
71.7080078125
 30
0.0
  0
SEQEND
  5
D1
330
CE
100
AcDbEntity
  8
Vordergrund
370
    18
  0
POLYLINE
  5
D2
330
3E
100
AcDbEntity
  8
Vordergrund
 62
   250
420
  1709851
370
    18
100
AcDb2dPolyline
 66
     1
 10
0.0
 20
0.0
 30
0.0
  0
VERTEX
  5
D3
330
D2
100
AcDbEntity
  8
Vordergrund
 62
   250
420
  1709851
370
    18
100
AcDbVertex
100
AcDb2dVertex
 10
40.609375
 20
71.7080078125
 30
0.0
  0
VERTEX
  5
D4
330
D2
100
AcDbEntity
  8
Vordergrund
 62
   250
420
  1709851
370
    18
100
AcDbVertex
100
AcDb2dVertex
 10
40.8193359375
 20
71.7080078125
 30
0.0
  0
SEQEND
  5
D5
330
D2
100
AcDbEntity
  8
Vordergrund
370
    18
  0
ENDBLK
  5
41
330
3E
100
AcDbEntity
  8
0
100
AcDbBlockEnd
  0
BLOCK
  5
D8
330
D6
100
AcDbEntity
  8
0
100
AcDbBlockBegin
  2
block 3
 70
     0
 71
     0
 10
0.0
 20
0.0
 30
0.0
  3
block 3
  1

  0
POLYLINE
  5
DA
330
D6
100
AcDbEntity
  8
Vordergrund
 62
     7
420
 16777215
370
    18
100
AcDb2dPolyline
 66
     1
 10
0.0
 20
0.0
 30
0.0
  0
VERTEX
  5
DB
330
DA
100
AcDbEntity
  8
Vordergrund
 62
     7
420
 16777215
370
    18
100
AcDbVertex
100
AcDb2dVertex
 10
29.39990234375
 20
194.67724609375
 30
0.0
  0
VERTEX
  5
DC
330
DA
100
AcDbEntity
  8
Vordergrund
 62
     7
420
 16777215
370
    18
100
AcDbVertex
100
AcDb2dVertex
 10
29.39990234375
 20
194.79736328125
 30
0.0
  0
SEQEND
  5
DD
330
DA
100
AcDbEntity
  8
Vordergrund
370
    18
  0
SPLINE
  5
DE
330
D6
100
AcDbEntity
  8
Vordergrund
 62
     7
420
 16777215
370
    18
100
AcDbSpline
210
0.0
220
0.0
230
1.0
 70
     8
 71
     3
 72
     8
 73
     4
 74
     0
 42
0.0000000001
 43
0.0000000001
 40
0.0
 40
0.0
 40
0.0
 40
0.0
 40
1.0
 40
1.0
 40
1.0
 40
1.0
 10
31.52978515625
 20
196.59716796875
 30
0.0
 10
30.42724609375
 20
196.60595703125
 30
0.0
 10
29.43310546875
 20
195.81982421875
 30
0.0
 10
29.39990234375
 20
194.67724609375
 30
0.0
  0
POLYLINE
  5
DF
330
D6
100
AcDbEntity
  8
Vordergrund
 62
     7
420
 16777215
370
    18
100
AcDb2dPolyline
 66
     1
 10
0.0
 20
0.0
 30
0.0
  0
VERTEX
  5
E0
330
DF
100
AcDbEntity
  8
Vordergrund
 62
     7
420
 16777215
370
    18
100
AcDbVertex
100
AcDb2dVertex
 10
31.52978515625
 20
196.59716796875
 30
0.0
  0
VERTEX
  5
E1
330
DF
100
AcDbEntity
  8
Vordergrund
 62
     7
420
 16777215
370
    18
100
AcDbVertex
100
AcDb2dVertex
 10
31.52978515625
 20
196.7470703125
 30
0.0
  0
SEQEND
  5
E2
330
DF
100
AcDbEntity
  8
Vordergrund
370
    18
  0
SPLINE
  5
E3
330
D6
100
AcDbEntity
  8
Vordergrund
 62
     7
420
 16777215
370
    18
100
AcDbSpline
210
0.0
220
0.0
230
1.0
 70
     8
 71
     3
 72
     8
 73
     4
 74
     0
 42
0.0000000001
 43
0.0000000001
 40
0.0
 40
0.0
 40
0.0
 40
0.0
 40
1.0
 40
1.0
 40
1.0
 40
1.0
 10
43.52978515625
 20
194.67724609375
 30
0.0
 10
43.52099609375
 20
195.8193359375
 30
0.0
 10
42.47802734375
 20
196.5830078125
 30
0.0
 10
41.39990234375
 20
196.59716796875
 30
0.0
  0
POLYLINE
  5
E4
330
D6
100
AcDbEntity
  8
Vordergrund
 62
     7
420
 16777215
370
    18
100
AcDb2dPolyline
 66
     1
 10
0.0
 20
0.0
 30
0.0
  0
VERTEX
  5
E5
330
E4
100
AcDbEntity
  8
Vordergrund
 62
     7
420
 16777215
370
    18
100
AcDbVertex
100
AcDb2dVertex
 10
43.52978515625
 20
194.67724609375
 30
0.0
  0
VERTEX
  5
E6
330
E4
100
AcDbEntity
  8
Vordergrund
 62
     7
420
 16777215
370
    18
100
AcDbVertex
100
AcDb2dVertex
 10
43.52978515625
 20
194.79736328125
 30
0.0
  0
SEQEND
  5
E7
330
E4
100
AcDbEntity
  8
Vordergrund
370
    18
  0
POLYLINE
  5
E8
330
D6
100
AcDbEntity
  8
Vordergrund
 62
     7
420
 16777215
370
    18
100
AcDb2dPolyline
 66
     1
 10
0.0
 20
0.0
 30
0.0
  0
VERTEX
  5
E9
330
E8
100
AcDbEntity
  8
Vordergrund
 62
     7
420
 16777215
370
    18
100
AcDbVertex
100
AcDb2dVertex
 10
41.39990234375
 20
196.59716796875
 30
0.0
  0
VERTEX
  5
EA
330
E8
100
AcDbEntity
  8
Vordergrund
 62
     7
420
 16777215
370
    18
100
AcDbVertex
100
AcDb2dVertex
 10
41.39990234375
 20
196.7470703125
 30
0.0
  0
SEQEND
  5
EB
330
E8
100
AcDbEntity
  8
Vordergrund
370
    18
  0
POLYLINE
  5
EC
330
D6
100
AcDbEntity
  8
Vordergrund
 62
     7
420
 16777215
370
    18
100
AcDb2dPolyline
 66
     1
 10
0.0
 20
0.0
 30
0.0
  0
VERTEX
  5
ED
330
EC
100
AcDbEntity
  8
Vordergrund
 62
     7
420
 16777215
370
    18
100
AcDbVertex
100
AcDb2dVertex
 10
29.37060546875
 20
194.37744140625
 30
0.0
  0
VERTEX
  5
EE
330
EC
100
AcDbEntity
  8
Vordergrund
 62
     7
420
 16777215
370
    18
100
AcDbVertex
100
AcDb2dVertex
 10
29.37060546875
 20
195.75732421875
 30
0.0
  0
SEQEND
  5
EF
330
EC
100
AcDbEntity
  8
Vordergrund
370
    18
  0
POLYLINE
  5
F0
330
D6
100
AcDbEntity
  8
Vordergrund
 62
     7
420
 16777215
370
    18
100
AcDb2dPolyline
 66
     1
 10
0.0
 20
0.0
 30
0.0
  0
VERTEX
  5
F1
330
F0
100
AcDbEntity
  8
Vordergrund
 62
     7
420
 16777215
370
    18
100
AcDbVertex
100
AcDb2dVertex
 10
29.39990234375
 20
194.79736328125
 30
0.0
  0
VERTEX
  5
F2
330
F0
100
AcDbEntity
  8
Vordergrund
 62
     7
420
 16777215
370
    18
100
AcDbVertex
100
AcDb2dVertex
 10
29.37060546875
 20
196.14697265625
 30
0.0
  0
SEQEND
  5
F3
330
F0
100
AcDbEntity
  8
Vordergrund
370
    18
  0
POLYLINE
  5
F4
330
D6
100
AcDbEntity
  8
Vordergrund
 62
     7
420
 16777215
370
    18
100
AcDb2dPolyline
 66
     1
 10
0.0
 20
0.0
 30
0.0
  0
VERTEX
  5
F5
330
F4
100
AcDbEntity
  8
Vordergrund
 62
     7
420
 16777215
370
    18
100
AcDbVertex
100
AcDb2dVertex
 10
29.37060546875
 20
191.6171875
 30
0.0
  0
VERTEX
  5
F6
330
F4
100
AcDbEntity
  8
Vordergrund
 62
     7
420
 16777215
370
    18
100
AcDbVertex
100
AcDb2dVertex
 10
29.37060546875
 20
194.31689453125
 30
0.0
  0
VERTEX
  5
F7
330
F4
100
AcDbEntity
  8
Vordergrund
 62
     7
420
 16777215
370
    18
100
AcDbVertex
100
AcDb2dVertex
 10
29.37060546875
 20
194.37744140625
 30
0.0
  0
SEQEND
  5
F8
330
F4
100
AcDbEntity
  8
Vordergrund
370
    18
  0
POLYLINE
  5
F9
330
D6
100
AcDbEntity
  8
Vordergrund
 62
     7
420
 16777215
370
    18
100
AcDb2dPolyline
 66
     1
 10
0.0
 20
0.0
 30
0.0
  0
VERTEX
  5
FA
330
F9
100
AcDbEntity
  8
Vordergrund
 62
     7
420
 16777215
370
    18
100
AcDbVertex
100
AcDb2dVertex
 10
29.39990234375
 20
194.67724609375
 30
0.0
  0
VERTEX
  5
FB
330
F9
100
AcDbEntity
  8
Vordergrund
 62
     7
420
 16777215
370
    18
100
AcDbVertex
100
AcDb2dVertex
 10
29.39990234375
 20
192.037109375
 30
0.0
  0
SEQEND
  5
FC
330
F9
100
AcDbEntity
  8
Vordergrund
370
    18
  0
POLYLINE
  5
FD
330
D6
100
AcDbEntity
  8
Vordergrund
 62
     7
420
 16777215
370
    18
100
AcDb2dPolyline
 66
     1
 10
0.0
 20
0.0
 30
0.0
  0
VERTEX
  5
FE
330
FD
100
AcDbEntity
  8
Vordergrund
 62
     7
420
 16777215
370
    18
100
AcDbVertex
100
AcDb2dVertex
 10
29.39990234375
 20
192.037109375
 30
0.0
  0
VERTEX
  5
FF
330
FD
100
AcDbEntity
  8
Vordergrund
 62
     7
420
 16777215
370
    18
100
AcDbVertex
100
AcDb2dVertex
 10
29.37060546875
 20
191.6171875
 30
0.0
  0
SEQEND
  5
100
330
FD
100
AcDbEntity
  8
Vordergrund
370
    18
  0
SPLINE
  5
101
330
D6
100
AcDbEntity
  8
Vordergrund
 62
     7
420
 16777215
370
    18
100
AcDbSpline
210
0.0
220
0.0
230
1.0
 70
     8
 71
     3
 72
     8
 73
     4
 74
     0
 42
0.0000000001
 43
0.0000000001
 40
0.0
 40
0.0
 40
0.0
 40
0.0
 40
1.0
 40
1.0
 40
1.0
 40
1.0
 10
43.52978515625
 20
192.037109375
 30
0.0
 10
43.52099609375
 20
193.17919921875
 30
0.0
 10
42.47802734375
 20
193.94287109375
 30
0.0
 10
41.39990234375
 20
193.95703125
 30
0.0
  0
POLYLINE
  5
102
330
D6
100
AcDbEntity
  8
Vordergrund
 62
     7
420
 16777215
370
    18
100
AcDb2dPolyline
 66
     1
 10
0.0
 20
0.0
 30
0.0
  0
VERTEX
  5
103
330
102
100
AcDbEntity
  8
Vordergrund
 62
     7
420
 16777215
370
    18
100
AcDbVertex
100
AcDb2dVertex
 10
43.52978515625
 20
194.67724609375
 30
0.0
  0
VERTEX
  5
104
330
102
100
AcDbEntity
  8
Vordergrund
 62
     7
420
 16777215
370
    18
100
AcDbVertex
100
AcDb2dVertex
 10
43.52978515625
 20
192.037109375
 30
0.0
  0
SEQEND
  5
105
330
102
100
AcDbEntity
  8
Vordergrund
370
    18
  0
POLYLINE
  5
106
330
D6
100
AcDbEntity
  8
Vordergrund
 62
     7
420
 16777215
370
    18
100
AcDb2dPolyline
 66
     1
 10
0.0
 20
0.0
 30
0.0
  0
VERTEX
  5
107
330
106
100
AcDbEntity
  8
Vordergrund
 62
     7
420
 16777215
370
    18
100
AcDbVertex
100
AcDb2dVertex
 10
41.39990234375
 20
196.59716796875
 30
0.0
  0
VERTEX
  5
108
330
106
100
AcDbEntity
  8
Vordergrund
 62
     7
420
 16777215
370
    18
100
AcDbVertex
100
AcDb2dVertex
 10
41.39990234375
 20
193.95703125
 30
0.0
  0
SEQEND
  5
109
330
106
100
AcDbEntity
  8
Vordergrund
370
    18
  0
POLYLINE
  5
10A
330
D6
100
AcDbEntity
  8
Vordergrund
 62
     7
420
 16777215
370
    18
100
AcDb2dPolyline
 66
     1
 10
0.0
 20
0.0
 30
0.0
  0
VERTEX
  5
10B
330
10A
100
AcDbEntity
  8
Vordergrund
 62
     7
420
 16777215
370
    18
100
AcDbVertex
100
AcDb2dVertex
 10
43.52978515625
 20
192.037109375
 30
0.0
  0
VERTEX
  5
10C
330
10A
100
AcDbEntity
  8
Vordergrund
 62
     7
420
 16777215
370
    18
100
AcDbVertex
100
AcDb2dVertex
 10
43.52978515625
 20
191.6171875
 30
0.0
  0
SEQEND
  5
10D
330
10A
100
AcDbEntity
  8
Vordergrund
370
    18
  0
POLYLINE
  5
10E
330
D6
100
AcDbEntity
  8
Vordergrund
 62
     7
420
 16777215
370
    18
100
AcDb2dPolyline
 66
     1
 10
0.0
 20
0.0
 30
0.0
  0
VERTEX
  5
10F
330
10E
100
AcDbEntity
  8
Vordergrund
 62
     7
420
 16777215
370
    18
100
AcDbVertex
100
AcDb2dVertex
 10
43.52978515625
 20
194.31689453125
 30
0.0
  0
VERTEX
  5
110
330
10E
100
AcDbEntity
  8
Vordergrund
 62
     7
420
 16777215
370
    18
100
AcDbVertex
100
AcDb2dVertex
 10
43.52978515625
 20
194.37744140625
 30
0.0
  0
SEQEND
  5
111
330
10E
100
AcDbEntity
  8
Vordergrund
370
    18
  0
POLYLINE
  5
112
330
D6
100
AcDbEntity
  8
Vordergrund
 62
     7
420
 16777215
370
    18
100
AcDb2dPolyline
 66
     1
 10
0.0
 20
0.0
 30
0.0
  0
VERTEX
  5
113
330
112
100
AcDbEntity
  8
Vordergrund
 62
     7
420
 16777215
370
    18
100
AcDbVertex
100
AcDb2dVertex
 10
43.52978515625
 20
191.6171875
 30
0.0
  0
VERTEX
  5
114
330
112
100
AcDbEntity
  8
Vordergrund
 62
     7
420
 16777215
370
    18
100
AcDbVertex
100
AcDb2dVertex
 10
43.52978515625
 20
194.31689453125
 30
0.0
  0
SEQEND
  5
115
330
112
100
AcDbEntity
  8
Vordergrund
370
    18
  0
POLYLINE
  5
116
330
D6
100
AcDbEntity
  8
Vordergrund
 62
     7
420
 16777215
370
    18
100
AcDb2dPolyline
 66
     1
 10
0.0
 20
0.0
 30
0.0
  0
VERTEX
  5
117
330
116
100
AcDbEntity
  8
Vordergrund
 62
     7
420
 16777215
370
    18
100
AcDbVertex
100
AcDb2dVertex
 10
43.52978515625
 20
194.79736328125
 30
0.0
  0
VERTEX
  5
118
330
116
100
AcDbEntity
  8
Vordergrund
 62
     7
420
 16777215
370
    18
100
AcDbVertex
100
AcDb2dVertex
 10
43.52978515625
 20
196.14697265625
 30
0.0
  0
SEQEND
  5
119
330
116
100
AcDbEntity
  8
Vordergrund
370
    18
  0
POLYLINE
  5
11A
330
D6
100
AcDbEntity
  8
Vordergrund
 62
     7
420
 16777215
370
    18
100
AcDb2dPolyline
 66
     1
 10
0.0
 20
0.0
 30
0.0
  0
VERTEX
  5
11B
330
11A
100
AcDbEntity
  8
Vordergrund
 62
     7
420
 16777215
370
    18
100
AcDbVertex
100
AcDb2dVertex
 10
43.52978515625
 20
194.37744140625
 30
0.0
  0
VERTEX
  5
11C
330
11A
100
AcDbEntity
  8
Vordergrund
 62
     7
420
 16777215
370
    18
100
AcDbVertex
100
AcDb2dVertex
 10
43.52978515625
 20
195.75732421875
 30
0.0
  0
SEQEND
  5
11D
330
11A
100
AcDbEntity
  8
Vordergrund
370
    18
  0
SPLINE
  5
11E
330
D6
100
AcDbEntity
  8
Vordergrund
 62
     7
420
 16777215
370
    18
100
AcDbSpline
210
0.0
220
0.0
230
1.0
 70
     8
 71
     3
 72
    56
 73
    52
 74
     0
 42
0.0000000001
 43
0.0000000001
 40
0.0
 40
0.0
 40
0.0
 40
0.0
 40
1.0
 40
1.0
 40
1.0
 40
2.0
 40
2.0
 40
2.0
 40
3.0
 40
3.0
 40
3.0
 40
4.0
 40
4.0
 40
4.0
 40
5.0
 40
5.0
 40
5.0
 40
6.0
 40
6.0
 40
6.0
 40
7.0
 40
7.0
 40
7.0
 40
8.0
 40
8.0
 40
8.0
 40
9.0
 40
9.0
 40
9.0
 40
10.0
 40
10.0
 40
10.0
 40
11.0
 40
11.0
 40
11.0
 40
12.0
 40
12.0
 40
12.0
 40
13.0
 40
13.0
 40
13.0
 40
14.0
 40
14.0
 40
14.0
 40
15.0
 40
15.0
 40
15.0
 40
16.0
 40
16.0
 40
16.0
 40
17.0
 40
17.0
 40
17.0
 40
17.0
 10
34.71044921875
 20
190.8671875
 30
0.0
 10
33.41552734375
 20
190.86279296875
 30
0.0
 10
32.00537109375
 20
190.978515625
 30
0.0
 10
30.74951171875
 20
191.287109375
 30
0.0
 10
30.57958984375
 20
191.33203125
 30
0.0
 10
30.41357421875
 20
191.39892578125
 30
0.0
 10
30.23974609375
 20
191.43701171875
 30
0.0
 10
30.23974609375
 20
191.43701171875
 30
0.0
 10
30.12060546875
 20
191.46728515625
 30
0.0
 10
30.12060546875
 20
191.46728515625
 30
0.0
 10
30.12060546875
 20
191.46728515625
 30
0.0
 10
29.93896484375
 20
191.55712890625
 30
0.0
 10
29.93896484375
 20
191.55712890625
 30
0.0
 10
29.93896484375
 20
191.55712890625
 30
0.0
 10
29.88037109375
 20
191.55712890625
 30
0.0
 10
29.88037109375
 20
191.55712890625
 30
0.0
 10
29.88037109375
 20
191.55712890625
 30
0.0
 10
29.81982421875
 20
191.6171875
 30
0.0
 10
29.81982421875
 20
191.6171875
 30
0.0
 10
29.81982421875
 20
191.6171875
 30
0.0
 10
29.75927734375
 20
191.64697265625
 30
0.0
 10
29.75927734375
 20
191.64697265625
 30
0.0
 10
29.75927734375
 20
191.64697265625
 30
0.0
 10
29.66943359375
 20
191.67724609375
 30
0.0
 10
29.66943359375
 20
191.67724609375
 30
0.0
 10
29.66943359375
 20
191.67724609375
 30
0.0
 10
29.60888671875
 20
191.70703125
 30
0.0
 10
29.60888671875
 20
191.70703125
 30
0.0
 10
29.60888671875
 20
191.70703125
 30
0.0
 10
29.57958984375
 20
191.7373046875
 30
0.0
 10
29.57958984375
 20
191.7373046875
 30
0.0
 10
29.57958984375
 20
191.7373046875
 30
0.0
 10
29.55029296875
 20
191.79736328125
 30
0.0
 10
29.55029296875
 20
191.79736328125
 30
0.0
 10
29.55029296875
 20
191.79736328125
 30
0.0
 10
29.48974609375
 20
191.8271484375
 30
0.0
 10
29.48974609375
 20
191.8271484375
 30
0.0
 10
29.48974609375
 20
191.8271484375
 30
0.0
 10
29.46044921875
 20
191.85693359375
 30
0.0
 10
29.46044921875
 20
191.85693359375
 30
0.0
 10
29.46044921875
 20
191.85693359375
 30
0.0
 10
29.46044921875
 20
191.88720703125
 30
0.0
 10
29.46044921875
 20
191.88720703125
 30
0.0
 10
29.46044921875
 20
191.88720703125
 30
0.0
 10
29.42919921875
 20
191.9169921875
 30
0.0
 10
29.42919921875
 20
191.9169921875
 30
0.0
 10
29.42919921875
 20
191.9169921875
 30
0.0
 10
29.39990234375
 20
191.9169921875
 30
0.0
 10
29.39990234375
 20
191.9169921875
 30
0.0
 10
29.39990234375
 20
191.9169921875
 30
0.0
 10
29.39990234375
 20
192.037109375
 30
0.0
 10
29.39990234375
 20
192.037109375
 30
0.0
  0
POLYLINE
  5
11F
330
D6
100
AcDbEntity
  8
Vordergrund
 62
     7
420
 16777215
370
    18
100
AcDb2dPolyline
 66
     1
 10
0.0
 20
0.0
 30
0.0
  0
VERTEX
  5
120
330
11F
100
AcDbEntity
  8
Vordergrund
 62
     7
420
 16777215
370
    18
100
AcDbVertex
100
AcDb2dVertex
 10
34.71044921875
 20
190.8671875
 30
0.0
  0
VERTEX
  5
121
330
11F
100
AcDbEntity
  8
Vordergrund
 62
     7
420
 16777215
370
    18
100
AcDbVertex
100
AcDb2dVertex
 10
34.71044921875
 20
189.697265625
 30
0.0
  0
SEQEND
  5
122
330
11F
100
AcDbEntity
  8
Vordergrund
370
    18
  0
SPLINE
  5
123
330
D6
100
AcDbEntity
  8
Vordergrund
 62
     7
420
 16777215
370
    18
100
AcDbSpline
210
0.0
220
0.0
230
1.0
 70
     8
 71
     3
 72
    29
 73
    25
 74
     0
 42
0.0000000001
 43
0.0000000001
 40
0.0
 40
0.0
 40
0.0
 40
0.0
 40
1.0
 40
1.0
 40
1.0
 40
2.0
 40
2.0
 40
2.0
 40
3.0
 40
3.0
 40
3.0
 40
4.0
 40
4.0
 40
4.0
 40
5.0
 40
5.0
 40
5.0
 40
6.0
 40
6.0
 40
6.0
 40
7.0
 40
7.0
 40
7.0
 40
8.0
 40
8.0
 40
8.0
 40
8.0
 10
29.37060546875
 20
191.6171875
 30
0.0
 10
29.37060546875
 20
191.6171875
 30
0.0
 10
29.37060546875
 20
191.55712890625
 30
0.0
 10
29.37060546875
 20
191.55712890625
 30
0.0
 10
29.37060546875
 20
191.55712890625
 30
0.0
 10
29.39990234375
 20
191.52734375
 30
0.0
 10
29.39990234375
 20
191.52734375
 30
0.0
 10
29.39990234375
 20
191.52734375
 30
0.0
 10
29.39990234375
 20
191.4072265625
 30
0.0
 10
29.39990234375
 20
191.4072265625
 30
0.0
 10
29.39990234375
 20
191.4072265625
 30
0.0
 10
29.42919921875
 20
191.37744140625
 30
0.0
 10
29.42919921875
 20
191.37744140625
 30
0.0
 10
29.42919921875
 20
191.37744140625
 30
0.0
 10
29.42919921875
 20
191.31689453125
 30
0.0
 10
29.42919921875
 20
191.31689453125
 30
0.0
 10
29.49951171875
 20
191.265625
 30
0.0
 10
29.50146484375
 20
191.18359375
 30
0.0
 10
29.57958984375
 20
191.0771484375
 30
0.0
 10
29.75341796875
 20
190.8828125
 30
0.0
 10
30.21630859375
 20
190.54345703125
 30
0.0
 10
30.44970703125
 20
190.47705078125
 30
0.0
 10
31.56787109375
 20
189.8916015625
 30
0.0
 10
33.47021484375
 20
189.6669921875
 30
0.0
 10
34.71044921875
 20
189.697265625
 30
0.0
  0
POLYLINE
  5
124
330
D6
100
AcDbEntity
  8
Vordergrund
 62
     7
420
 16777215
370
    18
100
AcDb2dPolyline
 66
     1
 10
0.0
 20
0.0
 30
0.0
  0
VERTEX
  5
125
330
124
100
AcDbEntity
  8
Vordergrund
 62
     7
420
 16777215
370
    18
100
AcDbVertex
100
AcDb2dVertex
 10
38.24951171875
 20
192.787109375
 30
0.0
  0
VERTEX
  5
126
330
124
100
AcDbEntity
  8
Vordergrund
 62
     7
420
 16777215
370
    18
100
AcDbVertex
100
AcDb2dVertex
 10
38.24951171875
 20
190.8671875
 30
0.0
  0
SEQEND
  5
127
330
124
100
AcDbEntity
  8
Vordergrund
370
    18
  0
SPLINE
  5
128
330
D6
100
AcDbEntity
  8
Vordergrund
 62
     7
420
 16777215
370
    18
100
AcDbSpline
210
0.0
220
0.0
230
1.0
 70
     8
 71
     3
 72
    29
 73
    25
 74
     0
 42
0.0000000001
 43
0.0000000001
 40
0.0
 40
0.0
 40
0.0
 40
0.0
 40
1.0
 40
1.0
 40
1.0
 40
2.0
 40
2.0
 40
2.0
 40
3.0
 40
3.0
 40
3.0
 40
4.0
 40
4.0
 40
4.0
 40
5.0
 40
5.0
 40
5.0
 40
6.0
 40
6.0
 40
6.0
 40
7.0
 40
7.0
 40
7.0
 40
8.0
 40
8.0
 40
8.0
 40
8.0
 10
43.52978515625
 20
192.037109375
 30
0.0
 10
43.52978515625
 20
192.037109375
 30
0.0
 10
43.52978515625
 20
191.97705078125
 30
0.0
 10
43.52978515625
 20
191.97705078125
 30
0.0
 10
43.52978515625
 20
191.97705078125
 30
0.0
 10
43.49951171875
 20
191.947265625
 30
0.0
 10
43.49951171875
 20
191.947265625
 30
0.0
 10
43.49951171875
 20
191.947265625
 30
0.0
 10
43.49951171875
 20
191.9169921875
 30
0.0
 10
43.49951171875
 20
191.9169921875
 30
0.0
 10
43.49951171875
 20
191.9169921875
 30
0.0
 10
43.47021484375
 20
191.88720703125
 30
0.0
 10
43.47021484375
 20
191.88720703125
 30
0.0
 10
43.42529296875
 20
191.8251953125
 30
0.0
 10
43.39404296875
 20
191.74462890625
 30
0.0
 10
43.29052734375
 20
191.70703125
 30
0.0
 10
43.23388671875
 20
191.62939453125
 30
0.0
 10
43.13427734375
 20
191.625
 30
0.0
 10
43.05029296875
 20
191.58740234375
 30
0.0
 10
42.70849609375
 20
191.39453125
 30
0.0
 10
42.92333984375
 20
191.52392578125
 30
0.0
 10
42.56982421875
 20
191.4072265625
 30
0.0
 10
41.24169921875
 20
190.96484375
 30
0.0
 10
39.64013671875
 20
190.8828125
 30
0.0
 10
38.24951171875
 20
190.8671875
 30
0.0
  0
SPLINE
  5
129
330
D6
100
AcDbEntity
  8
Vordergrund
 62
     7
420
 16777215
370
    18
100
AcDbSpline
210
0.0
220
0.0
230
1.0
 70
     8
 71
     3
 72
    59
 73
    55
 74
     0
 42
0.0000000001
 43
0.0000000001
 40
0.0
 40
0.0
 40
0.0
 40
0.0
 40
1.0
 40
1.0
 40
1.0
 40
2.0
 40
2.0
 40
2.0
 40
3.0
 40
3.0
 40
3.0
 40
4.0
 40
4.0
 40
4.0
 40
5.0
 40
5.0
 40
5.0
 40
6.0
 40
6.0
 40
6.0
 40
7.0
 40
7.0
 40
7.0
 40
8.0
 40
8.0
 40
8.0
 40
9.0
 40
9.0
 40
9.0
 40
10.0
 40
10.0
 40
10.0
 40
11.0
 40
11.0
 40
11.0
 40
12.0
 40
12.0
 40
12.0
 40
13.0
 40
13.0
 40
13.0
 40
14.0
 40
14.0
 40
14.0
 40
15.0
 40
15.0
 40
15.0
 40
16.0
 40
16.0
 40
16.0
 40
17.0
 40
17.0
 40
17.0
 40
18.0
 40
18.0
 40
18.0
 40
18.0
 10
41.39990234375
 20
193.95703125
 30
0.0
 10
41.41552734375
 20
193.80859375
 30
0.0
 10
41.35888671875
 20
193.69482421875
 30
0.0
 10
41.24951171875
 20
193.59716796875
 30
0.0
 10
41.12451171875
 20
193.47900390625
 30
0.0
 10
41.14208984375
 20
193.4580078125
 30
0.0
 10
40.97998046875
 20
193.38720703125
 30
0.0
 10
40.97998046875
 20
193.38720703125
 30
0.0
 10
40.91943359375
 20
193.35693359375
 30
0.0
 10
40.91943359375
 20
193.35693359375
 30
0.0
 10
40.91943359375
 20
193.35693359375
 30
0.0
 10
40.89013671875
 20
193.29736328125
 30
0.0
 10
40.89013671875
 20
193.29736328125
 30
0.0
 10
40.89013671875
 20
193.29736328125
 30
0.0
 10
40.80029296875
 20
193.26708984375
 30
0.0
 10
40.80029296875
 20
193.26708984375
 30
0.0
 10
40.80029296875
 20
193.26708984375
 30
0.0
 10
40.73974609375
 20
193.2373046875
 30
0.0
 10
40.73974609375
 20
193.2373046875
 30
0.0
 10
40.73974609375
 20
193.2373046875
 30
0.0
 10
40.71044921875
 20
193.20703125
 30
0.0
 10
40.71044921875
 20
193.20703125
 30
0.0
 10
40.71044921875
 20
193.20703125
 30
0.0
 10
40.64990234375
 20
193.20703125
 30
0.0
 10
40.64990234375
 20
193.20703125
 30
0.0
 10
40.64990234375
 20
193.20703125
 30
0.0
 10
40.62060546875
 20
193.17724609375
 30
0.0
 10
40.62060546875
 20
193.17724609375
 30
0.0
 10
40.62060546875
 20
193.17724609375
 30
0.0
 10
40.58935546875
 20
193.17724609375
 30
0.0
 10
40.58935546875
 20
193.17724609375
 30
0.0
 10
40.58935546875
 20
193.17724609375
 30
0.0
 10
40.47021484375
 20
193.14697265625
 30
0.0
 10
40.47021484375
 20
193.14697265625
 30
0.0
 10
40.47021484375
 20
193.14697265625
 30
0.0
 10
40.38037109375
 20
193.08740234375
 30
0.0
 10
40.38037109375
 20
193.08740234375
 30
0.0
 10
40.38037109375
 20
193.08740234375
 30
0.0
 10
40.29052734375
 20
193.05712890625
 30
0.0
 10
40.29052734375
 20
193.05712890625
 30
0.0
 10
40.29052734375
 20
193.05712890625
 30
0.0
 10
40.22998046875
 20
193.05712890625
 30
0.0
 10
40.22998046875
 20
193.05712890625
 30
0.0
 10
40.22998046875
 20
193.05712890625
 30
0.0
 10
40.10888671875
 20
192.9970703125
 30
0.0
 10
40.10888671875
 20
192.9970703125
 30
0.0
 10
40.10888671875
 20
192.9970703125
 30
0.0
 10
40.05029296875
 20
192.9970703125
 30
0.0
 10
40.05029296875
 20
192.9970703125
 30
0.0
 10
40.05029296875
 20
192.9970703125
 30
0.0
 10
39.81005859375
 20
192.93701171875
 30
0.0
 10
39.81005859375
 20
192.93701171875
 30
0.0
 10
39.27099609375
 20
192.8642578125
 30
0.0
 10
38.81396484375
 20
192.76123046875
 30
0.0
 10
38.24951171875
 20
192.787109375
 30
0.0
  0
POLYLINE
  5
12A
330
D6
100
AcDbEntity
  8
Vordergrund
 62
     7
420
 16777215
370
    18
100
AcDb2dPolyline
 66
     1
 10
0.0
 20
0.0
 30
0.0
  0
VERTEX
  5
12B
330
12A
100
AcDbEntity
  8
Vordergrund
 62
     7
420
 16777215
370
    18
100
AcDbVertex
100
AcDb2dVertex
 10
38.24951171875
 20
189.697265625
 30
0.0
  0
VERTEX
  5
12C
330
12A
100
AcDbEntity
  8
Vordergrund
 62
     7
420
 16777215
370
    18
100
AcDbVertex
100
AcDb2dVertex
 10
34.71044921875
 20
189.697265625
 30
0.0
  0
SEQEND
  5
12D
330
12A
100
AcDbEntity
  8
Vordergrund
370
    18
  0
POLYLINE
  5
12E
330
D6
100
AcDbEntity
  8
Vordergrund
 62
     7
420
 16777215
370
    18
100
AcDb2dPolyline
 66
     1
 10
0.0
 20
0.0
 30
0.0
  0
VERTEX
  5
12F
330
12E
100
AcDbEntity
  8
Vordergrund
 62
     7
420
 16777215
370
    18
100
AcDbVertex
100
AcDb2dVertex
 10
34.71044921875
 20
190.8671875
 30
0.0
  0
VERTEX
  5
130
330
12E
100
AcDbEntity
  8
Vordergrund
 62
     7
420
 16777215
370
    18
100
AcDbVertex
100
AcDb2dVertex
 10
38.24951171875
 20
190.8671875
 30
0.0
  0
SEQEND
  5
131
330
12E
100
AcDbEntity
  8
Vordergrund
370
    18
  0
POLYLINE
  5
132
330
D6
100
AcDbEntity
  8
Vordergrund
 62
     7
420
 16777215
370
    18
100
AcDb2dPolyline
 66
     1
 10
0.0
 20
0.0
 30
0.0
  0
VERTEX
  5
133
330
132
100
AcDbEntity
  8
Vordergrund
 62
     7
420
 16777215
370
    18
100
AcDbVertex
100
AcDb2dVertex
 10
38.24951171875
 20
190.8671875
 30
0.0
  0
VERTEX
  5
134
330
132
100
AcDbEntity
  8
Vordergrund
 62
     7
420
 16777215
370
    18
100
AcDbVertex
100
AcDb2dVertex
 10
38.24951171875
 20
189.697265625
 30
0.0
  0
SEQEND
  5
135
330
132
100
AcDbEntity
  8
Vordergrund
370
    18
  0
POLYLINE
  5
136
330
D6
100
AcDbEntity
  8
Vordergrund
 62
     7
420
 16777215
370
    18
100
AcDb2dPolyline
 66
     1
 10
0.0
 20
0.0
 30
0.0
  0
VERTEX
  5
137
330
136
100
AcDbEntity
  8
Vordergrund
 62
     7
420
 16777215
370
    18
100
AcDbVertex
100
AcDb2dVertex
 10
34.71044921875
 20
192.787109375
 30
0.0
  0
VERTEX
  5
138
330
136
100
AcDbEntity
  8
Vordergrund
 62
     7
420
 16777215
370
    18
100
AcDbVertex
100
AcDb2dVertex
 10
34.71044921875
 20
190.8671875
 30
0.0
  0
SEQEND
  5
139
330
136
100
AcDbEntity
  8
Vordergrund
370
    18
  0
POLYLINE
  5
13A
330
D6
100
AcDbEntity
  8
Vordergrund
 62
     7
420
 16777215
370
    18
100
AcDb2dPolyline
 66
     1
 10
0.0
 20
0.0
 30
0.0
  0
VERTEX
  5
13B
330
13A
100
AcDbEntity
  8
Vordergrund
 62
     7
420
 16777215
370
    18
100
AcDbVertex
100
AcDb2dVertex
 10
34.71044921875
 20
192.787109375
 30
0.0
  0
VERTEX
  5
13C
330
13A
100
AcDbEntity
  8
Vordergrund
 62
     7
420
 16777215
370
    18
100
AcDbVertex
100
AcDb2dVertex
 10
38.24951171875
 20
192.787109375
 30
0.0
  0
SEQEND
  5
13D
330
13A
100
AcDbEntity
  8
Vordergrund
370
    18
  0
SPLINE
  5
13E
330
D6
100
AcDbEntity
  8
Vordergrund
 62
     7
420
 16777215
370
    18
100
AcDbSpline
210
0.0
220
0.0
230
1.0
 70
     8
 71
     3
 72
    35
 73
    31
 74
     0
 42
0.0000000001
 43
0.0000000001
 40
0.0
 40
0.0
 40
0.0
 40
0.0
 40
1.0
 40
1.0
 40
1.0
 40
2.0
 40
2.0
 40
2.0
 40
3.0
 40
3.0
 40
3.0
 40
4.0
 40
4.0
 40
4.0
 40
5.0
 40
5.0
 40
5.0
 40
6.0
 40
6.0
 40
6.0
 40
7.0
 40
7.0
 40
7.0
 40
8.0
 40
8.0
 40
8.0
 40
9.0
 40
9.0
 40
9.0
 40
10.0
 40
10.0
 40
10.0
 40
10.0
 10
38.24951171875
 20
189.697265625
 30
0.0
 10
39.12060546875
 20
189.666015625
 30
0.0
 10
39.97802734375
 20
189.7958984375
 30
0.0
 10
40.82958984375
 20
189.9365234375
 30
0.0
 10
41.08544921875
 20
189.951171875
 30
0.0
 10
41.39599609375
 20
190.0966796875
 30
0.0
 10
41.66943359375
 20
190.1474609375
 30
0.0
 10
42.03662109375
 20
190.21484375
 30
0.0
 10
42.02294921875
 20
190.330078125
 30
0.0
 10
42.35888671875
 20
190.3876953125
 30
0.0
 10
42.67138671875
 20
190.57763671875
 30
0.0
 10
43.03466796875
 20
190.72119140625
 30
0.0
 10
43.25927734375
 20
191.01708984375
 30
0.0
 10
43.37451171875
 20
191.12646484375
 30
0.0
 10
43.35107421875
 20
191.10791015625
 30
0.0
 10
43.43896484375
 20
191.22705078125
 30
0.0
 10
43.43896484375
 20
191.22705078125
 30
0.0
 10
43.47021484375
 20
191.287109375
 30
0.0
 10
43.47021484375
 20
191.287109375
 30
0.0
 10
43.47021484375
 20
191.287109375
 30
0.0
 10
43.47021484375
 20
191.34716796875
 30
0.0
 10
43.47021484375
 20
191.34716796875
 30
0.0
 10
43.47021484375
 20
191.34716796875
 30
0.0
 10
43.49951171875
 20
191.4072265625
 30
0.0
 10
43.49951171875
 20
191.4072265625
 30
0.0
 10
43.49951171875
 20
191.4072265625
 30
0.0
 10
43.52978515625
 20
191.43701171875
 30
0.0
 10
43.52978515625
 20
191.43701171875
 30
0.0
 10
43.52978515625
 20
191.43701171875
 30
0.0
 10
43.52978515625
 20
191.6171875
 30
0.0
 10
43.52978515625
 20
191.6171875
 30
0.0
  0
POLYLINE
  5
13F
330
D6
100
AcDbEntity
  8
Vordergrund
 62
     7
420
 16777215
370
    18
100
AcDb2dPolyline
 66
     1
 10
0.0
 20
0.0
 30
0.0
  0
VERTEX
  5
140
330
13F
100
AcDbEntity
  8
Vordergrund
 62
     7
420
 16777215
370
    18
100
AcDbVertex
100
AcDb2dVertex
 10
38.24951171875
 20
189.3369140625
 30
0.0
  0
VERTEX
  5
141
330
13F
100
AcDbEntity
  8
Vordergrund
 62
     7
420
 16777215
370
    18
100
AcDbVertex
100
AcDb2dVertex
 10
38.24951171875
 20
189.697265625
 30
0.0
  0
SEQEND
  5
142
330
13F
100
AcDbEntity
  8
Vordergrund
370
    18
  0
POLYLINE
  5
143
330
D6
100
AcDbEntity
  8
Vordergrund
 62
     7
420
 16777215
370
    18
100
AcDb2dPolyline
 66
     1
 10
0.0
 20
0.0
 30
0.0
  0
VERTEX
  5
144
330
143
100
AcDbEntity
  8
Vordergrund
 62
     7
420
 16777215
370
    18
100
AcDbVertex
100
AcDb2dVertex
 10
34.71044921875
 20
189.3369140625
 30
0.0
  0
VERTEX
  5
145
330
143
100
AcDbEntity
  8
Vordergrund
 62
     7
420
 16777215
370
    18
100
AcDbVertex
100
AcDb2dVertex
 10
34.71044921875
 20
189.697265625
 30
0.0
  0
SEQEND
  5
146
330
143
100
AcDbEntity
  8
Vordergrund
370
    18
  0
SPLINE
  5
147
330
D6
100
AcDbEntity
  8
Vordergrund
 62
     7
420
 16777215
370
    18
100
AcDbSpline
210
0.0
220
0.0
230
1.0
 70
     8
 71
     3
 72
     8
 73
     4
 74
     0
 42
0.0000000001
 43
0.0000000001
 40
0.0
 40
0.0
 40
0.0
 40
0.0
 40
1.0
 40
1.0
 40
1.0
 40
1.0
 10
31.52978515625
 20
193.95703125
 30
0.0
 10
30.38037109375
 20
193.90869140625
 30
0.0
 10
29.47412109375
 20
193.23388671875
 30
0.0
 10
29.39990234375
 20
192.037109375
 30
0.0
  0
SPLINE
  5
148
330
D6
100
AcDbEntity
  8
Vordergrund
 62
     7
420
 16777215
370
    18
100
AcDbSpline
210
0.0
220
0.0
230
1.0
 70
     8
 71
     3
 72
    32
 73
    28
 74
     0
 42
0.0000000001
 43
0.0000000001
 40
0.0
 40
0.0
 40
0.0
 40
0.0
 40
1.0
 40
1.0
 40
1.0
 40
2.0
 40
2.0
 40
2.0
 40
3.0
 40
3.0
 40
3.0
 40
4.0
 40
4.0
 40
4.0
 40
5.0
 40
5.0
 40
5.0
 40
6.0
 40
6.0
 40
6.0
 40
7.0
 40
7.0
 40
7.0
 40
8.0
 40
8.0
 40
8.0
 40
9.0
 40
9.0
 40
9.0
 40
9.0
 10
34.71044921875
 20
192.787109375
 30
0.0
 10
33.84130859375
 20
192.78466796875
 30
0.0
 10
32.94482421875
 20
192.90966796875
 30
0.0
 10
32.15966796875
 20
193.2373046875
 30
0.0
 10
31.98193359375
 20
193.38623046875
 30
0.0
 10
32.05810546875
 20
193.27099609375
 30
0.0
 10
31.89013671875
 20
193.38720703125
 30
0.0
 10
31.76904296875
 20
193.53466796875
 30
0.0
 10
31.72998046875
 20
193.46337890625
 30
0.0
 10
31.67919921875
 20
193.59716796875
 30
0.0
 10
31.67919921875
 20
193.59716796875
 30
0.0
 10
31.62060546875
 20
193.6572265625
 30
0.0
 10
31.62060546875
 20
193.6572265625
 30
0.0
 10
31.62060546875
 20
193.6572265625
 30
0.0
 10
31.62060546875
 20
193.68701171875
 30
0.0
 10
31.62060546875
 20
193.68701171875
 30
0.0
 10
31.62060546875
 20
193.68701171875
 30
0.0
 10
31.56005859375
 20
193.7470703125
 30
0.0
 10
31.56005859375
 20
193.7470703125
 30
0.0
 10
31.56005859375
 20
193.7470703125
 30
0.0
 10
31.56005859375
 20
193.77734375
 30
0.0
 10
31.56005859375
 20
193.77734375
 30
0.0
 10
31.56005859375
 20
193.77734375
 30
0.0
 10
31.52978515625
 20
193.80712890625
 30
0.0
 10
31.52978515625
 20
193.80712890625
 30
0.0
 10
31.52978515625
 20
193.80712890625
 30
0.0
 10
31.52978515625
 20
193.95703125
 30
0.0
 10
31.52978515625
 20
193.95703125
 30
0.0
  0
POLYLINE
  5
149
330
D6
100
AcDbEntity
  8
Vordergrund
 62
     7
420
 16777215
370
    18
100
AcDb2dPolyline
 66
     1
 10
0.0
 20
0.0
 30
0.0
  0
VERTEX
  5
14A
330
149
100
AcDbEntity
  8
Vordergrund
 62
     7
420
 16777215
370
    18
100
AcDbVertex
100
AcDb2dVertex
 10
43.52978515625
 20
193.89697265625
 30
0.0
  0
VERTEX
  5
14B
330
149
100
AcDbEntity
  8
Vordergrund
 62
     7
420
 16777215
370
    18
100
AcDbVertex
100
AcDb2dVertex
 10
43.52978515625
 20
193.92724609375
 30
0.0
  0
SEQEND
  5
14C
330
149
100
AcDbEntity
  8
Vordergrund
370
    18
  0
POLYLINE
  5
14D
330
D6
100
AcDbEntity
  8
Vordergrund
 62
     7
420
 16777215
370
    18
100
AcDb2dPolyline
 66
     1
 10
0.0
 20
0.0
 30
0.0
  0
VERTEX
  5
14E
330
14D
100
AcDbEntity
  8
Vordergrund
 62
     7
420
 16777215
370
    18
100
AcDbVertex
100
AcDb2dVertex
 10
29.37060546875
 20
193.92724609375
 30
0.0
  0
VERTEX
  5
14F
330
14D
100
AcDbEntity
  8
Vordergrund
 62
     7
420
 16777215
370
    18
100
AcDbVertex
100
AcDb2dVertex
 10
29.37060546875
 20
193.89697265625
 30
0.0
  0
SEQEND
  5
150
330
14D
100
AcDbEntity
  8
Vordergrund
370
    18
  0
POLYLINE
  5
151
330
D6
100
AcDbEntity
  8
Vordergrund
 62
     7
420
 16777215
370
    18
100
AcDb2dPolyline
 66
     1
 10
0.0
 20
0.0
 30
0.0
  0
VERTEX
  5
152
330
151
100
AcDbEntity
  8
Vordergrund
 62
     7
420
 16777215
370
    18
100
AcDbVertex
100
AcDb2dVertex
 10
31.52978515625
 20
196.59716796875
 30
0.0
  0
VERTEX
  5
153
330
151
100
AcDbEntity
  8
Vordergrund
 62
     7
420
 16777215
370
    18
100
AcDbVertex
100
AcDb2dVertex
 10
31.52978515625
 20
193.95703125
 30
0.0
  0
SEQEND
  5
154
330
151
100
AcDbEntity
  8
Vordergrund
370
    18
  0
POLYLINE
  5
155
330
D6
100
AcDbEntity
  8
Vordergrund
 62
     7
420
 16777215
370
    18
100
AcDb2dPolyline
 66
     1
 10
0.0
 20
0.0
 30
0.0
  0
VERTEX
  5
156
330
155
100
AcDbEntity
  8
Vordergrund
 62
     7
420
 16777215
370
    18
100
AcDbVertex
100
AcDb2dVertex
 10
41.39990234375
 20
196.59716796875
 30
0.0
  0
VERTEX
  5
157
330
155
100
AcDbEntity
  8
Vordergrund
 62
     7
420
 16777215
370
    18
100
AcDbVertex
100
AcDb2dVertex
 10
31.52978515625
 20
196.59716796875
 30
0.0
  0
SEQEND
  5
158
330
155
100
AcDbEntity
  8
Vordergrund
370
    18
  0
SPLINE
  5
159
330
D6
100
AcDbEntity
  8
Vordergrund
 62
     7
420
 16777215
370
    18
100
AcDbSpline
210
0.0
220
0.0
230
1.0
 70
     8
 71
     3
 72
    38
 73
    34
 74
     0
 42
0.0000000001
 43
0.0000000001
 40
0.0
 40
0.0
 40
0.0
 40
0.0
 40
1.0
 40
1.0
 40
1.0
 40
2.0
 40
2.0
 40
2.0
 40
3.0
 40
3.0
 40
3.0
 40
4.0
 40
4.0
 40
4.0
 40
5.0
 40
5.0
 40
5.0
 40
6.0
 40
6.0
 40
6.0
 40
7.0
 40
7.0
 40
7.0
 40
8.0
 40
8.0
 40
8.0
 40
9.0
 40
9.0
 40
9.0
 40
10.0
 40
10.0
 40
10.0
 40
11.0
 40
11.0
 40
11.0
 40
11.0
 10
30.56982421875
 20
197.97705078125
 30
0.0
 10
30.56982421875
 20
197.97705078125
 30
0.0
 10
30.56982421875
 20
197.9169921875
 30
0.0
 10
30.56982421875
 20
197.9169921875
 30
0.0
 10
30.56982421875
 20
197.9169921875
 30
0.0
 10
30.59912109375
 20
197.9169921875
 30
0.0
 10
30.59912109375
 20
197.9169921875
 30
0.0
 10
30.59912109375
 20
197.9169921875
 30
0.0
 10
30.59912109375
 20
197.88720703125
 30
0.0
 10
30.59912109375
 20
197.88720703125
 30
0.0
 10
30.59912109375
 20
197.88720703125
 30
0.0
 10
30.63037109375
 20
197.88720703125
 30
0.0
 10
30.63037109375
 20
197.88720703125
 30
0.0
 10
30.63037109375
 20
197.88720703125
 30
0.0
 10
30.63037109375
 20
197.85693359375
 30
0.0
 10
30.63037109375
 20
197.85693359375
 30
0.0
 10
30.63037109375
 20
197.85693359375
 30
0.0
 10
30.65966796875
 20
197.85693359375
 30
0.0
 10
30.65966796875
 20
197.85693359375
 30
0.0
 10
30.65966796875
 20
197.85693359375
 30
0.0
 10
30.68896484375
 20
197.8271484375
 30
0.0
 10
30.68896484375
 20
197.8271484375
 30
0.0
 10
30.68896484375
 20
197.8271484375
 30
0.0
 10
30.72021484375
 20
197.8271484375
 30
0.0
 10
30.72021484375
 20
197.8271484375
 30
0.0
 10
30.72021484375
 20
197.8271484375
 30
0.0
 10
30.77978515625
 20
197.79736328125
 30
0.0
 10
30.77978515625
 20
197.79736328125
 30
0.0
 10
30.77978515625
 20
197.79736328125
 30
0.0
 10
30.87060546875
 20
197.76708984375
 30
0.0
 10
30.87060546875
 20
197.76708984375
 30
0.0
 10
31.20263671875
 20
197.56689453125
 30
0.0
 10
31.19775390625
 20
197.64892578125
 30
0.0
 10
31.49951171875
 20
197.46728515625
 30
0.0
  0
POLYLINE
  5
15A
330
D6
100
AcDbEntity
  8
Vordergrund
 62
     7
420
 16777215
370
    18
100
AcDb2dPolyline
 66
     1
 10
0.0
 20
0.0
 30
0.0
  0
VERTEX
  5
15B
330
15A
100
AcDbEntity
  8
Vordergrund
 62
     7
420
 16777215
370
    18
100
AcDbVertex
100
AcDb2dVertex
 10
30.56982421875
 20
197.97705078125
 30
0.0
  0
VERTEX
  5
15C
330
15A
100
AcDbEntity
  8
Vordergrund
 62
     7
420
 16777215
370
    18
100
AcDbVertex
100
AcDb2dVertex
 10
30.56982421875
 20
198.00732421875
 30
0.0
  0
SEQEND
  5
15D
330
15A
100
AcDbEntity
  8
Vordergrund
370
    18
  0
POLYLINE
  5
15E
330
D6
100
AcDbEntity
  8
Vordergrund
 62
     7
420
 16777215
370
    18
100
AcDb2dPolyline
 66
     1
 10
0.0
 20
0.0
 30
0.0
  0
VERTEX
  5
15F
330
15E
100
AcDbEntity
  8
Vordergrund
 62
     7
420
 16777215
370
    18
100
AcDbVertex
100
AcDb2dVertex
 10
31.52978515625
 20
196.7470703125
 30
0.0
  0
VERTEX
  5
160
330
15E
100
AcDbEntity
  8
Vordergrund
 62
     7
420
 16777215
370
    18
100
AcDbVertex
100
AcDb2dVertex
 10
31.49951171875
 20
197.46728515625
 30
0.0
  0
SEQEND
  5
161
330
15E
100
AcDbEntity
  8
Vordergrund
370
    18
  0
POLYLINE
  5
162
330
D6
100
AcDbEntity
  8
Vordergrund
 62
     7
420
 16777215
370
    18
100
AcDb2dPolyline
 66
     1
 10
0.0
 20
0.0
 30
0.0
  0
VERTEX
  5
163
330
162
100
AcDbEntity
  8
Vordergrund
 62
     7
420
 16777215
370
    18
100
AcDbVertex
100
AcDb2dVertex
 10
41.39990234375
 20
196.7470703125
 30
0.0
  0
VERTEX
  5
164
330
162
100
AcDbEntity
  8
Vordergrund
 62
     7
420
 16777215
370
    18
100
AcDbVertex
100
AcDb2dVertex
 10
41.39990234375
 20
197.46728515625
 30
0.0
  0
SEQEND
  5
165
330
162
100
AcDbEntity
  8
Vordergrund
370
    18
  0
POLYLINE
  5
166
330
D6
100
AcDbEntity
  8
Vordergrund
 62
     7
420
 16777215
370
    18
100
AcDb2dPolyline
 66
     1
 10
0.0
 20
0.0
 30
0.0
  0
VERTEX
  5
167
330
166
100
AcDbEntity
  8
Vordergrund
 62
     7
420
 16777215
370
    18
100
AcDbVertex
100
AcDb2dVertex
 10
42.35888671875
 20
197.97705078125
 30
0.0
  0
VERTEX
  5
168
330
166
100
AcDbEntity
  8
Vordergrund
 62
     7
420
 16777215
370
    18
100
AcDbVertex
100
AcDb2dVertex
 10
42.35888671875
 20
198.00732421875
 30
0.0
  0
SEQEND
  5
169
330
166
100
AcDbEntity
  8
Vordergrund
370
    18
  0
SPLINE
  5
16A
330
D6
100
AcDbEntity
  8
Vordergrund
 62
     7
420
 16777215
370
    18
100
AcDbSpline
210
0.0
220
0.0
230
1.0
 70
     8
 71
     3
 72
    29
 73
    25
 74
     0
 42
0.0000000001
 43
0.0000000001
 40
0.0
 40
0.0
 40
0.0
 40
0.0
 40
1.0
 40
1.0
 40
1.0
 40
2.0
 40
2.0
 40
2.0
 40
3.0
 40
3.0
 40
3.0
 40
4.0
 40
4.0
 40
4.0
 40
5.0
 40
5.0
 40
5.0
 40
6.0
 40
6.0
 40
6.0
 40
7.0
 40
7.0
 40
7.0
 40
8.0
 40
8.0
 40
8.0
 40
8.0
 10
42.35888671875
 20
197.97705078125
 30
0.0
 10
42.35888671875
 20
197.97705078125
 30
0.0
 10
42.35888671875
 20
197.9169921875
 30
0.0
 10
42.35888671875
 20
197.9169921875
 30
0.0
 10
42.35888671875
 20
197.9169921875
 30
0.0
 10
42.32958984375
 20
197.9169921875
 30
0.0
 10
42.32958984375
 20
197.9169921875
 30
0.0
 10
42.32958984375
 20
197.9169921875
 30
0.0
 10
42.30029296875
 20
197.88720703125
 30
0.0
 10
42.30029296875
 20
197.88720703125
 30
0.0
 10
42.30029296875
 20
197.88720703125
 30
0.0
 10
42.26904296875
 20
197.85693359375
 30
0.0
 10
42.26904296875
 20
197.85693359375
 30
0.0
 10
42.26904296875
 20
197.85693359375
 30
0.0
 10
42.23974609375
 20
197.8271484375
 30
0.0
 10
42.23974609375
 20
197.8271484375
 30
0.0
 10
42.23974609375
 20
197.8271484375
 30
0.0
 10
42.17919921875
 20
197.8271484375
 30
0.0
 10
42.17919921875
 20
197.8271484375
 30
0.0
 10
42.17919921875
 20
197.8271484375
 30
0.0
 10
42.14990234375
 20
197.79736328125
 30
0.0
 10
42.14990234375
 20
197.79736328125
 30
0.0
 10
41.89404296875
 20
197.7001953125
 30
0.0
 10
41.64990234375
 20
197.57958984375
 30
0.0
 10
41.39990234375
 20
197.46728515625
 30
0.0
  0
SPLINE
  5
16B
330
D6
100
AcDbEntity
  8
Vordergrund
 62
     7
420
 16777215
370
    18
100
AcDbSpline
210
0.0
220
0.0
230
1.0
 70
     8
 71
     3
 72
     8
 73
     4
 74
     0
 42
0.0000000001
 43
0.0000000001
 40
0.0
 40
0.0
 40
0.0
 40
0.0
 40
1.0
 40
1.0
 40
1.0
 40
1.0
 10
37.52978515625
 20
197.10693359375
 30
0.0
 10
38.82568359375
 20
197.12646484375
 30
0.0
 10
40.12255859375
 20
197.24169921875
 30
0.0
 10
41.39990234375
 20
197.46728515625
 30
0.0
  0
POLYLINE
  5
16C
330
D6
100
AcDbEntity
  8
Vordergrund
 62
     7
420
 16777215
370
    18
100
AcDb2dPolyline
 66
     1
 10
0.0
 20
0.0
 30
0.0
  0
VERTEX
  5
16D
330
16C
100
AcDbEntity
  8
Vordergrund
 62
     7
420
 16777215
370
    18
100
AcDbVertex
100
AcDb2dVertex
 10
35.39990234375
 20
197.10693359375
 30
0.0
  0
VERTEX
  5
16E
330
16C
100
AcDbEntity
  8
Vordergrund
 62
     7
420
 16777215
370
    18
100
AcDbVertex
100
AcDb2dVertex
 10
37.52978515625
 20
197.10693359375
 30
0.0
  0
SEQEND
  5
16F
330
16C
100
AcDbEntity
  8
Vordergrund
370
    18
  0
SPLINE
  5
170
330
D6
100
AcDbEntity
  8
Vordergrund
 62
     7
420
 16777215
370
    18
100
AcDbSpline
210
0.0
220
0.0
230
1.0
 70
     8
 71
     3
 72
     8
 73
     4
 74
     0
 42
0.0000000001
 43
0.0000000001
 40
0.0
 40
0.0
 40
0.0
 40
0.0
 40
1.0
 40
1.0
 40
1.0
 40
1.0
 10
31.49951171875
 20
197.46728515625
 30
0.0
 10
32.78662109375
 20
197.2451171875
 30
0.0
 10
34.09326171875
 20
197.123046875
 30
0.0
 10
35.39990234375
 20
197.10693359375
 30
0.0
  0
SPLINE
  5
171
330
D6
100
AcDbEntity
  8
Vordergrund
 62
     7
420
 16777215
370
    18
100
AcDbSpline
210
0.0
220
0.0
230
1.0
 70
     8
 71
     3
 72
     8
 73
     4
 74
     0
 42
0.0000000001
 43
0.0000000001
 40
0.0
 40
0.0
 40
0.0
 40
0.0
 40
1.0
 40
1.0
 40
1.0
 40
1.0
 10
31.49951171875
 20
197.46728515625
 30
0.0
 10
32.73974609375
 20
197.85009765625
 30
0.0
 10
33.48583984375
 20
199.6552734375
 30
0.0
 10
33.65966796875
 20
200.8271484375
 30
0.0
  0
SPLINE
  5
172
330
D6
100
AcDbEntity
  8
Vordergrund
 62
     7
420
 16777215
370
    18
100
AcDbSpline
210
0.0
220
0.0
230
1.0
 70
     8
 71
     3
 72
    26
 73
    22
 74
     0
 42
0.0000000001
 43
0.0000000001
 40
0.0
 40
0.0
 40
0.0
 40
0.0
 40
1.0
 40
1.0
 40
1.0
 40
2.0
 40
2.0
 40
2.0
 40
3.0
 40
3.0
 40
3.0
 40
4.0
 40
4.0
 40
4.0
 40
5.0
 40
5.0
 40
5.0
 40
6.0
 40
6.0
 40
6.0
 40
7.0
 40
7.0
 40
7.0
 40
7.0
 10
35.39990234375
 20
200.4072265625
 30
0.0
 10
35.27978515625
 20
200.4072265625
 30
0.0
 10
35.15966796875
 20
200.4072265625
 30
0.0
 10
35.04052734375
 20
200.4072265625
 30
0.0
 10
35.04052734375
 20
200.4072265625
 30
0.0
 10
34.97998046875
 20
200.43701171875
 30
0.0
 10
34.97998046875
 20
200.43701171875
 30
0.0
 10
34.97998046875
 20
200.43701171875
 30
0.0
 10
34.89013671875
 20
200.43701171875
 30
0.0
 10
34.89013671875
 20
200.43701171875
 30
0.0
 10
34.89013671875
 20
200.43701171875
 30
0.0
 10
34.76904296875
 20
200.46728515625
 30
0.0
 10
34.76904296875
 20
200.46728515625
 30
0.0
 10
34.76904296875
 20
200.46728515625
 30
0.0
 10
34.67919921875
 20
200.46728515625
 30
0.0
 10
34.67919921875
 20
200.46728515625
 30
0.0
 10
34.67919921875
 20
200.46728515625
 30
0.0
 10
34.56005859375
 20
200.4970703125
 30
0.0
 10
34.56005859375
 20
200.4970703125
 30
0.0
 10
34.33935546875
 20
200.5576171875
 30
0.0
 10
33.83740234375
 20
200.67431640625
 30
0.0
 10
33.65966796875
 20
200.8271484375
 30
0.0
  0
POLYLINE
  5
173
330
D6
100
AcDbEntity
  8
Vordergrund
 62
     7
420
 16777215
370
    18
100
AcDb2dPolyline
 66
     1
 10
0.0
 20
0.0
 30
0.0
  0
VERTEX
  5
174
330
173
100
AcDbEntity
  8
Vordergrund
 62
     7
420
 16777215
370
    18
100
AcDbVertex
100
AcDb2dVertex
 10
35.39990234375
 20
200.4072265625
 30
0.0
  0
VERTEX
  5
175
330
173
100
AcDbEntity
  8
Vordergrund
 62
     7
420
 16777215
370
    18
100
AcDbVertex
100
AcDb2dVertex
 10
35.39990234375
 20
197.10693359375
 30
0.0
  0
SEQEND
  5
176
330
173
100
AcDbEntity
  8
Vordergrund
370
    18
  0
POLYLINE
  5
177
330
D6
100
AcDbEntity
  8
Vordergrund
 62
     7
420
 16777215
370
    18
100
AcDb2dPolyline
 66
     1
 10
0.0
 20
0.0
 30
0.0
  0
VERTEX
  5
178
330
177
100
AcDbEntity
  8
Vordergrund
 62
     7
420
 16777215
370
    18
100
AcDbVertex
100
AcDb2dVertex
 10
37.52978515625
 20
200.4072265625
 30
0.0
  0
VERTEX
  5
179
330
177
100
AcDbEntity
  8
Vordergrund
 62
     7
420
 16777215
370
    18
100
AcDbVertex
100
AcDb2dVertex
 10
37.52978515625
 20
197.10693359375
 30
0.0
  0
SEQEND
  5
17A
330
177
100
AcDbEntity
  8
Vordergrund
370
    18
  0
SPLINE
  5
17B
330
D6
100
AcDbEntity
  8
Vordergrund
 62
     7
420
 16777215
370
    18
100
AcDbSpline
210
0.0
220
0.0
230
1.0
 70
     8
 71
     3
 72
     8
 73
     4
 74
     0
 42
0.0000000001
 43
0.0000000001
 40
0.0
 40
0.0
 40
0.0
 40
0.0
 40
1.0
 40
1.0
 40
1.0
 40
1.0
 10
39.26904296875
 20
200.8271484375
 30
0.0
 10
38.86279296875
 20
200.57861328125
 30
0.0
 10
38.00927734375
 20
200.37841796875
 30
0.0
 10
37.52978515625
 20
200.4072265625
 30
0.0
  0
SPLINE
  5
17C
330
D6
100
AcDbEntity
  8
Vordergrund
 62
     7
420
 16777215
370
    18
100
AcDbSpline
210
0.0
220
0.0
230
1.0
 70
     8
 71
     3
 72
     8
 73
     4
 74
     0
 42
0.0000000001
 43
0.0000000001
 40
0.0
 40
0.0
 40
0.0
 40
0.0
 40
1.0
 40
1.0
 40
1.0
 40
1.0
 10
39.26904296875
 20
200.8271484375
 30
0.0
 10
39.40185546875
 20
199.64208984375
 30
0.0
 10
40.19287109375
 20
197.88525390625
 30
0.0
 10
41.39990234375
 20
197.46728515625
 30
0.0
  0
SPLINE
  5
17D
330
D6
100
AcDbEntity
  8
Vordergrund
 62
     7
420
 16777215
370
    18
100
AcDbSpline
210
0.0
220
0.0
230
1.0
 70
     8
 71
     3
 72
    50
 73
    46
 74
     0
 42
0.0000000001
 43
0.0000000001
 40
0.0
 40
0.0
 40
0.0
 40
0.0
 40
1.0
 40
1.0
 40
1.0
 40
2.0
 40
2.0
 40
2.0
 40
3.0
 40
3.0
 40
3.0
 40
4.0
 40
4.0
 40
4.0
 40
5.0
 40
5.0
 40
5.0
 40
6.0
 40
6.0
 40
6.0
 40
7.0
 40
7.0
 40
7.0
 40
8.0
 40
8.0
 40
8.0
 40
9.0
 40
9.0
 40
9.0
 40
10.0
 40
10.0
 40
10.0
 40
11.0
 40
11.0
 40
11.0
 40
12.0
 40
12.0
 40
12.0
 40
13.0
 40
13.0
 40
13.0
 40
14.0
 40
14.0
 40
14.0
 40
15.0
 40
15.0
 40
15.0
 40
15.0
 10
40.40966796875
 20
201.06689453125
 30
0.0
 10
40.40966796875
 20
201.06689453125
 30
0.0
 10
40.40966796875
 20
201.037109375
 30
0.0
 10
40.40966796875
 20
201.037109375
 30
0.0
 10
40.40966796875
 20
201.037109375
 30
0.0
 10
40.38037109375
 20
201.037109375
 30
0.0
 10
40.38037109375
 20
201.037109375
 30
0.0
 10
40.38037109375
 20
201.037109375
 30
0.0
 10
40.38037109375
 20
201.00732421875
 30
0.0
 10
40.38037109375
 20
201.00732421875
 30
0.0
 10
40.29052734375
 20
201.00732421875
 30
0.0
 10
40.19970703125
 20
201.00732421875
 30
0.0
 10
40.10888671875
 20
201.00732421875
 30
0.0
 10
40.10888671875
 20
201.00732421875
 30
0.0
 10
39.87060546875
 20
201.00732421875
 30
0.0
 10
39.87060546875
 20
201.00732421875
 30
0.0
 10
39.87060546875
 20
201.00732421875
 30
0.0
 10
39.81005859375
 20
200.97705078125
 30
0.0
 10
39.81005859375
 20
200.97705078125
 30
0.0
 10
39.81005859375
 20
200.97705078125
 30
0.0
 10
39.74951171875
 20
200.97705078125
 30
0.0
 10
39.74951171875
 20
200.97705078125
 30
0.0
 10
39.74951171875
 20
200.97705078125
 30
0.0
 10
39.72021484375
 20
200.947265625
 30
0.0
 10
39.72021484375
 20
200.947265625
 30
0.0
 10
39.72021484375
 20
200.947265625
 30
0.0
 10
39.59912109375
 20
200.947265625
 30
0.0
 10
39.59912109375
 20
200.947265625
 30
0.0
 10
39.59912109375
 20
200.947265625
 30
0.0
 10
39.56982421875
 20
200.9169921875
 30
0.0
 10
39.56982421875
 20
200.9169921875
 30
0.0
 10
39.56982421875
 20
200.9169921875
 30
0.0
 10
39.47998046875
 20
200.9169921875
 30
0.0
 10
39.47998046875
 20
200.9169921875
 30
0.0
 10
39.47998046875
 20
200.9169921875
 30
0.0
 10
39.39013671875
 20
200.88720703125
 30
0.0
 10
39.39013671875
 20
200.88720703125
 30
0.0
 10
39.39013671875
 20
200.88720703125
 30
0.0
 10
39.32958984375
 20
200.85693359375
 30
0.0
 10
39.32958984375
 20
200.85693359375
 30
0.0
 10
39.32958984375
 20
200.85693359375
 30
0.0
 10
39.30029296875
 20
200.8271484375
 30
0.0
 10
39.30029296875
 20
200.8271484375
 30
0.0
 10
39.30029296875
 20
200.8271484375
 30
0.0
 10
39.26904296875
 20
200.8271484375
 30
0.0
 10
39.26904296875
 20
200.8271484375
 30
0.0
  0
SPLINE
  5
17E
330
D6
100
AcDbEntity
  8
Vordergrund
 62
     7
420
 16777215
370
    18
100
AcDbSpline
210
0.0
220
0.0
230
1.0
 70
     8
 71
     3
 72
     8
 73
     4
 74
     0
 42
0.0000000001
 43
0.0000000001
 40
0.0
 40
0.0
 40
0.0
 40
0.0
 40
1.0
 40
1.0
 40
1.0
 40
1.0
 10
40.40966796875
 20
201.06689453125
 30
0.0
 10
40.42333984375
 20
199.78173828125
 30
0.0
 10
41.21826171875
 20
198.55078125
 30
0.0
 10
42.35888671875
 20
197.97705078125
 30
0.0
  0
SPLINE
  5
17F
330
D6
100
AcDbEntity
  8
Vordergrund
 62
     7
420
 16777215
370
    18
100
AcDbSpline
210
0.0
220
0.0
230
1.0
 70
     8
 71
     3
 72
     8
 73
     4
 74
     0
 42
0.0000000001
 43
0.0000000001
 40
0.0
 40
0.0
 40
0.0
 40
0.0
 40
1.0
 40
1.0
 40
1.0
 40
1.0
 10
30.56982421875
 20
197.97705078125
 30
0.0
 10
31.68505859375
 20
198.51171875
 30
0.0
 10
32.52978515625
 20
199.81591796875
 30
0.0
 10
32.48974609375
 20
201.06689453125
 30
0.0
  0
SPLINE
  5
180
330
D6
100
AcDbEntity
  8
Vordergrund
 62
     7
420
 16777215
370
    18
100
AcDbSpline
210
0.0
220
0.0
230
1.0
 70
     8
 71
     3
 72
    29
 73
    25
 74
     0
 42
0.0000000001
 43
0.0000000001
 40
0.0
 40
0.0
 40
0.0
 40
0.0
 40
1.0
 40
1.0
 40
1.0
 40
2.0
 40
2.0
 40
2.0
 40
3.0
 40
3.0
 40
3.0
 40
4.0
 40
4.0
 40
4.0
 40
5.0
 40
5.0
 40
5.0
 40
6.0
 40
6.0
 40
6.0
 40
7.0
 40
7.0
 40
7.0
 40
8.0
 40
8.0
 40
8.0
 40
8.0
 10
32.48974609375
 20
201.06689453125
 30
0.0
 10
32.48974609375
 20
201.06689453125
 30
0.0
 10
32.48974609375
 20
201.037109375
 30
0.0
 10
32.48974609375
 20
201.037109375
 30
0.0
 10
32.48974609375
 20
201.037109375
 30
0.0
 10
32.55029296875
 20
201.037109375
 30
0.0
 10
32.55029296875
 20
201.037109375
 30
0.0
 10
32.55029296875
 20
201.037109375
 30
0.0
 10
32.55029296875
 20
201.00732421875
 30
0.0
 10
32.55029296875
 20
201.00732421875
 30
0.0
 10
32.71044921875
 20
201.00732421875
 30
0.0
 10
32.87060546875
 20
201.00732421875
 30
0.0
 10
33.02978515625
 20
201.00732421875
 30
0.0
 10
33.02978515625
 20
201.00732421875
 30
0.0
 10
33.08935546875
 20
200.97705078125
 30
0.0
 10
33.08935546875
 20
200.97705078125
 30
0.0
 10
33.08935546875
 20
200.97705078125
 30
0.0
 10
33.21044921875
 20
200.97705078125
 30
0.0
 10
33.21044921875
 20
200.97705078125
 30
0.0
 10
33.21044921875
 20
200.97705078125
 30
0.0
 10
33.26904296875
 20
200.947265625
 30
0.0
 10
33.26904296875
 20
200.947265625
 30
0.0
 10
33.39794921875
 20
200.87939453125
 30
0.0
 10
33.41552734375
 20
200.96240234375
 30
0.0
 10
33.65966796875
 20
200.8271484375
 30
0.0
  0
POLYLINE
  5
181
330
D6
100
AcDbEntity
  8
Vordergrund
 62
     7
420
 16777215
370
    50
100
AcDb2dPolyline
 66
     1
 10
0.0
 20
0.0
 30
0.0
  0
VERTEX
  5
182
330
181
100
AcDbEntity
  8
Vordergrund
 62
     7
420
 16777215
370
    50
100
AcDbVertex
100
AcDb2dVertex
 10
32.55029296875
 20
204.4873046875
 30
0.0
  0
VERTEX
  5
183
330
181
100
AcDbEntity
  8
Vordergrund
 62
     7
420
 16777215
370
    50
100
AcDbVertex
100
AcDb2dVertex
 10
32.48974609375
 20
201.06689453125
 30
0.0
  0
SEQEND
  5
184
330
181
100
AcDbEntity
  8
Vordergrund
370
    50
  0
POLYLINE
  5
185
330
D6
100
AcDbEntity
  8
Vordergrund
 62
     7
420
 16777215
370
    50
100
AcDb2dPolyline
 66
     1
 10
0.0
 20
0.0
 30
0.0
  0
VERTEX
  5
186
330
185
100
AcDbEntity
  8
Vordergrund
 62
     7
420
 16777215
370
    50
100
AcDbVertex
100
AcDb2dVertex
 10
40.38037109375
 20
204.4873046875
 30
0.0
  0
VERTEX
  5
187
330
185
100
AcDbEntity
  8
Vordergrund
 62
     7
420
 16777215
370
    50
100
AcDbVertex
100
AcDb2dVertex
 10
40.40966796875
 20
201.06689453125
 30
0.0
  0
SEQEND
  5
188
330
185
100
AcDbEntity
  8
Vordergrund
370
    50
  0
POLYLINE
  5
189
330
D6
100
AcDbEntity
  8
Vordergrund
 62
     7
420
 16777215
370
    50
100
AcDb2dPolyline
 66
     1
 10
0.0
 20
0.0
 30
0.0
  0
VERTEX
  5
18A
330
189
100
AcDbEntity
  8
Vordergrund
 62
     7
420
 16777215
370
    50
100
AcDbVertex
100
AcDb2dVertex
 10
40.38037109375
 20
204.4873046875
 30
0.0
  0
VERTEX
  5
18B
330
189
100
AcDbEntity
  8
Vordergrund
 62
     7
420
 16777215
370
    50
100
AcDbVertex
100
AcDb2dVertex
 10
40.25927734375
 20
204.5771484375
 30
0.0
  0
SEQEND
  5
18C
330
189
100
AcDbEntity
  8
Vordergrund
370
    50
  0
POLYLINE
  5
18D
330
D6
100
AcDbEntity
  8
Vordergrund
 62
     7
420
 16777215
370
    50
100
AcDb2dPolyline
 66
     1
 10
0.0
 20
0.0
 30
0.0
  0
VERTEX
  5
18E
330
18D
100
AcDbEntity
  8
Vordergrund
 62
     7
420
 16777215
370
    50
100
AcDbVertex
100
AcDb2dVertex
 10
32.66943359375
 20
204.5771484375
 30
0.0
  0
VERTEX
  5
18F
330
18D
100
AcDbEntity
  8
Vordergrund
 62
     7
420
 16777215
370
    50
100
AcDbVertex
100
AcDb2dVertex
 10
32.55029296875
 20
204.4873046875
 30
0.0
  0
SEQEND
  5
190
330
18D
100
AcDbEntity
  8
Vordergrund
370
    50
  0
POLYLINE
  5
191
330
D6
100
AcDbEntity
  8
Vordergrund
 62
     7
420
 16777215
370
    18
100
AcDb2dPolyline
 66
     1
 10
0.0
 20
0.0
 30
0.0
  0
VERTEX
  5
192
330
191
100
AcDbEntity
  8
Vordergrund
 62
     7
420
 16777215
370
    18
100
AcDbVertex
100
AcDb2dVertex
 10
32.55029296875
 20
204.4873046875
 30
0.0
  0
VERTEX
  5
193
330
191
100
AcDbEntity
  8
Vordergrund
 62
     7
420
 16777215
370
    18
100
AcDbVertex
100
AcDb2dVertex
 10
35.39990234375
 20
204.4873046875
 30
0.0
  0
SEQEND
  5
194
330
191
100
AcDbEntity
  8
Vordergrund
370
    18
  0
POLYLINE
  5
195
330
D6
100
AcDbEntity
  8
Vordergrund
 62
     7
420
 16777215
370
    18
100
AcDb2dPolyline
 66
     1
 10
0.0
 20
0.0
 30
0.0
  0
VERTEX
  5
196
330
195
100
AcDbEntity
  8
Vordergrund
 62
     7
420
 16777215
370
    18
100
AcDbVertex
100
AcDb2dVertex
 10
35.39990234375
 20
204.5771484375
 30
0.0
  0
VERTEX
  5
197
330
195
100
AcDbEntity
  8
Vordergrund
 62
     7
420
 16777215
370
    18
100
AcDbVertex
100
AcDb2dVertex
 10
35.39990234375
 20
204.4873046875
 30
0.0
  0
SEQEND
  5
198
330
195
100
AcDbEntity
  8
Vordergrund
370
    18
  0
POLYLINE
  5
199
330
D6
100
AcDbEntity
  8
Vordergrund
 62
     7
420
 16777215
370
    50
100
AcDb2dPolyline
 66
     1
 10
0.0
 20
0.0
 30
0.0
  0
VERTEX
  5
19A
330
199
100
AcDbEntity
  8
Vordergrund
 62
     7
420
 16777215
370
    50
100
AcDbVertex
100
AcDb2dVertex
 10
32.66943359375
 20
204.5771484375
 30
0.0
  0
VERTEX
  5
19B
330
199
100
AcDbEntity
  8
Vordergrund
 62
     7
420
 16777215
370
    50
100
AcDbVertex
100
AcDb2dVertex
 10
35.39990234375
 20
204.5771484375
 30
0.0
  0
SEQEND
  5
19C
330
199
100
AcDbEntity
  8
Vordergrund
370
    50
  0
POLYLINE
  5
19D
330
D6
100
AcDbEntity
  8
Vordergrund
 62
     7
420
 16777215
370
    18
100
AcDb2dPolyline
 66
     1
 10
0.0
 20
0.0
 30
0.0
  0
VERTEX
  5
19E
330
19D
100
AcDbEntity
  8
Vordergrund
 62
     7
420
 16777215
370
    18
100
AcDbVertex
100
AcDb2dVertex
 10
37.52978515625
 20
204.4873046875
 30
0.0
  0
VERTEX
  5
19F
330
19D
100
AcDbEntity
  8
Vordergrund
 62
     7
420
 16777215
370
    18
100
AcDbVertex
100
AcDb2dVertex
 10
35.39990234375
 20
204.4873046875
 30
0.0
  0
SEQEND
  5
1A0
330
19D
100
AcDbEntity
  8
Vordergrund
370
    18
  0
POLYLINE
  5
1A1
330
D6
100
AcDbEntity
  8
Vordergrund
 62
     7
420
 16777215
370
    18
100
AcDb2dPolyline
 66
     1
 10
0.0
 20
0.0
 30
0.0
  0
VERTEX
  5
1A2
330
1A1
100
AcDbEntity
  8
Vordergrund
 62
     7
420
 16777215
370
    18
100
AcDbVertex
100
AcDb2dVertex
 10
37.52978515625
 20
204.5771484375
 30
0.0
  0
VERTEX
  5
1A3
330
1A1
100
AcDbEntity
  8
Vordergrund
 62
     7
420
 16777215
370
    18
100
AcDbVertex
100
AcDb2dVertex
 10
37.52978515625
 20
204.4873046875
 30
0.0
  0
SEQEND
  5
1A4
330
1A1
100
AcDbEntity
  8
Vordergrund
370
    18
  0
POLYLINE
  5
1A5
330
D6
100
AcDbEntity
  8
Vordergrund
 62
     7
420
 16777215
370
    50
100
AcDb2dPolyline
 66
     1
 10
0.0
 20
0.0
 30
0.0
  0
VERTEX
  5
1A6
330
1A5
100
AcDbEntity
  8
Vordergrund
 62
     7
420
 16777215
370
    50
100
AcDbVertex
100
AcDb2dVertex
 10
37.52978515625
 20
204.5771484375
 30
0.0
  0
VERTEX
  5
1A7
330
1A5
100
AcDbEntity
  8
Vordergrund
 62
     7
420
 16777215
370
    50
100
AcDbVertex
100
AcDb2dVertex
 10
35.39990234375
 20
204.5771484375
 30
0.0
  0
SEQEND
  5
1A8
330
1A5
100
AcDbEntity
  8
Vordergrund
370
    50
  0
POLYLINE
  5
1A9
330
D6
100
AcDbEntity
  8
Vordergrund
 62
     7
420
 16777215
370
    18
100
AcDb2dPolyline
 66
     1
 10
0.0
 20
0.0
 30
0.0
  0
VERTEX
  5
1AA
330
1A9
100
AcDbEntity
  8
Vordergrund
 62
     7
420
 16777215
370
    18
100
AcDbVertex
100
AcDb2dVertex
 10
37.52978515625
 20
204.4873046875
 30
0.0
  0
VERTEX
  5
1AB
330
1A9
100
AcDbEntity
  8
Vordergrund
 62
     7
420
 16777215
370
    18
100
AcDbVertex
100
AcDb2dVertex
 10
40.38037109375
 20
204.4873046875
 30
0.0
  0
SEQEND
  5
1AC
330
1A9
100
AcDbEntity
  8
Vordergrund
370
    18
  0
POLYLINE
  5
1AD
330
D6
100
AcDbEntity
  8
Vordergrund
 62
     7
420
 16777215
370
    50
100
AcDb2dPolyline
 66
     1
 10
0.0
 20
0.0
 30
0.0
  0
VERTEX
  5
1AE
330
1AD
100
AcDbEntity
  8
Vordergrund
 62
     7
420
 16777215
370
    50
100
AcDbVertex
100
AcDb2dVertex
 10
37.52978515625
 20
204.5771484375
 30
0.0
  0
VERTEX
  5
1AF
330
1AD
100
AcDbEntity
  8
Vordergrund
 62
     7
420
 16777215
370
    50
100
AcDbVertex
100
AcDb2dVertex
 10
40.25927734375
 20
204.5771484375
 30
0.0
  0
SEQEND
  5
1B0
330
1AD
100
AcDbEntity
  8
Vordergrund
370
    50
  0
SPLINE
  5
1B1
330
D6
100
AcDbEntity
  8
Vordergrund
 62
     7
420
 16777215
370
    50
100
AcDbSpline
210
0.0
220
0.0
230
1.0
 70
     8
 71
     3
 72
     8
 73
     4
 74
     0
 42
0.0000000001
 43
0.0000000001
 40
0.0
 40
0.0
 40
0.0
 40
0.0
 40
1.0
 40
1.0
 40
1.0
 40
1.0
 10
35.39990234375
 20
201.30712890625
 30
0.0
 10
35.19482421875
 20
200.1181640625
 30
0.0
 10
36.57177734375
 20
199.42529296875
 30
0.0
 10
37.34912109375
 20
200.4072265625
 30
0.0
  0
POLYLINE
  5
1B2
330
D6
100
AcDbEntity
  8
Vordergrund
 62
     7
420
 16777215
370
    18
100
AcDb2dPolyline
 66
     1
 10
0.0
 20
0.0
 30
0.0
  0
VERTEX
  5
1B3
330
1B2
100
AcDbEntity
  8
Vordergrund
 62
     7
420
 16777215
370
    18
100
AcDbVertex
100
AcDb2dVertex
 10
35.39990234375
 20
200.76708984375
 30
0.0
  0
VERTEX
  5
1B4
330
1B2
100
AcDbEntity
  8
Vordergrund
 62
     7
420
 16777215
370
    18
100
AcDbVertex
100
AcDb2dVertex
 10
35.39990234375
 20
200.4072265625
 30
0.0
  0
SEQEND
  5
1B5
330
1B2
100
AcDbEntity
  8
Vordergrund
370
    18
  0
POLYLINE
  5
1B6
330
D6
100
AcDbEntity
  8
Vordergrund
 62
     7
420
 16777215
370
    18
100
AcDb2dPolyline
 66
     1
 10
0.0
 20
0.0
 30
0.0
  0
VERTEX
  5
1B7
330
1B6
100
AcDbEntity
  8
Vordergrund
 62
     7
420
 16777215
370
    18
100
AcDbVertex
100
AcDb2dVertex
 10
35.39990234375
 20
204.4873046875
 30
0.0
  0
VERTEX
  5
1B8
330
1B6
100
AcDbEntity
  8
Vordergrund
 62
     7
420
 16777215
370
    18
100
AcDbVertex
100
AcDb2dVertex
 10
35.39990234375
 20
201.30712890625
 30
0.0
  0
SEQEND
  5
1B9
330
1B6
100
AcDbEntity
  8
Vordergrund
370
    18
  0
POLYLINE
  5
1BA
330
D6
100
AcDbEntity
  8
Vordergrund
 62
     7
420
 16777215
370
    18
100
AcDb2dPolyline
 66
     1
 10
0.0
 20
0.0
 30
0.0
  0
VERTEX
  5
1BB
330
1BA
100
AcDbEntity
  8
Vordergrund
 62
     7
420
 16777215
370
    18
100
AcDbVertex
100
AcDb2dVertex
 10
37.52978515625
 20
200.76708984375
 30
0.0
  0
VERTEX
  5
1BC
330
1BA
100
AcDbEntity
  8
Vordergrund
 62
     7
420
 16777215
370
    18
100
AcDbVertex
100
AcDb2dVertex
 10
37.52978515625
 20
200.4072265625
 30
0.0
  0
SEQEND
  5
1BD
330
1BA
100
AcDbEntity
  8
Vordergrund
370
    18
  0
POLYLINE
  5
1BE
330
D6
100
AcDbEntity
  8
Vordergrund
 62
     7
420
 16777215
370
    18
100
AcDb2dPolyline
 66
     1
 10
0.0
 20
0.0
 30
0.0
  0
VERTEX
  5
1BF
330
1BE
100
AcDbEntity
  8
Vordergrund
 62
     7
420
 16777215
370
    18
100
AcDbVertex
100
AcDb2dVertex
 10
37.34912109375
 20
200.4072265625
 30
0.0
  0
VERTEX
  5
1C0
330
1BE
100
AcDbEntity
  8
Vordergrund
 62
     7
420
 16777215
370
    18
100
AcDbVertex
100
AcDb2dVertex
 10
37.52978515625
 20
200.4072265625
 30
0.0
  0
SEQEND
  5
1C1
330
1BE
100
AcDbEntity
  8
Vordergrund
370
    18
  0
POLYLINE
  5
1C2
330
D6
100
AcDbEntity
  8
Vordergrund
 62
     7
420
 16777215
370
    50
100
AcDb2dPolyline
 66
     1
 10
0.0
 20
0.0
 30
0.0
  0
VERTEX
  5
1C3
330
1C2
100
AcDbEntity
  8
Vordergrund
 62
     7
420
 16777215
370
    50
100
AcDbVertex
100
AcDb2dVertex
 10
37.34912109375
 20
200.4072265625
 30
0.0
  0
VERTEX
  5
1C4
330
1C2
100
AcDbEntity
  8
Vordergrund
 62
     7
420
 16777215
370
    50
100
AcDbVertex
100
AcDb2dVertex
 10
37.52978515625
 20
200.70703125
 30
0.0
  0
VERTEX
  5
1C5
330
1C2
100
AcDbEntity
  8
Vordergrund
 62
     7
420
 16777215
370
    50
100
AcDbVertex
100
AcDb2dVertex
 10
37.56005859375
 20
201.06689453125
 30
0.0
  0
VERTEX
  5
1C6
330
1C2
100
AcDbEntity
  8
Vordergrund
 62
     7
420
 16777215
370
    50
100
AcDbVertex
100
AcDb2dVertex
 10
37.52978515625
 20
201.30712890625
 30
0.0
  0
SEQEND
  5
1C7
330
1C2
100
AcDbEntity
  8
Vordergrund
370
    50
  0
POLYLINE
  5
1C8
330
D6
100
AcDbEntity
  8
Vordergrund
 62
     7
420
 16777215
370
    18
100
AcDb2dPolyline
 66
     1
 10
0.0
 20
0.0
 30
0.0
  0
VERTEX
  5
1C9
330
1C8
100
AcDbEntity
  8
Vordergrund
 62
     7
420
 16777215
370
    18
100
AcDbVertex
100
AcDb2dVertex
 10
37.52978515625
 20
204.4873046875
 30
0.0
  0
VERTEX
  5
1CA
330
1C8
100
AcDbEntity
  8
Vordergrund
 62
     7
420
 16777215
370
    18
100
AcDbVertex
100
AcDb2dVertex
 10
37.52978515625
 20
201.30712890625
 30
0.0
  0
SEQEND
  5
1CB
330
1C8
100
AcDbEntity
  8
Vordergrund
370
    18
  0
SPLINE
  5
1CC
330
D6
100
AcDbEntity
  8
Vordergrund
 62
     7
420
 16777215
370
    50
100
AcDbSpline
210
0.0
220
0.0
230
1.0
 70
     8
 71
     3
 72
     8
 73
     4
 74
     0
 42
0.0000000001
 43
0.0000000001
 40
0.0
 40
0.0
 40
0.0
 40
0.0
 40
1.0
 40
1.0
 40
1.0
 40
1.0
 10
37.52978515625
 20
201.30712890625
 30
0.0
 10
37.21630859375
 20
202.44091796875
 30
0.0
 10
35.71240234375
 20
202.39501953125
 30
0.0
 10
35.39990234375
 20
201.30712890625
 30
0.0
  0
POLYLINE
  5
1CD
330
D6
100
AcDbEntity
  8
Vordergrund
 62
     7
420
 16777215
370
    18
100
AcDb2dPolyline
 66
     1
 10
0.0
 20
0.0
 30
0.0
  0
VERTEX
  5
1CE
330
1CD
100
AcDbEntity
  8
Vordergrund
 62
     7
420
 16777215
370
    18
100
AcDbVertex
100
AcDb2dVertex
 10
35.39990234375
 20
200.4072265625
 30
0.0
  0
VERTEX
  5
1CF
330
1CD
100
AcDbEntity
  8
Vordergrund
 62
     7
420
 16777215
370
    18
100
AcDbVertex
100
AcDb2dVertex
 10
35.55029296875
 20
200.4072265625
 30
0.0
  0
SEQEND
  5
1D0
330
1CD
100
AcDbEntity
  8
Vordergrund
370
    18
  0
POLYLINE
  5
1D1
330
D6
100
AcDbEntity
  8
Vordergrund
 62
     7
420
 16777215
370
    50
100
AcDb2dPolyline
 66
     1
 10
0.0
 20
0.0
 30
0.0
  0
VERTEX
  5
1D2
330
1D1
100
AcDbEntity
  8
Vordergrund
 62
     7
420
 16777215
370
    50
100
AcDbVertex
100
AcDb2dVertex
 10
29.37060546875
 20
196.14697265625
 30
0.0
  0
VERTEX
  5
1D3
330
1D1
100
AcDbEntity
  8
Vordergrund
 62
     7
420
 16777215
370
    50
100
AcDbVertex
100
AcDb2dVertex
 10
29.37060546875
 20
195.75732421875
 30
0.0
  0
SEQEND
  5
1D4
330
1D1
100
AcDbEntity
  8
Vordergrund
370
    50
  0
POLYLINE
  5
1D5
330
D6
100
AcDbEntity
  8
Vordergrund
 62
     7
420
 16777215
370
    50
100
AcDb2dPolyline
 66
     1
 10
0.0
 20
0.0
 30
0.0
  0
VERTEX
  5
1D6
330
1D5
100
AcDbEntity
  8
Vordergrund
 62
     7
420
 16777215
370
    50
100
AcDbVertex
100
AcDb2dVertex
 10
43.52978515625
 20
196.14697265625
 30
0.0
  0
VERTEX
  5
1D7
330
1D5
100
AcDbEntity
  8
Vordergrund
 62
     7
420
 16777215
370
    50
100
AcDbVertex
100
AcDb2dVertex
 10
43.52978515625
 20
195.75732421875
 30
0.0
  0
SEQEND
  5
1D8
330
1D5
100
AcDbEntity
  8
Vordergrund
370
    50
  0
SPLINE
  5
1D9
330
D6
100
AcDbEntity
  8
Vordergrund
 62
     7
420
 16777215
370
    50
100
AcDbSpline
210
0.0
220
0.0
230
1.0
 70
     8
 71
     3
 72
     8
 73
     4
 74
     0
 42
0.0000000001
 43
0.0000000001
 40
0.0
 40
0.0
 40
0.0
 40
0.0
 40
1.0
 40
1.0
 40
1.0
 40
1.0
 10
43.52978515625
 20
191.6171875
 30
0.0
 10
43.55517578125
 20
189.791015625
 30
0.0
 10
39.56982421875
 20
189.2509765625
 30
0.0
 10
38.24951171875
 20
189.3369140625
 30
0.0
  0
SPLINE
  5
1DA
330
D6
100
AcDbEntity
  8
Vordergrund
 62
     7
420
 16777215
370
    50
100
AcDbSpline
210
0.0
220
0.0
230
1.0
 70
     8
 71
     3
 72
    44
 73
    40
 74
     0
 42
0.0000000001
 43
0.0000000001
 40
0.0
 40
0.0
 40
0.0
 40
0.0
 40
1.0
 40
1.0
 40
1.0
 40
2.0
 40
2.0
 40
2.0
 40
3.0
 40
3.0
 40
3.0
 40
4.0
 40
4.0
 40
4.0
 40
5.0
 40
5.0
 40
5.0
 40
6.0
 40
6.0
 40
6.0
 40
7.0
 40
7.0
 40
7.0
 40
8.0
 40
8.0
 40
8.0
 40
9.0
 40
9.0
 40
9.0
 40
10.0
 40
10.0
 40
10.0
 40
11.0
 40
11.0
 40
11.0
 40
12.0
 40
12.0
 40
12.0
 40
13.0
 40
13.0
 40
13.0
 40
13.0
 10
38.24951171875
 20
189.3369140625
 30
0.0
 10
38.24951171875
 20
189.3369140625
 30
0.0
 10
34.71044921875
 20
189.3369140625
 30
0.0
 10
34.71044921875
 20
189.3369140625
 30
0.0
 10
33.53369140625
 20
189.2939453125
 30
0.0
 10
31.94091796875
 20
189.5322265625
 30
0.0
 10
30.87060546875
 20
189.9970703125
 30
0.0
 10
30.45654296875
 20
190.1708984375
 30
0.0
 10
30.07470703125
 20
190.392578125
 30
0.0
 10
29.75927734375
 20
190.71728515625
 30
0.0
 10
29.75927734375
 20
190.71728515625
 30
0.0
 10
29.72998046875
 20
190.77734375
 30
0.0
 10
29.72998046875
 20
190.77734375
 30
0.0
 10
29.72998046875
 20
190.77734375
 30
0.0
 10
29.66943359375
 20
190.80712890625
 30
0.0
 10
29.66943359375
 20
190.80712890625
 30
0.0
 10
29.66943359375
 20
190.80712890625
 30
0.0
 10
29.64013671875
 20
190.8671875
 30
0.0
 10
29.64013671875
 20
190.8671875
 30
0.0
 10
29.64013671875
 20
190.8671875
 30
0.0
 10
29.60888671875
 20
190.89697265625
 30
0.0
 10
29.60888671875
 20
190.89697265625
 30
0.0
 10
29.60888671875
 20
190.89697265625
 30
0.0
 10
29.51904296875
 20
191.0771484375
 30
0.0
 10
29.51904296875
 20
191.0771484375
 30
0.0
 10
29.51904296875
 20
191.0771484375
 30
0.0
 10
29.48974609375
 20
191.13720703125
 30
0.0
 10
29.48974609375
 20
191.13720703125
 30
0.0
 10
29.48974609375
 20
191.13720703125
 30
0.0
 10
29.42919921875
 20
191.25732421875
 30
0.0
 10
29.42919921875
 20
191.25732421875
 30
0.0
 10
29.42919921875
 20
191.25732421875
 30
0.0
 10
29.42919921875
 20
191.31689453125
 30
0.0
 10
29.42919921875
 20
191.31689453125
 30
0.0
 10
29.42919921875
 20
191.31689453125
 30
0.0
 10
29.39990234375
 20
191.34716796875
 30
0.0
 10
29.39990234375
 20
191.34716796875
 30
0.0
 10
29.41162109375
 20
191.5419921875
 30
0.0
 10
29.35693359375
 20
191.37939453125
 30
0.0
 10
29.37060546875
 20
191.6171875
 30
0.0
  0
POLYLINE
  5
1DB
330
D6
100
AcDbEntity
  8
Vordergrund
 62
     7
420
 16777215
370
    50
100
AcDb2dPolyline
 66
     1
 10
0.0
 20
0.0
 30
0.0
  0
VERTEX
  5
1DC
330
1DB
100
AcDbEntity
  8
Vordergrund
 62
     7
420
 16777215
370
    50
100
AcDbVertex
100
AcDb2dVertex
 10
29.37060546875
 20
193.92724609375
 30
0.0
  0
VERTEX
  5
1DD
330
1DB
100
AcDbEntity
  8
Vordergrund
 62
     7
420
 16777215
370
    50
100
AcDbVertex
100
AcDb2dVertex
 10
29.37060546875
 20
193.89697265625
 30
0.0
  0
SEQEND
  5
1DE
330
1DB
100
AcDbEntity
  8
Vordergrund
370
    50
  0
POLYLINE
  5
1DF
330
D6
100
AcDbEntity
  8
Vordergrund
 62
     7
420
 16777215
370
    50
100
AcDb2dPolyline
 66
     1
 10
0.0
 20
0.0
 30
0.0
  0
VERTEX
  5
1E0
330
1DF
100
AcDbEntity
  8
Vordergrund
 62
     7
420
 16777215
370
    50
100
AcDbVertex
100
AcDb2dVertex
 10
43.52978515625
 20
195.72705078125
 30
0.0
  0
VERTEX
  5
1E1
330
1DF
100
AcDbEntity
  8
Vordergrund
 62
     7
420
 16777215
370
    50
100
AcDbVertex
100
AcDb2dVertex
 10
43.52978515625
 20
193.92724609375
 30
0.0
  0
SEQEND
  5
1E2
330
1DF
100
AcDbEntity
  8
Vordergrund
370
    50
  0
POLYLINE
  5
1E3
330
D6
100
AcDbEntity
  8
Vordergrund
 62
     7
420
 16777215
370
    50
100
AcDb2dPolyline
 66
     1
 10
0.0
 20
0.0
 30
0.0
  0
VERTEX
  5
1E4
330
1E3
100
AcDbEntity
  8
Vordergrund
 62
     7
420
 16777215
370
    50
100
AcDbVertex
100
AcDb2dVertex
 10
43.52978515625
 20
195.75732421875
 30
0.0
  0
VERTEX
  5
1E5
330
1E3
100
AcDbEntity
  8
Vordergrund
 62
     7
420
 16777215
370
    50
100
AcDbVertex
100
AcDb2dVertex
 10
43.52978515625
 20
194.37744140625
 30
0.0
  0
SEQEND
  5
1E6
330
1E3
100
AcDbEntity
  8
Vordergrund
370
    50
  0
POLYLINE
  5
1E7
330
D6
100
AcDbEntity
  8
Vordergrund
 62
     7
420
 16777215
370
    50
100
AcDb2dPolyline
 66
     1
 10
0.0
 20
0.0
 30
0.0
  0
VERTEX
  5
1E8
330
1E7
100
AcDbEntity
  8
Vordergrund
 62
     7
420
 16777215
370
    50
100
AcDbVertex
100
AcDb2dVertex
 10
43.52978515625
 20
191.6171875
 30
0.0
  0
VERTEX
  5
1E9
330
1E7
100
AcDbEntity
  8
Vordergrund
 62
     7
420
 16777215
370
    50
100
AcDbVertex
100
AcDb2dVertex
 10
43.52978515625
 20
194.31689453125
 30
0.0
  0
SEQEND
  5
1EA
330
1E7
100
AcDbEntity
  8
Vordergrund
370
    50
  0
POLYLINE
  5
1EB
330
D6
100
AcDbEntity
  8
Vordergrund
 62
     7
420
 16777215
370
    50
100
AcDb2dPolyline
 66
     1
 10
0.0
 20
0.0
 30
0.0
  0
VERTEX
  5
1EC
330
1EB
100
AcDbEntity
  8
Vordergrund
 62
     7
420
 16777215
370
    50
100
AcDbVertex
100
AcDb2dVertex
 10
43.52978515625
 20
194.37744140625
 30
0.0
  0
VERTEX
  5
1ED
330
1EB
100
AcDbEntity
  8
Vordergrund
 62
     7
420
 16777215
370
    50
100
AcDbVertex
100
AcDb2dVertex
 10
43.52978515625
 20
194.31689453125
 30
0.0
  0
SEQEND
  5
1EE
330
1EB
100
AcDbEntity
  8
Vordergrund
370
    50
  0
POLYLINE
  5
1EF
330
D6
100
AcDbEntity
  8
Vordergrund
 62
     7
420
 16777215
370
    50
100
AcDb2dPolyline
 66
     1
 10
0.0
 20
0.0
 30
0.0
  0
VERTEX
  5
1F0
330
1EF
100
AcDbEntity
  8
Vordergrund
 62
     7
420
 16777215
370
    50
100
AcDbVertex
100
AcDb2dVertex
 10
29.37060546875
 20
191.6171875
 30
0.0
  0
VERTEX
  5
1F1
330
1EF
100
AcDbEntity
  8
Vordergrund
 62
     7
420
 16777215
370
    50
100
AcDbVertex
100
AcDb2dVertex
 10
29.37060546875
 20
194.31689453125
 30
0.0
  0
SEQEND
  5
1F2
330
1EF
100
AcDbEntity
  8
Vordergrund
370
    50
  0
POLYLINE
  5
1F3
330
D6
100
AcDbEntity
  8
Vordergrund
 62
     7
420
 16777215
370
    50
100
AcDb2dPolyline
 66
     1
 10
0.0
 20
0.0
 30
0.0
  0
VERTEX
  5
1F4
330
1F3
100
AcDbEntity
  8
Vordergrund
 62
     7
420
 16777215
370
    50
100
AcDbVertex
100
AcDb2dVertex
 10
29.37060546875
 20
194.37744140625
 30
0.0
  0
VERTEX
  5
1F5
330
1F3
100
AcDbEntity
  8
Vordergrund
 62
     7
420
 16777215
370
    50
100
AcDbVertex
100
AcDb2dVertex
 10
29.37060546875
 20
194.31689453125
 30
0.0
  0
SEQEND
  5
1F6
330
1F3
100
AcDbEntity
  8
Vordergrund
370
    50
  0
POLYLINE
  5
1F7
330
D6
100
AcDbEntity
  8
Vordergrund
 62
     7
420
 16777215
370
    50
100
AcDb2dPolyline
 66
     1
 10
0.0
 20
0.0
 30
0.0
  0
VERTEX
  5
1F8
330
1F7
100
AcDbEntity
  8
Vordergrund
 62
     7
420
 16777215
370
    50
100
AcDbVertex
100
AcDb2dVertex
 10
29.37060546875
 20
195.75732421875
 30
0.0
  0
VERTEX
  5
1F9
330
1F7
100
AcDbEntity
  8
Vordergrund
 62
     7
420
 16777215
370
    50
100
AcDbVertex
100
AcDb2dVertex
 10
29.37060546875
 20
195.72705078125
 30
0.0
  0
SEQEND
  5
1FA
330
1F7
100
AcDbEntity
  8
Vordergrund
370
    50
  0
POLYLINE
  5
1FB
330
D6
100
AcDbEntity
  8
Vordergrund
 62
     7
420
 16777215
370
    50
100
AcDb2dPolyline
 66
     1
 10
0.0
 20
0.0
 30
0.0
  0
VERTEX
  5
1FC
330
1FB
100
AcDbEntity
  8
Vordergrund
 62
     7
420
 16777215
370
    50
100
AcDbVertex
100
AcDb2dVertex
 10
29.37060546875
 20
195.75732421875
 30
0.0
  0
VERTEX
  5
1FD
330
1FB
100
AcDbEntity
  8
Vordergrund
 62
     7
420
 16777215
370
    50
100
AcDbVertex
100
AcDb2dVertex
 10
29.37060546875
 20
194.37744140625
 30
0.0
  0
SEQEND
  5
1FE
330
1FB
100
AcDbEntity
  8
Vordergrund
370
    50
  0
POLYLINE
  5
1FF
330
D6
100
AcDbEntity
  8
Vordergrund
 62
     7
420
 16777215
370
    50
100
AcDb2dPolyline
 66
     1
 10
0.0
 20
0.0
 30
0.0
  0
VERTEX
  5
200
330
1FF
100
AcDbEntity
  8
Vordergrund
 62
     7
420
 16777215
370
    50
100
AcDbVertex
100
AcDb2dVertex
 10
29.37060546875
 20
195.72705078125
 30
0.0
  0
VERTEX
  5
201
330
1FF
100
AcDbEntity
  8
Vordergrund
 62
     7
420
 16777215
370
    50
100
AcDbVertex
100
AcDb2dVertex
 10
29.37060546875
 20
193.92724609375
 30
0.0
  0
SEQEND
  5
202
330
1FF
100
AcDbEntity
  8
Vordergrund
370
    50
  0
SPLINE
  5
203
330
D6
100
AcDbEntity
  8
Vordergrund
 62
     7
420
 16777215
370
    50
100
AcDbSpline
210
0.0
220
0.0
230
1.0
 70
     8
 71
     3
 72
     8
 73
     4
 74
     0
 42
0.0000000001
 43
0.0000000001
 40
0.0
 40
0.0
 40
0.0
 40
0.0
 40
1.0
 40
1.0
 40
1.0
 40
1.0
 10
30.56982421875
 20
198.00732421875
 30
0.0
 10
29.79638671875
 20
197.57568359375
 30
0.0
 10
29.44580078125
 20
197.02392578125
 30
0.0
 10
29.37060546875
 20
196.14697265625
 30
0.0
  0
SPLINE
  5
204
330
D6
100
AcDbEntity
  8
Vordergrund
 62
     7
420
 16777215
370
    50
100
AcDbSpline
210
0.0
220
0.0
230
1.0
 70
     8
 71
     3
 72
     8
 73
     4
 74
     0
 42
0.0000000001
 43
0.0000000001
 40
0.0
 40
0.0
 40
0.0
 40
0.0
 40
1.0
 40
1.0
 40
1.0
 40
1.0
 10
43.52978515625
 20
196.14697265625
 30
0.0
 10
43.56787109375
 20
196.88525390625
 30
0.0
 10
43.00732421875
 20
197.71337890625
 30
0.0
 10
42.35888671875
 20
198.00732421875
 30
0.0
  0
SPLINE
  5
205
330
D6
100
AcDbEntity
  8
Vordergrund
 62
     7
420
 16777215
370
    50
100
AcDbSpline
210
0.0
220
0.0
230
1.0
 70
     8
 71
     3
 72
     8
 73
     4
 74
     0
 42
0.0000000001
 43
0.0000000001
 40
0.0
 40
0.0
 40
0.0
 40
0.0
 40
1.0
 40
1.0
 40
1.0
 40
1.0
 10
40.40966796875
 20
201.09716796875
 30
0.0
 10
40.45166015625
 20
199.7578125
 30
0.0
 10
41.18701171875
 20
198.62841796875
 30
0.0
 10
42.35888671875
 20
198.00732421875
 30
0.0
  0
POLYLINE
  5
206
330
D6
100
AcDbEntity
  8
Vordergrund
 62
     7
420
 16777215
370
    50
100
AcDb2dPolyline
 66
     1
 10
0.0
 20
0.0
 30
0.0
  0
VERTEX
  5
207
330
206
100
AcDbEntity
  8
Vordergrund
 62
     7
420
 16777215
370
    50
100
AcDbVertex
100
AcDb2dVertex
 10
40.40966796875
 20
201.09716796875
 30
0.0
  0
VERTEX
  5
208
330
206
100
AcDbEntity
  8
Vordergrund
 62
     7
420
 16777215
370
    50
100
AcDbVertex
100
AcDb2dVertex
 10
40.40966796875
 20
201.06689453125
 30
0.0
  0
SEQEND
  5
209
330
206
100
AcDbEntity
  8
Vordergrund
370
    50
  0
SPLINE
  5
20A
330
D6
100
AcDbEntity
  8
Vordergrund
 62
     7
420
 16777215
370
    50
100
AcDbSpline
210
0.0
220
0.0
230
1.0
 70
     8
 71
     3
 72
     8
 73
     4
 74
     0
 42
0.0000000001
 43
0.0000000001
 40
0.0
 40
0.0
 40
0.0
 40
0.0
 40
1.0
 40
1.0
 40
1.0
 40
1.0
 10
30.56982421875
 20
198.00732421875
 30
0.0
 10
31.72021484375
 20
198.60498046875
 30
0.0
 10
32.50732421875
 20
199.78955078125
 30
0.0
 10
32.48974609375
 20
201.09716796875
 30
0.0
  0
POLYLINE
  5
20B
330
D6
100
AcDbEntity
  8
Vordergrund
 62
     7
420
 16777215
370
    50
100
AcDb2dPolyline
 66
     1
 10
0.0
 20
0.0
 30
0.0
  0
VERTEX
  5
20C
330
20B
100
AcDbEntity
  8
Vordergrund
 62
     7
420
 16777215
370
    50
100
AcDbVertex
100
AcDb2dVertex
 10
32.48974609375
 20
201.09716796875
 30
0.0
  0
VERTEX
  5
20D
330
20B
100
AcDbEntity
  8
Vordergrund
 62
     7
420
 16777215
370
    50
100
AcDbVertex
100
AcDb2dVertex
 10
32.48974609375
 20
201.06689453125
 30
0.0
  0
SEQEND
  5
20E
330
20B
100
AcDbEntity
  8
Vordergrund
370
    50
  0
POLYLINE
  5
20F
330
D6
100
AcDbEntity
  8
Vordergrund
 62
     7
420
 16777215
370
    50
100
AcDb2dPolyline
 66
     1
 10
0.0
 20
0.0
 30
0.0
  0
VERTEX
  5
210
330
20F
100
AcDbEntity
  8
Vordergrund
 62
     7
420
 16777215
370
    50
100
AcDbVertex
100
AcDb2dVertex
 10
40.16943359375
 20
204.5771484375
 30
0.0
  0
VERTEX
  5
211
330
20F
100
AcDbEntity
  8
Vordergrund
 62
     7
420
 16777215
370
    50
100
AcDbVertex
100
AcDb2dVertex
 10
40.38037109375
 20
204.75732421875
 30
0.0
  0
SEQEND
  5
212
330
20F
100
AcDbEntity
  8
Vordergrund
370
    50
  0
POLYLINE
  5
213
330
D6
100
AcDbEntity
  8
Vordergrund
 62
     7
420
 16777215
370
    18
100
AcDb2dPolyline
 66
     1
 10
0.0
 20
0.0
 30
0.0
  0
VERTEX
  5
214
330
213
100
AcDbEntity
  8
Vordergrund
 62
     7
420
 16777215
370
    18
100
AcDbVertex
100
AcDb2dVertex
 10
40.38037109375
 20
204.75732421875
 30
0.0
  0
VERTEX
  5
215
330
213
100
AcDbEntity
  8
Vordergrund
 62
     7
420
 16777215
370
    18
100
AcDbVertex
100
AcDb2dVertex
 10
37.52978515625
 20
204.75732421875
 30
0.0
  0
SEQEND
  5
216
330
213
100
AcDbEntity
  8
Vordergrund
370
    18
  0
POLYLINE
  5
217
330
D6
100
AcDbEntity
  8
Vordergrund
 62
     7
420
 16777215
370
    18
100
AcDb2dPolyline
 66
     1
 10
0.0
 20
0.0
 30
0.0
  0
VERTEX
  5
218
330
217
100
AcDbEntity
  8
Vordergrund
 62
     7
420
 16777215
370
    18
100
AcDbVertex
100
AcDb2dVertex
 10
37.52978515625
 20
204.5771484375
 30
0.0
  0
VERTEX
  5
219
330
217
100
AcDbEntity
  8
Vordergrund
 62
     7
420
 16777215
370
    18
100
AcDbVertex
100
AcDb2dVertex
 10
37.52978515625
 20
204.75732421875
 30
0.0
  0
SEQEND
  5
21A
330
217
100
AcDbEntity
  8
Vordergrund
370
    18
  0
POLYLINE
  5
21B
330
D6
100
AcDbEntity
  8
Vordergrund
 62
     7
420
 16777215
370
    18
100
AcDb2dPolyline
 66
     1
 10
0.0
 20
0.0
 30
0.0
  0
VERTEX
  5
21C
330
21B
100
AcDbEntity
  8
Vordergrund
 62
     7
420
 16777215
370
    18
100
AcDbVertex
100
AcDb2dVertex
 10
35.39990234375
 20
204.75732421875
 30
0.0
  0
VERTEX
  5
21D
330
21B
100
AcDbEntity
  8
Vordergrund
 62
     7
420
 16777215
370
    18
100
AcDbVertex
100
AcDb2dVertex
 10
37.52978515625
 20
204.75732421875
 30
0.0
  0
SEQEND
  5
21E
330
21B
100
AcDbEntity
  8
Vordergrund
370
    18
  0
POLYLINE
  5
21F
330
D6
100
AcDbEntity
  8
Vordergrund
 62
     7
420
 16777215
370
    18
100
AcDb2dPolyline
 66
     1
 10
0.0
 20
0.0
 30
0.0
  0
VERTEX
  5
220
330
21F
100
AcDbEntity
  8
Vordergrund
 62
     7
420
 16777215
370
    18
100
AcDbVertex
100
AcDb2dVertex
 10
35.39990234375
 20
204.5771484375
 30
0.0
  0
VERTEX
  5
221
330
21F
100
AcDbEntity
  8
Vordergrund
 62
     7
420
 16777215
370
    18
100
AcDbVertex
100
AcDb2dVertex
 10
35.39990234375
 20
204.75732421875
 30
0.0
  0
SEQEND
  5
222
330
21F
100
AcDbEntity
  8
Vordergrund
370
    18
  0
POLYLINE
  5
223
330
D6
100
AcDbEntity
  8
Vordergrund
 62
     7
420
 16777215
370
    18
100
AcDb2dPolyline
 66
     1
 10
0.0
 20
0.0
 30
0.0
  0
VERTEX
  5
224
330
223
100
AcDbEntity
  8
Vordergrund
 62
     7
420
 16777215
370
    18
100
AcDbVertex
100
AcDb2dVertex
 10
35.39990234375
 20
204.75732421875
 30
0.0
  0
VERTEX
  5
225
330
223
100
AcDbEntity
  8
Vordergrund
 62
     7
420
 16777215
370
    18
100
AcDbVertex
100
AcDb2dVertex
 10
32.57958984375
 20
204.75732421875
 30
0.0
  0
SEQEND
  5
226
330
223
100
AcDbEntity
  8
Vordergrund
370
    18
  0
POLYLINE
  5
227
330
D6
100
AcDbEntity
  8
Vordergrund
 62
     7
420
 16777215
370
    50
100
AcDb2dPolyline
 66
     1
 10
0.0
 20
0.0
 30
0.0
  0
VERTEX
  5
228
330
227
100
AcDbEntity
  8
Vordergrund
 62
     7
420
 16777215
370
    50
100
AcDbVertex
100
AcDb2dVertex
 10
32.57958984375
 20
204.75732421875
 30
0.0
  0
VERTEX
  5
229
330
227
100
AcDbEntity
  8
Vordergrund
 62
     7
420
 16777215
370
    50
100
AcDbVertex
100
AcDb2dVertex
 10
32.72998046875
 20
204.5771484375
 30
0.0
  0
SEQEND
  5
22A
330
227
100
AcDbEntity
  8
Vordergrund
370
    50
  0
POLYLINE
  5
22B
330
D6
100
AcDbEntity
  8
Vordergrund
 62
     7
420
 16777215
370
    50
100
AcDb2dPolyline
 66
     1
 10
0.0
 20
0.0
 30
0.0
  0
VERTEX
  5
22C
330
22B
100
AcDbEntity
  8
Vordergrund
 62
     7
420
 16777215
370
    50
100
AcDbVertex
100
AcDb2dVertex
 10
32.57958984375
 20
204.75732421875
 30
0.0
  0
VERTEX
  5
22D
330
22B
100
AcDbEntity
  8
Vordergrund
 62
     7
420
 16777215
370
    50
100
AcDbVertex
100
AcDb2dVertex
 10
32.57958984375
 20
204.4873046875
 30
0.0
  0
SEQEND
  5
22E
330
22B
100
AcDbEntity
  8
Vordergrund
370
    50
  0
POLYLINE
  5
22F
330
D6
100
AcDbEntity
  8
Vordergrund
 62
     7
420
 16777215
370
    50
100
AcDb2dPolyline
 66
     1
 10
0.0
 20
0.0
 30
0.0
  0
VERTEX
  5
230
330
22F
100
AcDbEntity
  8
Vordergrund
 62
     7
420
 16777215
370
    50
100
AcDbVertex
100
AcDb2dVertex
 10
40.38037109375
 20
204.75732421875
 30
0.0
  0
VERTEX
  5
231
330
22F
100
AcDbEntity
  8
Vordergrund
 62
     7
420
 16777215
370
    50
100
AcDbVertex
100
AcDb2dVertex
 10
40.38037109375
 20
204.4873046875
 30
0.0
  0
SEQEND
  5
232
330
22F
100
AcDbEntity
  8
Vordergrund
370
    50
  0
POLYLINE
  5
233
330
D6
100
AcDbEntity
  8
Vordergrund
 62
     7
420
 16777215
370
    50
100
AcDb2dPolyline
 66
     1
 10
0.0
 20
0.0
 30
0.0
  0
VERTEX
  5
234
330
233
100
AcDbEntity
  8
Vordergrund
 62
     7
420
 16777215
370
    50
100
AcDbVertex
100
AcDb2dVertex
 10
40.38037109375
 20
205.1171875
 30
0.0
  0
VERTEX
  5
235
330
233
100
AcDbEntity
  8
Vordergrund
 62
     7
420
 16777215
370
    50
100
AcDbVertex
100
AcDb2dVertex
 10
40.38037109375
 20
204.75732421875
 30
0.0
  0
SEQEND
  5
236
330
233
100
AcDbEntity
  8
Vordergrund
370
    50
  0
POLYLINE
  5
237
330
D6
100
AcDbEntity
  8
Vordergrund
 62
     7
420
 16777215
370
    18
100
AcDb2dPolyline
 66
     1
 10
0.0
 20
0.0
 30
0.0
  0
VERTEX
  5
238
330
237
100
AcDbEntity
  8
Vordergrund
 62
     7
420
 16777215
370
    18
100
AcDbVertex
100
AcDb2dVertex
 10
37.52978515625
 20
205.1171875
 30
0.0
  0
VERTEX
  5
239
330
237
100
AcDbEntity
  8
Vordergrund
 62
     7
420
 16777215
370
    18
100
AcDbVertex
100
AcDb2dVertex
 10
37.52978515625
 20
204.75732421875
 30
0.0
  0
SEQEND
  5
23A
330
237
100
AcDbEntity
  8
Vordergrund
370
    18
  0
POLYLINE
  5
23B
330
D6
100
AcDbEntity
  8
Vordergrund
 62
     7
420
 16777215
370
    18
100
AcDb2dPolyline
 66
     1
 10
0.0
 20
0.0
 30
0.0
  0
VERTEX
  5
23C
330
23B
100
AcDbEntity
  8
Vordergrund
 62
     7
420
 16777215
370
    18
100
AcDbVertex
100
AcDb2dVertex
 10
37.52978515625
 20
205.1171875
 30
0.0
  0
VERTEX
  5
23D
330
23B
100
AcDbEntity
  8
Vordergrund
 62
     7
420
 16777215
370
    18
100
AcDbVertex
100
AcDb2dVertex
 10
40.38037109375
 20
205.1171875
 30
0.0
  0
SEQEND
  5
23E
330
23B
100
AcDbEntity
  8
Vordergrund
370
    18
  0
POLYLINE
  5
23F
330
D6
100
AcDbEntity
  8
Vordergrund
 62
     7
420
 16777215
370
    50
100
AcDb2dPolyline
 66
     1
 10
0.0
 20
0.0
 30
0.0
  0
VERTEX
  5
240
330
23F
100
AcDbEntity
  8
Vordergrund
 62
     7
420
 16777215
370
    50
100
AcDbVertex
100
AcDb2dVertex
 10
32.57958984375
 20
205.1171875
 30
0.0
  0
VERTEX
  5
241
330
23F
100
AcDbEntity
  8
Vordergrund
 62
     7
420
 16777215
370
    50
100
AcDbVertex
100
AcDb2dVertex
 10
32.57958984375
 20
204.75732421875
 30
0.0
  0
SEQEND
  5
242
330
23F
100
AcDbEntity
  8
Vordergrund
370
    50
  0
POLYLINE
  5
243
330
D6
100
AcDbEntity
  8
Vordergrund
 62
     7
420
 16777215
370
    18
100
AcDb2dPolyline
 66
     1
 10
0.0
 20
0.0
 30
0.0
  0
VERTEX
  5
244
330
243
100
AcDbEntity
  8
Vordergrund
 62
     7
420
 16777215
370
    18
100
AcDbVertex
100
AcDb2dVertex
 10
37.52978515625
 20
205.1171875
 30
0.0
  0
VERTEX
  5
245
330
243
100
AcDbEntity
  8
Vordergrund
 62
     7
420
 16777215
370
    18
100
AcDbVertex
100
AcDb2dVertex
 10
35.39990234375
 20
205.1171875
 30
0.0
  0
SEQEND
  5
246
330
243
100
AcDbEntity
  8
Vordergrund
370
    18
  0
POLYLINE
  5
247
330
D6
100
AcDbEntity
  8
Vordergrund
 62
     7
420
 16777215
370
    18
100
AcDb2dPolyline
 66
     1
 10
0.0
 20
0.0
 30
0.0
  0
VERTEX
  5
248
330
247
100
AcDbEntity
  8
Vordergrund
 62
     7
420
 16777215
370
    18
100
AcDbVertex
100
AcDb2dVertex
 10
35.39990234375
 20
205.1171875
 30
0.0
  0
VERTEX
  5
249
330
247
100
AcDbEntity
  8
Vordergrund
 62
     7
420
 16777215
370
    18
100
AcDbVertex
100
AcDb2dVertex
 10
35.39990234375
 20
204.75732421875
 30
0.0
  0
SEQEND
  5
24A
330
247
100
AcDbEntity
  8
Vordergrund
370
    18
  0
POLYLINE
  5
24B
330
D6
100
AcDbEntity
  8
Vordergrund
 62
     7
420
 16777215
370
    18
100
AcDb2dPolyline
 66
     1
 10
0.0
 20
0.0
 30
0.0
  0
VERTEX
  5
24C
330
24B
100
AcDbEntity
  8
Vordergrund
 62
     7
420
 16777215
370
    18
100
AcDbVertex
100
AcDb2dVertex
 10
32.57958984375
 20
205.1171875
 30
0.0
  0
VERTEX
  5
24D
330
24B
100
AcDbEntity
  8
Vordergrund
 62
     7
420
 16777215
370
    18
100
AcDbVertex
100
AcDb2dVertex
 10
35.39990234375
 20
205.1171875
 30
0.0
  0
SEQEND
  5
24E
330
24B
100
AcDbEntity
  8
Vordergrund
370
    18
  0
POLYLINE
  5
24F
330
D6
100
AcDbEntity
  8
Vordergrund
 62
     7
420
 16777215
370
    50
100
AcDb2dPolyline
 66
     1
 10
0.0
 20
0.0
 30
0.0
  0
VERTEX
  5
250
330
24F
100
AcDbEntity
  8
Vordergrund
 62
     7
420
 16777215
370
    50
100
AcDbVertex
100
AcDb2dVertex
 10
40.38037109375
 20
205.1171875
 30
0.0
  0
VERTEX
  5
251
330
24F
100
AcDbEntity
  8
Vordergrund
 62
     7
420
 16777215
370
    50
100
AcDbVertex
100
AcDb2dVertex
 10
40.16943359375
 20
205.29736328125
 30
0.0
  0
SEQEND
  5
252
330
24F
100
AcDbEntity
  8
Vordergrund
370
    50
  0
POLYLINE
  5
253
330
D6
100
AcDbEntity
  8
Vordergrund
 62
     7
420
 16777215
370
    50
100
AcDb2dPolyline
 66
     1
 10
0.0
 20
0.0
 30
0.0
  0
VERTEX
  5
254
330
253
100
AcDbEntity
  8
Vordergrund
 62
     7
420
 16777215
370
    50
100
AcDbVertex
100
AcDb2dVertex
 10
32.72998046875
 20
205.29736328125
 30
0.0
  0
VERTEX
  5
255
330
253
100
AcDbEntity
  8
Vordergrund
 62
     7
420
 16777215
370
    50
100
AcDbVertex
100
AcDb2dVertex
 10
32.57958984375
 20
205.1171875
 30
0.0
  0
SEQEND
  5
256
330
253
100
AcDbEntity
  8
Vordergrund
370
    50
  0
POLYLINE
  5
257
330
D6
100
AcDbEntity
  8
Vordergrund
 62
     7
420
 16777215
370
    18
100
AcDb2dPolyline
 66
     1
 10
0.0
 20
0.0
 30
0.0
  0
VERTEX
  5
258
330
257
100
AcDbEntity
  8
Vordergrund
 62
     7
420
 16777215
370
    18
100
AcDbVertex
100
AcDb2dVertex
 10
35.39990234375
 20
205.29736328125
 30
0.0
  0
VERTEX
  5
259
330
257
100
AcDbEntity
  8
Vordergrund
 62
     7
420
 16777215
370
    18
100
AcDbVertex
100
AcDb2dVertex
 10
35.39990234375
 20
205.1171875
 30
0.0
  0
SEQEND
  5
25A
330
257
100
AcDbEntity
  8
Vordergrund
370
    18
  0
POLYLINE
  5
25B
330
D6
100
AcDbEntity
  8
Vordergrund
 62
     7
420
 16777215
370
    50
100
AcDb2dPolyline
 66
     1
 10
0.0
 20
0.0
 30
0.0
  0
VERTEX
  5
25C
330
25B
100
AcDbEntity
  8
Vordergrund
 62
     7
420
 16777215
370
    50
100
AcDbVertex
100
AcDb2dVertex
 10
32.72998046875
 20
205.29736328125
 30
0.0
  0
VERTEX
  5
25D
330
25B
100
AcDbEntity
  8
Vordergrund
 62
     7
420
 16777215
370
    50
100
AcDbVertex
100
AcDb2dVertex
 10
35.39990234375
 20
205.29736328125
 30
0.0
  0
SEQEND
  5
25E
330
25B
100
AcDbEntity
  8
Vordergrund
370
    50
  0
POLYLINE
  5
25F
330
D6
100
AcDbEntity
  8
Vordergrund
 62
     7
420
 16777215
370
    18
100
AcDb2dPolyline
 66
     1
 10
0.0
 20
0.0
 30
0.0
  0
VERTEX
  5
260
330
25F
100
AcDbEntity
  8
Vordergrund
 62
     7
420
 16777215
370
    18
100
AcDbVertex
100
AcDb2dVertex
 10
37.52978515625
 20
205.29736328125
 30
0.0
  0
VERTEX
  5
261
330
25F
100
AcDbEntity
  8
Vordergrund
 62
     7
420
 16777215
370
    18
100
AcDbVertex
100
AcDb2dVertex
 10
37.52978515625
 20
205.1171875
 30
0.0
  0
SEQEND
  5
262
330
25F
100
AcDbEntity
  8
Vordergrund
370
    18
  0
POLYLINE
  5
263
330
D6
100
AcDbEntity
  8
Vordergrund
 62
     7
420
 16777215
370
    50
100
AcDb2dPolyline
 66
     1
 10
0.0
 20
0.0
 30
0.0
  0
VERTEX
  5
264
330
263
100
AcDbEntity
  8
Vordergrund
 62
     7
420
 16777215
370
    50
100
AcDbVertex
100
AcDb2dVertex
 10
37.52978515625
 20
205.29736328125
 30
0.0
  0
VERTEX
  5
265
330
263
100
AcDbEntity
  8
Vordergrund
 62
     7
420
 16777215
370
    50
100
AcDbVertex
100
AcDb2dVertex
 10
35.39990234375
 20
205.29736328125
 30
0.0
  0
SEQEND
  5
266
330
263
100
AcDbEntity
  8
Vordergrund
370
    50
  0
POLYLINE
  5
267
330
D6
100
AcDbEntity
  8
Vordergrund
 62
     7
420
 16777215
370
    50
100
AcDb2dPolyline
 66
     1
 10
0.0
 20
0.0
 30
0.0
  0
VERTEX
  5
268
330
267
100
AcDbEntity
  8
Vordergrund
 62
     7
420
 16777215
370
    50
100
AcDbVertex
100
AcDb2dVertex
 10
37.52978515625
 20
205.29736328125
 30
0.0
  0
VERTEX
  5
269
330
267
100
AcDbEntity
  8
Vordergrund
 62
     7
420
 16777215
370
    50
100
AcDbVertex
100
AcDb2dVertex
 10
40.16943359375
 20
205.29736328125
 30
0.0
  0
SEQEND
  5
26A
330
267
100
AcDbEntity
  8
Vordergrund
370
    50
  0
POLYLINE
  5
26B
330
D6
100
AcDbEntity
  8
Vordergrund
 62
     7
420
 16777215
370
    50
100
AcDb2dPolyline
 66
     1
 10
0.0
 20
0.0
 30
0.0
  0
VERTEX
  5
26C
330
26B
100
AcDbEntity
  8
Vordergrund
 62
     7
420
 16777215
370
    50
100
AcDbVertex
100
AcDb2dVertex
 10
37.89013671875
 20
204.5771484375
 30
0.0
  0
VERTEX
  5
26D
330
26B
100
AcDbEntity
  8
Vordergrund
 62
     7
420
 16777215
370
    50
100
AcDbVertex
100
AcDb2dVertex
 10
33.44970703125
 20
204.5771484375
 30
0.0
  0
SEQEND
  5
26E
330
26B
100
AcDbEntity
  8
Vordergrund
370
    50
  0
ENDBLK
  5
D9
330
D6
100
AcDbEntity
  8
0
100
AcDbBlockEnd
  0
BLOCK
  5
3D8
330
3D6
100
AcDbEntity
  8
0
100
AcDbBlockBegin
  2
block 4
 70
     0
 71
     0
 10
0.0
 20
0.0
 30
0.0
  3
block 4
  1

  0
INSERT
  5
3DB
330
3D6
100
AcDbEntity
  8
Ma\U+00DFe
100
AcDbBlockReference
  2
block 5
 10
0.0
 20
0.0
 30
0.0
  0
POLYLINE
  5
577
330
3D6
100
AcDbEntity
  8
Ma\U+00DFe
370
     0
100
AcDb2dPolyline
 66
     1
 10
0.0
 20
0.0
 30
0.0
  0
VERTEX
  5
578
330
577
100
AcDbEntity
  8
Ma\U+00DFe
370
     0
100
AcDbVertex
100
AcDb2dVertex
 10
116.8486328125
 20
148.2119140625
 30
0.0
  0
VERTEX
  5
579
330
577
100
AcDbEntity
  8
Ma\U+00DFe
370
     0
100
AcDbVertex
100
AcDb2dVertex
 10
122.9892578125
 20
151.751953125
 30
0.0
  0
VERTEX
  5
57A
330
577
100
AcDbEntity
  8
Ma\U+00DFe
370
     0
100
AcDbVertex
100
AcDb2dVertex
 10
116.8486328125
 20
155.3017578125
 30
0.0
  0
VERTEX
  5
57B
330
577
100
AcDbEntity
  8
Ma\U+00DFe
370
     0
100
AcDbVertex
100
AcDb2dVertex
 10
116.8486328125
 20
148.2119140625
 30
0.0
  0
SEQEND
  5
57C
330
577
100
AcDbEntity
  8
Ma\U+00DFe
370
     0
  0
HATCH
  5
57D
330
3D6
100
AcDbEntity
  8
Ma\U+00DFe
 62
   250
420
  1709851
100
AcDbHatch
 10
0.0
 20
0.0
 30
0.0
210
0.0
220
0.0
230
1.0
  2
SOLID
 70
     1
 71
     0
 91
        1
 92
        1
 93
        3
 72
     1
 10
116.8486328125
 20
148.2119140625
 11
122.9892578125
 21
151.751953125
 72
     1
 10
122.9892578125
 20
151.751953125
 11
116.8486328125
 21
155.3017578125
 72
     1
 10
116.8486328125
 20
155.3017578125
 11
116.8486328125
 21
148.2119140625
 97
        0
 75
     0
 76
     1
 98
        0
  0
POLYLINE
  5
57E
330
3D6
100
AcDbEntity
  8
Ma\U+00DFe
 62
   250
420
  1709851
370
    18
100
AcDb2dPolyline
 66
     1
 10
0.0
 20
0.0
 30
0.0
  0
VERTEX
  5
57F
330
57E
100
AcDbEntity
  8
Ma\U+00DFe
 62
   250
420
  1709851
370
    18
100
AcDbVertex
100
AcDb2dVertex
 10
108.8095703125
 20
151.751953125
 30
0.0
  0
VERTEX
  5
580
330
57E
100
AcDbEntity
  8
Ma\U+00DFe
 62
   250
420
  1709851
370
    18
100
AcDbVertex
100
AcDb2dVertex
 10
116.8486328125
 20
151.751953125
 30
0.0
  0
SEQEND
  5
581
330
57E
100
AcDbEntity
  8
Ma\U+00DFe
370
    18
  0
POLYLINE
  5
582
330
3D6
100
AcDbEntity
  8
Ma\U+00DFe
 62
   250
420
  1709851
370
    18
100
AcDb2dPolyline
 66
     1
 10
0.0
 20
0.0
 30
0.0
  0
VERTEX
  5
583
330
582
100
AcDbEntity
  8
Ma\U+00DFe
 62
   250
420
  1709851
370
    18
100
AcDbVertex
100
AcDb2dVertex
 10
116.8486328125
 20
148.2119140625
 30
0.0
  0
VERTEX
  5
584
330
582
100
AcDbEntity
  8
Ma\U+00DFe
 62
   250
420
  1709851
370
    18
100
AcDbVertex
100
AcDb2dVertex
 10
122.9892578125
 20
151.751953125
 30
0.0
  0
VERTEX
  5
585
330
582
100
AcDbEntity
  8
Ma\U+00DFe
 62
   250
420
  1709851
370
    18
100
AcDbVertex
100
AcDb2dVertex
 10
116.8486328125
 20
155.3017578125
 30
0.0
  0
VERTEX
  5
586
330
582
100
AcDbEntity
  8
Ma\U+00DFe
 62
   250
420
  1709851
370
    18
100
AcDbVertex
100
AcDb2dVertex
 10
116.8486328125
 20
148.2119140625
 30
0.0
  0
SEQEND
  5
587
330
582
100
AcDbEntity
  8
Ma\U+00DFe
370
    18
  0
POLYLINE
  5
588
330
3D6
100
AcDbEntity
  8
Ma\U+00DFe
 62
   250
420
  1709851
370
    18
100
AcDb2dPolyline
 66
     1
 10
0.0
 20
0.0
 30
0.0
  0
VERTEX
  5
589
330
588
100
AcDbEntity
  8
Ma\U+00DFe
 62
   250
420
  1709851
370
    18
100
AcDbVertex
100
AcDb2dVertex
 10
122.9892578125
 20
125.33154296875
 30
0.0
  0
VERTEX
  5
58A
330
588
100
AcDbEntity
  8
Ma\U+00DFe
 62
   250
420
  1709851
370
    18
100
AcDbVertex
100
AcDb2dVertex
 10
122.9892578125
 20
157.421875
 30
0.0
  0
SEQEND
  5
58B
330
588
100
AcDbEntity
  8
Ma\U+00DFe
370
    18
  0
POLYLINE
  5
58C
330
3D6
100
AcDbEntity
  8
Ma\U+00DFe
 62
   250
420
  1709851
370
    18
100
AcDb2dPolyline
 66
     1
 10
0.0
 20
0.0
 30
0.0
  0
VERTEX
  5
58D
330
58C
100
AcDbEntity
  8
Ma\U+00DFe
 62
   250
420
  1709851
370
    18
100
AcDbVertex
100
AcDb2dVertex
 10
138.94921875
 20
141.931640625
 30
0.0
  0
VERTEX
  5
58E
330
58C
100
AcDbEntity
  8
Ma\U+00DFe
 62
   250
420
  1709851
370
    18
100
AcDbVertex
100
AcDb2dVertex
 10
138.94921875
 20
157.421875
 30
0.0
  0
SEQEND
  5
58F
330
58C
100
AcDbEntity
  8
Ma\U+00DFe
370
    18
  0
POLYLINE
  5
590
330
3D6
100
AcDbEntity
  8
Ma\U+00DFe
370
     0
100
AcDb2dPolyline
 66
     1
 10
0.0
 20
0.0
 30
0.0
  0
VERTEX
  5
591
330
590
100
AcDbEntity
  8
Ma\U+00DFe
370
     0
100
AcDbVertex
100
AcDb2dVertex
 10
145.0888671875
 20
155.3017578125
 30
0.0
  0
VERTEX
  5
592
330
590
100
AcDbEntity
  8
Ma\U+00DFe
370
     0
100
AcDbVertex
100
AcDb2dVertex
 10
138.94921875
 20
151.751953125
 30
0.0
  0
VERTEX
  5
593
330
590
100
AcDbEntity
  8
Ma\U+00DFe
370
     0
100
AcDbVertex
100
AcDb2dVertex
 10
145.0888671875
 20
148.2119140625
 30
0.0
  0
VERTEX
  5
594
330
590
100
AcDbEntity
  8
Ma\U+00DFe
370
     0
100
AcDbVertex
100
AcDb2dVertex
 10
145.0888671875
 20
155.3017578125
 30
0.0
  0
SEQEND
  5
595
330
590
100
AcDbEntity
  8
Ma\U+00DFe
370
     0
  0
HATCH
  5
596
330
3D6
100
AcDbEntity
  8
Ma\U+00DFe
 62
   250
420
  1709851
100
AcDbHatch
 10
0.0
 20
0.0
 30
0.0
210
0.0
220
0.0
230
1.0
  2
SOLID
 70
     1
 71
     0
 91
        1
 92
        1
 93
        3
 72
     1
 10
145.0888671875
 20
155.3017578125
 11
138.94921875
 21
151.751953125
 72
     1
 10
138.94921875
 20
151.751953125
 11
145.0888671875
 21
148.2119140625
 72
     1
 10
145.0888671875
 20
148.2119140625
 11
145.0888671875
 21
155.3017578125
 97
        0
 75
     0
 76
     1
 98
        0
  0
POLYLINE
  5
597
330
3D6
100
AcDbEntity
  8
Ma\U+00DFe
370
     0
100
AcDb2dPolyline
 66
     1
 10
0.0
 20
0.0
 30
0.0
  0
VERTEX
  5
598
330
597
100
AcDbEntity
  8
Ma\U+00DFe
370
     0
100
AcDbVertex
100
AcDb2dVertex
 10
128.94921875
 20
150.091796875
 30
0.0
  0
VERTEX
  5
599
330
597
100
AcDbEntity
  8
Ma\U+00DFe
370
     0
100
AcDbVertex
100
AcDb2dVertex
 10
128.94921875
 20
155.69140625
 30
0.0
  0
VERTEX
  5
59A
330
597
100
AcDbEntity
  8
Ma\U+00DFe
370
     0
100
AcDbVertex
100
AcDb2dVertex
 10
128.9287109375
 20
155.69140625
 30
0.0
  0
VERTEX
  5
59B
330
597
100
AcDbEntity
  8
Ma\U+00DFe
370
     0
100
AcDbVertex
100
AcDb2dVertex
 10
124.529296875
 20
149.36181640625
 30
0.0
  0
VERTEX
  5
59C
330
597
100
AcDbEntity
  8
Ma\U+00DFe
370
     0
100
AcDbVertex
100
AcDb2dVertex
 10
128.1591796875
 20
149.36181640625
 30
0.0
  0
VERTEX
  5
59D
330
597
100
AcDbEntity
  8
Ma\U+00DFe
370
     0
100
AcDbVertex
100
AcDb2dVertex
 10
128.1591796875
 20
148.2119140625
 30
0.0
  0
VERTEX
  5
59E
330
597
100
AcDbEntity
  8
Ma\U+00DFe
370
     0
100
AcDbVertex
100
AcDb2dVertex
 10
128.94921875
 20
148.2119140625
 30
0.0
  0
VERTEX
  5
59F
330
597
100
AcDbEntity
  8
Ma\U+00DFe
370
     0
100
AcDbVertex
100
AcDb2dVertex
 10
128.94921875
 20
149.36181640625
 30
0.0
  0
VERTEX
  5
5A0
330
597
100
AcDbEntity
  8
Ma\U+00DFe
370
     0
100
AcDbVertex
100
AcDb2dVertex
 10
129.8193359375
 20
149.36181640625
 30
0.0
  0
VERTEX
  5
5A1
330
597
100
AcDbEntity
  8
Ma\U+00DFe
370
     0
100
AcDbVertex
100
AcDb2dVertex
 10
129.8193359375
 20
150.091796875
 30
0.0
  0
VERTEX
  5
5A2
330
597
100
AcDbEntity
  8
Ma\U+00DFe
370
     0
100
AcDbVertex
100
AcDb2dVertex
 10
128.94921875
 20
150.091796875
 30
0.0
  0
SEQEND
  5
5A3
330
597
100
AcDbEntity
  8
Ma\U+00DFe
370
     0
  0
POLYLINE
  5
5A4
330
3D6
100
AcDbEntity
  8
Ma\U+00DFe
370
     0
100
AcDb2dPolyline
 66
     1
 10
0.0
 20
0.0
 30
0.0
  0
VERTEX
  5
5A5
330
5A4
100
AcDbEntity
  8
Ma\U+00DFe
370
     0
100
AcDbVertex
100
AcDb2dVertex
 10
128.1591796875
 20
150.091796875
 30
0.0
  0
VERTEX
  5
5A6
330
5A4
100
AcDbEntity
  8
Ma\U+00DFe
370
     0
100
AcDbVertex
100
AcDb2dVertex
 10
125.9091796875
 20
150.091796875
 30
0.0
  0
VERTEX
  5
5A7
330
5A4
100
AcDbEntity
  8
Ma\U+00DFe
370
     0
100
AcDbVertex
100
AcDb2dVertex
 10
128.1396484375
 20
153.29150390625
 30
0.0
  0
VERTEX
  5
5A8
330
5A4
100
AcDbEntity
  8
Ma\U+00DFe
370
     0
100
AcDbVertex
100
AcDb2dVertex
 10
128.1591796875
 20
153.29150390625
 30
0.0
  0
VERTEX
  5
5A9
330
5A4
100
AcDbEntity
  8
Ma\U+00DFe
370
     0
100
AcDbVertex
100
AcDb2dVertex
 10
128.1591796875
 20
150.091796875
 30
0.0
  0
SEQEND
  5
5AA
330
5A4
100
AcDbEntity
  8
Ma\U+00DFe
370
     0
  0
POLYLINE
  5
5AB
330
3D6
100
AcDbEntity
  8
Ma\U+00DFe
370
     0
100
AcDb2dPolyline
 66
     1
 10
0.0
 20
0.0
 30
0.0
  0
VERTEX
  5
5AC
330
5AB
100
AcDbEntity
  8
Ma\U+00DFe
370
     0
100
AcDbVertex
100
AcDb2dVertex
 10
136.5888671875
 20
154.5615234375
 30
0.0
  0
VERTEX
  5
5AD
330
5AB
100
AcDbEntity
  8
Ma\U+00DFe
370
     0
100
AcDbVertex
100
AcDb2dVertex
 10
136.5888671875
 20
155.3017578125
 30
0.0
  0
VERTEX
  5
5AE
330
5AB
100
AcDbEntity
  8
Ma\U+00DFe
370
     0
100
AcDbVertex
100
AcDb2dVertex
 10
133.7685546875
 20
155.3017578125
 30
0.0
  0
VERTEX
  5
5AF
330
5AB
100
AcDbEntity
  8
Ma\U+00DFe
370
     0
100
AcDbVertex
100
AcDb2dVertex
 10
132.7490234375
 20
151.9013671875
 30
0.0
  0
VERTEX
  5
5B0
330
5AB
100
AcDbEntity
  8
Ma\U+00DFe
370
     0
100
AcDbVertex
100
AcDb2dVertex
 10
133.3896484375
 20
152.2216796875
 30
0.0
  0
VERTEX
  5
5B1
330
5AB
100
AcDbEntity
  8
Ma\U+00DFe
370
     0
100
AcDbVertex
100
AcDb2dVertex
 10
134.0888671875
 20
152.36181640625
 30
0.0
  0
VERTEX
  5
5B2
330
5AB
100
AcDbEntity
  8
Ma\U+00DFe
370
     0
100
AcDbVertex
100
AcDb2dVertex
 10
134.779296875
 20
152.2216796875
 30
0.0
  0
VERTEX
  5
5B3
330
5AB
100
AcDbEntity
  8
Ma\U+00DFe
370
     0
100
AcDbVertex
100
AcDb2dVertex
 10
135.3388671875
 20
151.87158203125
 30
0.0
  0
VERTEX
  5
5B4
330
5AB
100
AcDbEntity
  8
Ma\U+00DFe
370
     0
100
AcDbVertex
100
AcDb2dVertex
 10
135.71875
 20
151.32177734375
 30
0.0
  0
VERTEX
  5
5B5
330
5AB
100
AcDbEntity
  8
Ma\U+00DFe
370
     0
100
AcDbVertex
100
AcDb2dVertex
 10
135.859375
 20
150.6416015625
 30
0.0
  0
VERTEX
  5
5B6
330
5AB
100
AcDbEntity
  8
Ma\U+00DFe
370
     0
100
AcDbVertex
100
AcDb2dVertex
 10
135.71875
 20
149.91162109375
 30
0.0
  0
VERTEX
  5
5B7
330
5AB
100
AcDbEntity
  8
Ma\U+00DFe
370
     0
100
AcDbVertex
100
AcDb2dVertex
 10
135.3486328125
 20
149.341796875
 30
0.0
  0
VERTEX
  5
5B8
330
5AB
100
AcDbEntity
  8
Ma\U+00DFe
370
     0
100
AcDbVertex
100
AcDb2dVertex
 10
134.7890625
 20
148.95166015625
 30
0.0
  0
VERTEX
  5
5B9
330
5AB
100
AcDbEntity
  8
Ma\U+00DFe
370
     0
100
AcDbVertex
100
AcDb2dVertex
 10
134.0693359375
 20
148.82177734375
 30
0.0
  0
VERTEX
  5
5BA
330
5AB
100
AcDbEntity
  8
Ma\U+00DFe
370
     0
100
AcDbVertex
100
AcDb2dVertex
 10
133.1494140625
 20
149.091796875
 30
0.0
  0
VERTEX
  5
5BB
330
5AB
100
AcDbEntity
  8
Ma\U+00DFe
370
     0
100
AcDbVertex
100
AcDb2dVertex
 10
132.5087890625
 20
149.8115234375
 30
0.0
  0
VERTEX
  5
5BC
330
5AB
100
AcDbEntity
  8
Ma\U+00DFe
370
     0
100
AcDbVertex
100
AcDb2dVertex
 10
131.87890625
 20
149.36181640625
 30
0.0
  0
VERTEX
  5
5BD
330
5AB
100
AcDbEntity
  8
Ma\U+00DFe
370
     0
100
AcDbVertex
100
AcDb2dVertex
 10
132.279296875
 20
148.82177734375
 30
0.0
  0
VERTEX
  5
5BE
330
5AB
100
AcDbEntity
  8
Ma\U+00DFe
370
     0
100
AcDbVertex
100
AcDb2dVertex
 10
132.7890625
 20
148.421875
 30
0.0
  0
VERTEX
  5
5BF
330
5AB
100
AcDbEntity
  8
Ma\U+00DFe
370
     0
100
AcDbVertex
100
AcDb2dVertex
 10
133.37890625
 20
148.181640625
 30
0.0
  0
VERTEX
  5
5C0
330
5AB
100
AcDbEntity
  8
Ma\U+00DFe
370
     0
100
AcDbVertex
100
AcDb2dVertex
 10
134.048828125
 20
148.091796875
 30
0.0
  0
VERTEX
  5
5C1
330
5AB
100
AcDbEntity
  8
Ma\U+00DFe
370
     0
100
AcDbVertex
100
AcDb2dVertex
 10
135.0595703125
 20
148.28173828125
 30
0.0
  0
VERTEX
  5
5C2
330
5AB
100
AcDbEntity
  8
Ma\U+00DFe
370
     0
100
AcDbVertex
100
AcDb2dVertex
 10
135.8896484375
 20
148.8017578125
 30
0.0
  0
VERTEX
  5
5C3
330
5AB
100
AcDbEntity
  8
Ma\U+00DFe
370
     0
100
AcDbVertex
100
AcDb2dVertex
 10
136.439453125
 20
149.6015625
 30
0.0
  0
VERTEX
  5
5C4
330
5AB
100
AcDbEntity
  8
Ma\U+00DFe
370
     0
100
AcDbVertex
100
AcDb2dVertex
 10
136.6494140625
 20
150.62158203125
 30
0.0
  0
VERTEX
  5
5C5
330
5AB
100
AcDbEntity
  8
Ma\U+00DFe
370
     0
100
AcDbVertex
100
AcDb2dVertex
 10
136.46875
 20
151.57177734375
 30
0.0
  0
VERTEX
  5
5C6
330
5AB
100
AcDbEntity
  8
Ma\U+00DFe
370
     0
100
AcDbVertex
100
AcDb2dVertex
 10
135.9892578125
 20
152.36181640625
 30
0.0
  0
VERTEX
  5
5C7
330
5AB
100
AcDbEntity
  8
Ma\U+00DFe
370
     0
100
AcDbVertex
100
AcDb2dVertex
 10
135.2490234375
 20
152.8916015625
 30
0.0
  0
VERTEX
  5
5C8
330
5AB
100
AcDbEntity
  8
Ma\U+00DFe
370
     0
100
AcDbVertex
100
AcDb2dVertex
 10
134.2890625
 20
153.091796875
 30
0.0
  0
VERTEX
  5
5C9
330
5AB
100
AcDbEntity
  8
Ma\U+00DFe
370
     0
100
AcDbVertex
100
AcDb2dVertex
 10
133.869140625
 20
153.0517578125
 30
0.0
  0
VERTEX
  5
5CA
330
5AB
100
AcDbEntity
  8
Ma\U+00DFe
370
     0
100
AcDbVertex
100
AcDb2dVertex
 10
134.3291015625
 20
154.5615234375
 30
0.0
  0
VERTEX
  5
5CB
330
5AB
100
AcDbEntity
  8
Ma\U+00DFe
370
     0
100
AcDbVertex
100
AcDb2dVertex
 10
136.5888671875
 20
154.5615234375
 30
0.0
  0
SEQEND
  5
5CC
330
5AB
100
AcDbEntity
  8
Ma\U+00DFe
370
     0
  0
HATCH
  5
5CD
330
3D6
100
AcDbEntity
  8
Ma\U+00DFe
 62
   250
420
  1709851
100
AcDbHatch
 10
0.0
 20
0.0
 30
0.0
210
0.0
220
0.0
230
1.0
  2
SOLID
 70
     1
 71
     0
 91
        3
 92
        1
 93
       31
 72
     1
 10
136.5888671875
 20
154.5615234375
 11
136.5888671875
 21
155.3017578125
 72
     1
 10
136.5888671875
 20
155.3017578125
 11
133.7685546875
 21
155.3017578125
 72
     1
 10
133.7685546875
 20
155.3017578125
 11
132.7490234375
 21
151.9013671875
 72
     1
 10
132.7490234375
 20
151.9013671875
 11
133.3896484375
 21
152.2216796875
 72
     1
 10
133.3896484375
 20
152.2216796875
 11
134.0888671875
 21
152.36181640625
 72
     1
 10
134.0888671875
 20
152.36181640625
 11
134.779296875
 21
152.2216796875
 72
     1
 10
134.779296875
 20
152.2216796875
 11
135.3388671875
 21
151.87158203125
 72
     1
 10
135.3388671875
 20
151.87158203125
 11
135.71875
 21
151.32177734375
 72
     1
 10
135.71875
 20
151.32177734375
 11
135.859375
 21
150.6416015625
 72
     1
 10
135.859375
 20
150.6416015625
 11
135.71875
 21
149.91162109375
 72
     1
 10
135.71875
 20
149.91162109375
 11
135.3486328125
 21
149.341796875
 72
     1
 10
135.3486328125
 20
149.341796875
 11
134.7890625
 21
148.95166015625
 72
     1
 10
134.7890625
 20
148.95166015625
 11
134.0693359375
 21
148.82177734375
 72
     1
 10
134.0693359375
 20
148.82177734375
 11
133.1494140625
 21
149.091796875
 72
     1
 10
133.1494140625
 20
149.091796875
 11
132.5087890625
 21
149.8115234375
 72
     1
 10
132.5087890625
 20
149.8115234375
 11
131.87890625
 21
149.36181640625
 72
     1
 10
131.87890625
 20
149.36181640625
 11
132.279296875
 21
148.82177734375
 72
     1
 10
132.279296875
 20
148.82177734375
 11
132.7890625
 21
148.421875
 72
     1
 10
132.7890625
 20
148.421875
 11
133.37890625
 21
148.181640625
 72
     1
 10
133.37890625
 20
148.181640625
 11
134.048828125
 21
148.091796875
 72
     1
 10
134.048828125
 20
148.091796875
 11
135.0595703125
 21
148.28173828125
 72
     1
 10
135.0595703125
 20
148.28173828125
 11
135.8896484375
 21
148.8017578125
 72
     1
 10
135.8896484375
 20
148.8017578125
 11
136.439453125
 21
149.6015625
 72
     1
 10
136.439453125
 20
149.6015625
 11
136.6494140625
 21
150.62158203125
 72
     1
 10
136.6494140625
 20
150.62158203125
 11
136.46875
 21
151.57177734375
 72
     1
 10
136.46875
 20
151.57177734375
 11
135.9892578125
 21
152.36181640625
 72
     1
 10
135.9892578125
 20
152.36181640625
 11
135.2490234375
 21
152.8916015625
 72
     1
 10
135.2490234375
 20
152.8916015625
 11
134.2890625
 21
153.091796875
 72
     1
 10
134.2890625
 20
153.091796875
 11
133.869140625
 21
153.0517578125
 72
     1
 10
133.869140625
 20
153.0517578125
 11
134.3291015625
 21
154.5615234375
 72
     1
 10
134.3291015625
 20
154.5615234375
 11
136.5888671875
 21
154.5615234375
 97
        0
 92
        1
 93
       10
 72
     1
 10
128.94921875
 20
150.091796875
 11
128.94921875
 21
155.69140625
 72
     1
 10
128.94921875
 20
155.69140625
 11
128.9287109375
 21
155.69140625
 72
     1
 10
128.9287109375
 20
155.69140625
 11
124.529296875
 21
149.36181640625
 72
     1
 10
124.529296875
 20
149.36181640625
 11
128.1591796875
 21
149.36181640625
 72
     1
 10
128.1591796875
 20
149.36181640625
 11
128.1591796875
 21
148.2119140625
 72
     1
 10
128.1591796875
 20
148.2119140625
 11
128.94921875
 21
148.2119140625
 72
     1
 10
128.94921875
 20
148.2119140625
 11
128.94921875
 21
149.36181640625
 72
     1
 10
128.94921875
 20
149.36181640625
 11
129.8193359375
 21
149.36181640625
 72
     1
 10
129.8193359375
 20
149.36181640625
 11
129.8193359375
 21
150.091796875
 72
     1
 10
129.8193359375
 20
150.091796875
 11
128.94921875
 21
150.091796875
 97
        0
 92
        1
 93
        4
 72
     1
 10
128.1591796875
 20
150.091796875
 11
125.9091796875
 21
150.091796875
 72
     1
 10
125.9091796875
 20
150.091796875
 11
128.1396484375
 21
153.29150390625
 72
     1
 10
128.1396484375
 20
153.29150390625
 11
128.1591796875
 21
153.29150390625
 72
     1
 10
128.1591796875
 20
153.29150390625
 11
128.1591796875
 21
150.091796875
 97
        0
 75
     0
 76
     1
 98
        0
  0
POLYLINE
  5
5CE
330
3D6
100
AcDbEntity
  8
Ma\U+00DFe
 62
   250
420
  1709851
370
    18
100
AcDb2dPolyline
 66
     1
 10
0.0
 20
0.0
 30
0.0
  0
VERTEX
  5
5CF
330
5CE
100
AcDbEntity
  8
Ma\U+00DFe
 62
   250
420
  1709851
370
    18
100
AcDbVertex
100
AcDb2dVertex
 10
145.0888671875
 20
151.751953125
 30
0.0
  0
VERTEX
  5
5D0
330
5CE
100
AcDbEntity
  8
Ma\U+00DFe
 62
   250
420
  1709851
370
    18
100
AcDbVertex
100
AcDb2dVertex
 10
153.12890625
 20
151.751953125
 30
0.0
  0
SEQEND
  5
5D1
330
5CE
100
AcDbEntity
  8
Ma\U+00DFe
370
    18
  0
POLYLINE
  5
5D2
330
3D6
100
AcDbEntity
  8
Ma\U+00DFe
 62
   250
420
  1709851
370
    18
100
AcDb2dPolyline
 66
     1
 10
0.0
 20
0.0
 30
0.0
  0
VERTEX
  5
5D3
330
5D2
100
AcDbEntity
  8
Ma\U+00DFe
 62
   250
420
  1709851
370
    18
100
AcDbVertex
100
AcDb2dVertex
 10
145.0888671875
 20
155.3017578125
 30
0.0
  0
VERTEX
  5
5D4
330
5D2
100
AcDbEntity
  8
Ma\U+00DFe
 62
   250
420
  1709851
370
    18
100
AcDbVertex
100
AcDb2dVertex
 10
138.94921875
 20
151.751953125
 30
0.0
  0
VERTEX
  5
5D5
330
5D2
100
AcDbEntity
  8
Ma\U+00DFe
 62
   250
420
  1709851
370
    18
100
AcDbVertex
100
AcDb2dVertex
 10
145.0888671875
 20
148.2119140625
 30
0.0
  0
VERTEX
  5
5D6
330
5D2
100
AcDbEntity
  8
Ma\U+00DFe
 62
   250
420
  1709851
370
    18
100
AcDbVertex
100
AcDb2dVertex
 10
145.0888671875
 20
155.3017578125
 30
0.0
  0
SEQEND
  5
5D7
330
5D2
100
AcDbEntity
  8
Ma\U+00DFe
370
    18
  0
INSERT
  5
5D9
330
3D6
100
AcDbEntity
  8
Ma\U+00DFe
100
AcDbBlockReference
  2
block 6
 10
0.0
 20
0.0
 30
0.0
  0
ENDBLK
  5
3D9
330
3D6
100
AcDbEntity
  8
0
100
AcDbBlockEnd
  0
BLOCK
  5
3DC
330
3DA
100
AcDbEntity
  8
0
100
AcDbBlockBegin
  2
block 5
 70
     0
 71
     0
 10
0.0
 20
0.0
 30
0.0
  3
block 5
  1

  0
SPLINE
  5
3DE
330
3DA
100
AcDbEntity
  8
Ma\U+00DFe
 62
   250
420
  1709851
370
    50
100
AcDbSpline
210
0.0
220
0.0
230
1.0
 70
     8
 71
     3
 72
     8
 73
     4
 74
     0
 42
0.0000000001
 43
0.0000000001
 40
0.0
 40
0.0
 40
0.0
 40
0.0
 40
1.0
 40
1.0
 40
1.0
 40
1.0
 10
131.6787109375
 20
130.57177734375
 30
0.0
 10
131.3515625
 20
129.755859375
 30
0.0
 10
131.0654296875
 20
128.9453125
 30
0.0
 10
130.8193359375
 20
128.1015625
 30
0.0
  0
SPLINE
  5
3DF
330
3DA
100
AcDbEntity
  8
Ma\U+00DFe
 62
   250
420
  1709851
370
    50
100
AcDbSpline
210
0.0
220
0.0
230
1.0
 70
     8
 71
     3
 72
    14
 73
    10
 74
     0
 42
0.0000000001
 43
0.0000000001
 40
0.0
 40
0.0
 40
0.0
 40
0.0
 40
1.0
 40
1.0
 40
1.0
 40
2.0
 40
2.0
 40
2.0
 40
3.0
 40
3.0
 40
3.0
 40
3.0
 10
132.048828125
 20
83.8310546875
 30
0.0
 10
132.0859375
 20
83.1630859375
 30
0.0
 10
132.5185546875
 20
82.4453125
 30
0.0
 10
133.0986328125
 20
82.1123046875
 30
0.0
 10
133.0986328125
 20
82.1123046875
 30
0.0
 10
133.5390625
 20
81.9443359375
 30
0.0
 10
133.5390625
 20
81.9443359375
 30
0.0
 10
133.716796875
 20
81.8779296875
 30
0.0
 10
133.9423828125
 20
81.8095703125
 30
0.0
 10
134.1396484375
 20
81.8212890625
 30
0.0
  0
POLYLINE
  5
3E0
330
3DA
100
AcDbEntity
  8
Ma\U+00DFe
 62
   250
420
  1709851
370
    50
100
AcDb2dPolyline
 66
     1
 10
0.0
 20
0.0
 30
0.0
  0
VERTEX
  5
3E1
330
3E0
100
AcDbEntity
  8
Ma\U+00DFe
 62
   250
420
  1709851
370
    50
100
AcDbVertex
100
AcDb2dVertex
 10
131.87890625
 20
87.001953125
 30
0.0
  0
VERTEX
  5
3E2
330
3E0
100
AcDbEntity
  8
Ma\U+00DFe
 62
   250
420
  1709851
370
    50
100
AcDbVertex
100
AcDb2dVertex
 10
132.048828125
 20
83.8310546875
 30
0.0
  0
SEQEND
  5
3E3
330
3E0
100
AcDbEntity
  8
Ma\U+00DFe
370
    50
  0
POLYLINE
  5
3E4
330
3DA
100
AcDbEntity
  8
Ma\U+00DFe
 62
   250
420
  1709851
370
    50
100
AcDb2dPolyline
 66
     1
 10
0.0
 20
0.0
 30
0.0
  0
VERTEX
  5
3E5
330
3E4
100
AcDbEntity
  8
Ma\U+00DFe
 62
   250
420
  1709851
370
    50
100
AcDbVertex
100
AcDb2dVertex
 10
134.1396484375
 20
81.8212890625
 30
0.0
  0
VERTEX
  5
3E6
330
3E4
100
AcDbEntity
  8
Ma\U+00DFe
 62
   250
420
  1709851
370
    50
100
AcDbVertex
100
AcDb2dVertex
 10
134.609375
 20
81.8115234375
 30
0.0
  0
SEQEND
  5
3E7
330
3E4
100
AcDbEntity
  8
Ma\U+00DFe
370
    50
  0
POLYLINE
  5
3E8
330
3DA
100
AcDbEntity
  8
Ma\U+00DFe
 62
   250
420
  1709851
370
    50
100
AcDb2dPolyline
 66
     1
 10
0.0
 20
0.0
 30
0.0
  0
VERTEX
  5
3E9
330
3E8
100
AcDbEntity
  8
Ma\U+00DFe
 62
   250
420
  1709851
370
    50
100
AcDbVertex
100
AcDb2dVertex
 10
137.4189453125
 20
140.8515625
 30
0.0
  0
VERTEX
  5
3EA
330
3E8
100
AcDbEntity
  8
Ma\U+00DFe
 62
   250
420
  1709851
370
    50
100
AcDbVertex
100
AcDb2dVertex
 10
138.5888671875
 20
140.87158203125
 30
0.0
  0
SEQEND
  5
3EB
330
3E8
100
AcDbEntity
  8
Ma\U+00DFe
370
    50
  0
SPLINE
  5
3EC
330
3DA
100
AcDbEntity
  8
Ma\U+00DFe
 62
   250
420
  1709851
370
    50
100
AcDbSpline
210
0.0
220
0.0
230
1.0
 70
     8
 71
     3
 72
    14
 73
    10
 74
     0
 42
0.0000000001
 43
0.0000000001
 40
0.0
 40
0.0
 40
0.0
 40
0.0
 40
1.0
 40
1.0
 40
1.0
 40
2.0
 40
2.0
 40
2.0
 40
3.0
 40
3.0
 40
3.0
 40
3.0
 10
137.4189453125
 20
140.8515625
 30
0.0
 10
137.0224609375
 20
140.841796875
 30
0.0
 10
136.4287109375
 20
140.630859375
 30
0.0
 10
136.119140625
 20
140.3818359375
 30
0.0
 10
136.119140625
 20
140.3818359375
 30
0.0
 10
135.8056640625
 20
140.0283203125
 30
0.0
 10
135.8056640625
 20
140.0283203125
 30
0.0
 10
135.6904296875
 20
139.89794921875
 30
0.0
 10
135.55078125
 20
139.72705078125
 30
0.0
 10
135.4990234375
 20
139.5517578125
 30
0.0
  0
POLYLINE
  5
3ED
330
3DA
100
AcDbEntity
  8
Ma\U+00DFe
 62
   250
420
  1709851
370
    50
100
AcDb2dPolyline
 66
     1
 10
0.0
 20
0.0
 30
0.0
  0
VERTEX
  5
3EE
330
3ED
100
AcDbEntity
  8
Ma\U+00DFe
 62
   250
420
  1709851
370
    50
100
AcDbVertex
100
AcDb2dVertex
 10
136.9990234375
 20
135.841796875
 30
0.0
  0
VERTEX
  5
3EF
330
3ED
100
AcDbEntity
  8
Ma\U+00DFe
 62
   250
420
  1709851
370
    50
100
AcDbVertex
100
AcDb2dVertex
 10
138.9189453125
 20
140.37158203125
 30
0.0
  0
SEQEND
  5
3F0
330
3ED
100
AcDbEntity
  8
Ma\U+00DFe
370
    50
  0
POLYLINE
  5
3F1
330
3DA
100
AcDbEntity
  8
Ma\U+00DFe
 62
   250
420
  1709851
370
    50
100
AcDb2dPolyline
 66
     1
 10
0.0
 20
0.0
 30
0.0
  0
VERTEX
  5
3F2
330
3F1
100
AcDbEntity
  8
Ma\U+00DFe
 62
   250
420
  1709851
370
    50
100
AcDbVertex
100
AcDb2dVertex
 10
136.9990234375
 20
135.841796875
 30
0.0
  0
VERTEX
  5
3F3
330
3F1
100
AcDbEntity
  8
Ma\U+00DFe
 62
   250
420
  1709851
370
    50
100
AcDbVertex
100
AcDb2dVertex
 10
134.2890625
 20
129.4619140625
 30
0.0
  0
SEQEND
  5
3F4
330
3F1
100
AcDbEntity
  8
Ma\U+00DFe
370
    50
  0
POLYLINE
  5
3F5
330
3DA
100
AcDbEntity
  8
Ma\U+00DFe
 62
   250
420
  1709851
370
    50
100
AcDb2dPolyline
 66
     1
 10
0.0
 20
0.0
 30
0.0
  0
VERTEX
  5
3F6
330
3F5
100
AcDbEntity
  8
Ma\U+00DFe
 62
   250
420
  1709851
370
    50
100
AcDbVertex
100
AcDb2dVertex
 10
134.2890625
 20
129.4619140625
 30
0.0
  0
VERTEX
  5
3F7
330
3F5
100
AcDbEntity
  8
Ma\U+00DFe
 62
   250
420
  1709851
370
    50
100
AcDbVertex
100
AcDb2dVertex
 10
134.2294921875
 20
129.32177734375
 30
0.0
  0
SEQEND
  5
3F8
330
3F5
100
AcDbEntity
  8
Ma\U+00DFe
370
    50
  0
SPLINE
  5
3F9
330
3DA
100
AcDbEntity
  8
Ma\U+00DFe
 62
   250
420
  1709851
370
    50
100
AcDbSpline
210
0.0
220
0.0
230
1.0
 70
     8
 71
     3
 72
    11
 73
     7
 74
     0
 42
0.0000000001
 43
0.0000000001
 40
0.0
 40
0.0
 40
0.0
 40
0.0
 40
1.0
 40
1.0
 40
1.0
 40
2.0
 40
2.0
 40
2.0
 40
2.0
 10
134.2294921875
 20
129.32177734375
 30
0.0
 10
133.2236328125
 20
126.7392578125
 30
0.0
 10
132.8203125
 20
124.4833984375
 30
0.0
 10
132.8994140625
 20
121.7119140625
 30
0.0
 10
132.8994140625
 20
121.7119140625
 30
0.0
 10
132.9091796875
 20
121.6318359375
 30
0.0
 10
132.9091796875
 20
121.6318359375
 30
0.0
  0
POLYLINE
  5
3FA
330
3DA
100
AcDbEntity
  8
Ma\U+00DFe
 62
   250
420
  1709851
370
    50
100
AcDb2dPolyline
 66
     1
 10
0.0
 20
0.0
 30
0.0
  0
VERTEX
  5
3FB
330
3FA
100
AcDbEntity
  8
Ma\U+00DFe
 62
   250
420
  1709851
370
    50
100
AcDbVertex
100
AcDb2dVertex
 10
132.9091796875
 20
121.6318359375
 30
0.0
  0
VERTEX
  5
3FC
330
3FA
100
AcDbEntity
  8
Ma\U+00DFe
 62
   250
420
  1709851
370
    50
100
AcDbVertex
100
AcDb2dVertex
 10
132.9091796875
 20
121.61181640625
 30
0.0
  0
SEQEND
  5
3FD
330
3FA
100
AcDbEntity
  8
Ma\U+00DFe
370
    50
  0
POLYLINE
  5
3FE
330
3DA
100
AcDbEntity
  8
Ma\U+00DFe
 62
   250
420
  1709851
370
    50
100
AcDb2dPolyline
 66
     1
 10
0.0
 20
0.0
 30
0.0
  0
VERTEX
  5
3FF
330
3FE
100
AcDbEntity
  8
Ma\U+00DFe
 62
   250
420
  1709851
370
    50
100
AcDbVertex
100
AcDb2dVertex
 10
132.9091796875
 20
121.61181640625
 30
0.0
  0
VERTEX
  5
400
330
3FE
100
AcDbEntity
  8
Ma\U+00DFe
 62
   250
420
  1709851
370
    50
100
AcDbVertex
100
AcDb2dVertex
 10
134.71875
 20
87.1318359375
 30
0.0
  0
SEQEND
  5
401
330
3FE
100
AcDbEntity
  8
Ma\U+00DFe
370
    50
  0
POLYLINE
  5
402
330
3DA
100
AcDbEntity
  8
Ma\U+00DFe
 62
   250
420
  1709851
370
    50
100
AcDb2dPolyline
 66
     1
 10
0.0
 20
0.0
 30
0.0
  0
VERTEX
  5
403
330
402
100
AcDbEntity
  8
Ma\U+00DFe
 62
   250
420
  1709851
370
    50
100
AcDbVertex
100
AcDb2dVertex
 10
134.96875
 20
82.181640625
 30
0.0
  0
VERTEX
  5
404
330
402
100
AcDbEntity
  8
Ma\U+00DFe
 62
   250
420
  1709851
370
    50
100
AcDbVertex
100
AcDb2dVertex
 10
134.71875
 20
87.1318359375
 30
0.0
  0
SEQEND
  5
405
330
402
100
AcDbEntity
  8
Ma\U+00DFe
370
    50
  0
POLYLINE
  5
406
330
3DA
100
AcDbEntity
  8
Ma\U+00DFe
 62
   250
420
  1709851
370
    50
100
AcDb2dPolyline
 66
     1
 10
0.0
 20
0.0
 30
0.0
  0
VERTEX
  5
407
330
406
100
AcDbEntity
  8
Ma\U+00DFe
 62
   250
420
  1709851
370
    50
100
AcDbVertex
100
AcDb2dVertex
 10
138.9189453125
 20
140.37158203125
 30
0.0
  0
VERTEX
  5
408
330
406
100
AcDbEntity
  8
Ma\U+00DFe
 62
   250
420
  1709851
370
    50
100
AcDbVertex
100
AcDb2dVertex
 10
138.7392578125
 20
140.841796875
 30
0.0
  0
VERTEX
  5
409
330
406
100
AcDbEntity
  8
Ma\U+00DFe
 62
   250
420
  1709851
370
    50
100
AcDbVertex
100
AcDb2dVertex
 10
138.5888671875
 20
140.87158203125
 30
0.0
  0
SEQEND
  5
40A
330
406
100
AcDbEntity
  8
Ma\U+00DFe
370
    50
  0
POLYLINE
  5
40B
330
3DA
100
AcDbEntity
  8
Ma\U+00DFe
 62
   250
420
  1709851
370
    50
100
AcDb2dPolyline
 66
     1
 10
0.0
 20
0.0
 30
0.0
  0
VERTEX
  5
40C
330
40B
100
AcDbEntity
  8
Ma\U+00DFe
 62
   250
420
  1709851
370
    50
100
AcDbVertex
100
AcDb2dVertex
 10
135.4990234375
 20
139.5517578125
 30
0.0
  0
VERTEX
  5
40D
330
40B
100
AcDbEntity
  8
Ma\U+00DFe
 62
   250
420
  1709851
370
    50
100
AcDbVertex
100
AcDb2dVertex
 10
134.3291015625
 20
136.8017578125
 30
0.0
  0
SEQEND
  5
40E
330
40B
100
AcDbEntity
  8
Ma\U+00DFe
370
    50
  0
POLYLINE
  5
40F
330
3DA
100
AcDbEntity
  8
Ma\U+00DFe
 62
   250
420
  1709851
370
    50
100
AcDb2dPolyline
 66
     1
 10
0.0
 20
0.0
 30
0.0
  0
VERTEX
  5
410
330
40F
100
AcDbEntity
  8
Ma\U+00DFe
 62
   250
420
  1709851
370
    50
100
AcDbVertex
100
AcDb2dVertex
 10
134.609375
 20
81.8115234375
 30
0.0
  0
VERTEX
  5
411
330
40F
100
AcDbEntity
  8
Ma\U+00DFe
 62
   250
420
  1709851
370
    50
100
AcDbVertex
100
AcDb2dVertex
 10
134.9794921875
 20
82.1611328125
 30
0.0
  0
VERTEX
  5
412
330
40F
100
AcDbEntity
  8
Ma\U+00DFe
 62
   250
420
  1709851
370
    50
100
AcDbVertex
100
AcDb2dVertex
 10
134.96875
 20
82.181640625
 30
0.0
  0
SEQEND
  5
413
330
40F
100
AcDbEntity
  8
Ma\U+00DFe
370
    50
  0
POLYLINE
  5
414
330
3DA
100
AcDbEntity
  8
Ma\U+00DFe
 62
   250
420
  1709851
370
    50
100
AcDb2dPolyline
 66
     1
 10
0.0
 20
0.0
 30
0.0
  0
VERTEX
  5
415
330
414
100
AcDbEntity
  8
Ma\U+00DFe
 62
   250
420
  1709851
370
    50
100
AcDbVertex
100
AcDb2dVertex
 10
131.6787109375
 20
130.57177734375
 30
0.0
  0
VERTEX
  5
416
330
414
100
AcDbEntity
  8
Ma\U+00DFe
 62
   250
420
  1709851
370
    50
100
AcDbVertex
100
AcDb2dVertex
 10
134.3291015625
 20
136.8017578125
 30
0.0
  0
SEQEND
  5
417
330
414
100
AcDbEntity
  8
Ma\U+00DFe
370
    50
  0
POLYLINE
  5
418
330
3DA
100
AcDbEntity
  8
Ma\U+00DFe
 62
   250
420
  1709851
370
    50
100
AcDb2dPolyline
 66
     1
 10
0.0
 20
0.0
 30
0.0
  0
VERTEX
  5
419
330
418
100
AcDbEntity
  8
Ma\U+00DFe
 62
   250
420
  1709851
370
    50
100
AcDbVertex
100
AcDb2dVertex
 10
131.87890625
 20
87.001953125
 30
0.0
  0
VERTEX
  5
41A
330
418
100
AcDbEntity
  8
Ma\U+00DFe
 62
   250
420
  1709851
370
    50
100
AcDbVertex
100
AcDb2dVertex
 10
130.96875
 20
104.431640625
 30
0.0
  0
SEQEND
  5
41B
330
418
100
AcDbEntity
  8
Ma\U+00DFe
370
    50
  0
SPLINE
  5
41C
330
3DA
100
AcDbEntity
  8
Ma\U+00DFe
 62
   250
420
  1709851
370
    50
100
AcDbSpline
210
0.0
220
0.0
230
1.0
 70
     8
 71
     3
 72
    11
 73
     7
 74
     0
 42
0.0000000001
 43
0.0000000001
 40
0.0
 40
0.0
 40
0.0
 40
0.0
 40
1.0
 40
1.0
 40
1.0
 40
2.0
 40
2.0
 40
2.0
 40
2.0
 10
130.9287109375
 20
109.5517578125
 30
0.0
 10
131.015625
 20
108.3466796875
 30
0.0
 10
130.9765625
 20
107.1279296875
 30
0.0
 10
130.958984375
 20
105.921875
 30
0.0
 10
130.9521484375
 20
105.4287109375
 30
0.0
 10
130.9912109375
 20
104.9208984375
 30
0.0
 10
130.96875
 20
104.431640625
 30
0.0
  0
SPLINE
  5
41D
330
3DA
100
AcDbEntity
  8
Ma\U+00DFe
 62
   250
420
  1709851
370
    50
100
AcDbSpline
210
0.0
220
0.0
230
1.0
 70
     8
 71
     3
 72
     8
 73
     4
 74
     0
 42
0.0000000001
 43
0.0000000001
 40
0.0
 40
0.0
 40
0.0
 40
0.0
 40
1.0
 40
1.0
 40
1.0
 40
1.0
 10
127.869140625
 20
126.82177734375
 30
0.0
 10
129.3076171875
 20
126.8388671875
 30
0.0
 10
130.71484375
 20
127.8310546875
 30
0.0
 10
131.1591796875
 20
129.2119140625
 30
0.0
  0
SPLINE
  5
41E
330
3DA
100
AcDbEntity
  8
Ma\U+00DFe
 62
   250
420
  1709851
370
    50
100
AcDbSpline
210
0.0
220
0.0
230
1.0
 70
     8
 71
     3
 72
    11
 73
     7
 74
     0
 42
0.0000000001
 43
0.0000000001
 40
0.0
 40
0.0
 40
0.0
 40
0.0
 40
1.0
 40
1.0
 40
1.0
 40
2.0
 40
2.0
 40
2.0
 40
2.0
 10
131.0390625
 20
103.1318359375
 30
0.0
 10
130.9423828125
 20
104.6298828125
 30
0.0
 10
129.87109375
 20
106.0068359375
 30
0.0
 10
128.392578125
 20
106.3544921875
 30
0.0
 10
128.1220703125
 20
106.4189453125
 30
0.0
 10
127.8408203125
 20
106.4990234375
 30
0.0
 10
127.5595703125
 20
106.4814453125
 30
0.0
  0
SPLINE
  5
41F
330
3DA
100
AcDbEntity
  8
Ma\U+00DFe
 62
   250
420
  1709851
370
    50
100
AcDbSpline
210
0.0
220
0.0
230
1.0
 70
     8
 71
     3
 72
     8
 73
     4
 74
     0
 42
0.0000000001
 43
0.0000000001
 40
0.0
 40
0.0
 40
0.0
 40
0.0
 40
1.0
 40
1.0
 40
1.0
 40
1.0
 10
130.96875
 20
104.431640625
 30
0.0
 10
130.8759765625
 20
106.0615234375
 30
0.0
 10
128.99609375
 20
107.17578125
 30
0.0
 10
127.4892578125
 20
107.0712890625
 30
0.0
  0
SPLINE
  5
420
330
3DA
100
AcDbEntity
  8
Ma\U+00DFe
 62
   250
420
  1709851
370
    50
100
AcDbSpline
210
0.0
220
0.0
230
1.0
 70
     8
 71
     3
 72
     8
 73
     4
 74
     0
 42
0.0000000001
 43
0.0000000001
 40
0.0
 40
0.0
 40
0.0
 40
0.0
 40
1.0
 40
1.0
 40
1.0
 40
1.0
 10
127.8388671875
 20
109.3916015625
 30
0.0
 10
127.990234375
 20
108.58984375
 30
0.0
 10
127.4892578125
 20
107.8525390625
 30
0.0
 10
127.4892578125
 20
107.0712890625
 30
0.0
  0
SPLINE
  5
421
330
3DA
100
AcDbEntity
  8
Ma\U+00DFe
 62
   250
420
  1709851
370
    50
100
AcDbSpline
210
0.0
220
0.0
230
1.0
 70
     8
 71
     3
 72
     8
 73
     4
 74
     0
 42
0.0000000001
 43
0.0000000001
 40
0.0
 40
0.0
 40
0.0
 40
0.0
 40
1.0
 40
1.0
 40
1.0
 40
1.0
 10
127.8388671875
 20
109.3916015625
 30
0.0
 10
128.8701171875
 20
109.427734375
 30
0.0
 10
129.8994140625
 20
109.525390625
 30
0.0
 10
130.9287109375
 20
109.5517578125
 30
0.0
  0
POLYLINE
  5
422
330
3DA
100
AcDbEntity
  8
Ma\U+00DFe
 62
   250
420
  1709851
370
    50
100
AcDb2dPolyline
 66
     1
 10
0.0
 20
0.0
 30
0.0
  0
VERTEX
  5
423
330
422
100
AcDbEntity
  8
Ma\U+00DFe
 62
   250
420
  1709851
370
    50
100
AcDbVertex
100
AcDb2dVertex
 10
123.798828125
 20
106.5517578125
 30
0.0
  0
VERTEX
  5
424
330
422
100
AcDbEntity
  8
Ma\U+00DFe
 62
   250
420
  1709851
370
    50
100
AcDbVertex
100
AcDb2dVertex
 10
127.5595703125
 20
106.4814453125
 30
0.0
  0
SEQEND
  5
425
330
422
100
AcDbEntity
  8
Ma\U+00DFe
370
    50
  0
POLYLINE
  5
426
330
3DA
100
AcDbEntity
  8
Ma\U+00DFe
 62
   250
420
  1709851
370
    50
100
AcDb2dPolyline
 66
     1
 10
0.0
 20
0.0
 30
0.0
  0
VERTEX
  5
427
330
426
100
AcDbEntity
  8
Ma\U+00DFe
 62
   250
420
  1709851
370
    50
100
AcDbVertex
100
AcDb2dVertex
 10
123.69921875
 20
106.6611328125
 30
0.0
  0
VERTEX
  5
428
330
426
100
AcDbEntity
  8
Ma\U+00DFe
 62
   250
420
  1709851
370
    50
100
AcDbVertex
100
AcDb2dVertex
 10
123.798828125
 20
106.5517578125
 30
0.0
  0
SEQEND
  5
429
330
426
100
AcDbEntity
  8
Ma\U+00DFe
370
    50
  0
POLYLINE
  5
42A
330
3DA
100
AcDbEntity
  8
Ma\U+00DFe
 62
   250
420
  1709851
370
    50
100
AcDb2dPolyline
 66
     1
 10
0.0
 20
0.0
 30
0.0
  0
VERTEX
  5
42B
330
42A
100
AcDbEntity
  8
Ma\U+00DFe
 62
   250
420
  1709851
370
    50
100
AcDbVertex
100
AcDb2dVertex
 10
123.798828125
 20
126.751953125
 30
0.0
  0
VERTEX
  5
42C
330
42A
100
AcDbEntity
  8
Ma\U+00DFe
 62
   250
420
  1709851
370
    50
100
AcDbVertex
100
AcDb2dVertex
 10
123.69921875
 20
126.6416015625
 30
0.0
  0
SEQEND
  5
42D
330
42A
100
AcDbEntity
  8
Ma\U+00DFe
370
    50
  0
POLYLINE
  5
42E
330
3DA
100
AcDbEntity
  8
Ma\U+00DFe
 62
   250
420
  1709851
370
    50
100
AcDb2dPolyline
 66
     1
 10
0.0
 20
0.0
 30
0.0
  0
VERTEX
  5
42F
330
42E
100
AcDbEntity
  8
Ma\U+00DFe
 62
   250
420
  1709851
370
    50
100
AcDbVertex
100
AcDb2dVertex
 10
123.69921875
 20
123.91162109375
 30
0.0
  0
VERTEX
  5
430
330
42E
100
AcDbEntity
  8
Ma\U+00DFe
 62
   250
420
  1709851
370
    50
100
AcDbVertex
100
AcDb2dVertex
 10
123.69921875
 20
126.6416015625
 30
0.0
  0
SEQEND
  5
431
330
42E
100
AcDbEntity
  8
Ma\U+00DFe
370
    50
  0
POLYLINE
  5
432
330
3DA
100
AcDbEntity
  8
Ma\U+00DFe
 62
   250
420
  1709851
370
    50
100
AcDb2dPolyline
 66
     1
 10
0.0
 20
0.0
 30
0.0
  0
VERTEX
  5
433
330
432
100
AcDbEntity
  8
Ma\U+00DFe
 62
   250
420
  1709851
370
    50
100
AcDbVertex
100
AcDb2dVertex
 10
127.5185546875
 20
126.82177734375
 30
0.0
  0
VERTEX
  5
434
330
432
100
AcDbEntity
  8
Ma\U+00DFe
 62
   250
420
  1709851
370
    50
100
AcDbVertex
100
AcDb2dVertex
 10
126.958984375
 20
126.8115234375
 30
0.0
  0
SEQEND
  5
435
330
432
100
AcDbEntity
  8
Ma\U+00DFe
370
    50
  0
POLYLINE
  5
436
330
3DA
100
AcDbEntity
  8
Ma\U+00DFe
 62
   250
420
  1709851
370
    50
100
AcDb2dPolyline
 66
     1
 10
0.0
 20
0.0
 30
0.0
  0
VERTEX
  5
437
330
436
100
AcDbEntity
  8
Ma\U+00DFe
 62
   250
420
  1709851
370
    50
100
AcDbVertex
100
AcDb2dVertex
 10
127.5185546875
 20
126.82177734375
 30
0.0
  0
VERTEX
  5
438
330
436
100
AcDbEntity
  8
Ma\U+00DFe
 62
   250
420
  1709851
370
    50
100
AcDbVertex
100
AcDb2dVertex
 10
127.869140625
 20
126.82177734375
 30
0.0
  0
SEQEND
  5
439
330
436
100
AcDbEntity
  8
Ma\U+00DFe
370
    50
  0
POLYLINE
  5
43A
330
3DA
100
AcDbEntity
  8
Ma\U+00DFe
 62
   250
420
  1709851
370
    50
100
AcDb2dPolyline
 66
     1
 10
0.0
 20
0.0
 30
0.0
  0
VERTEX
  5
43B
330
43A
100
AcDbEntity
  8
Ma\U+00DFe
 62
   250
420
  1709851
370
    50
100
AcDbVertex
100
AcDb2dVertex
 10
123.798828125
 20
126.751953125
 30
0.0
  0
VERTEX
  5
43C
330
43A
100
AcDbEntity
  8
Ma\U+00DFe
 62
   250
420
  1709851
370
    50
100
AcDbVertex
100
AcDb2dVertex
 10
126.958984375
 20
126.8115234375
 30
0.0
  0
SEQEND
  5
43D
330
43A
100
AcDbEntity
  8
Ma\U+00DFe
370
    50
  0
POLYLINE
  5
43E
330
3DA
100
AcDbEntity
  8
Ma\U+00DFe
 62
   250
420
  1709851
370
    50
100
AcDb2dPolyline
 66
     1
 10
0.0
 20
0.0
 30
0.0
  0
VERTEX
  5
43F
330
43E
100
AcDbEntity
  8
Ma\U+00DFe
 62
   250
420
  1709851
370
    50
100
AcDbVertex
100
AcDb2dVertex
 10
125.46875
 20
70.0615234375
 30
0.0
  0
VERTEX
  5
440
330
43E
100
AcDbEntity
  8
Ma\U+00DFe
 62
   250
420
  1709851
370
    50
100
AcDbVertex
100
AcDb2dVertex
 10
128.119140625
 20
70.0615234375
 30
0.0
  0
SEQEND
  5
441
330
43E
100
AcDbEntity
  8
Ma\U+00DFe
370
    50
  0
POLYLINE
  5
442
330
3DA
100
AcDbEntity
  8
Ma\U+00DFe
 62
   250
420
  1709851
370
    50
100
AcDb2dPolyline
 66
     1
 10
0.0
 20
0.0
 30
0.0
  0
VERTEX
  5
443
330
442
100
AcDbEntity
  8
Ma\U+00DFe
 62
   250
420
  1709851
370
    50
100
AcDbVertex
100
AcDb2dVertex
 10
123.69921875
 20
71.8310546875
 30
0.0
  0
VERTEX
  5
444
330
442
100
AcDbEntity
  8
Ma\U+00DFe
 62
   250
420
  1709851
370
    50
100
AcDbVertex
100
AcDb2dVertex
 10
123.8291015625
 20
71.1513671875
 30
0.0
  0
VERTEX
  5
445
330
442
100
AcDbEntity
  8
Ma\U+00DFe
 62
   250
420
  1709851
370
    50
100
AcDbVertex
100
AcDb2dVertex
 10
124.21875
 20
70.5712890625
 30
0.0
  0
VERTEX
  5
446
330
442
100
AcDbEntity
  8
Ma\U+00DFe
 62
   250
420
  1709851
370
    50
100
AcDbVertex
100
AcDb2dVertex
 10
124.798828125
 20
70.19140625
 30
0.0
  0
VERTEX
  5
447
330
442
100
AcDbEntity
  8
Ma\U+00DFe
 62
   250
420
  1709851
370
    50
100
AcDbVertex
100
AcDb2dVertex
 10
125.46875
 20
70.0615234375
 30
0.0
  0
SEQEND
  5
448
330
442
100
AcDbEntity
  8
Ma\U+00DFe
370
    50
  0
POLYLINE
  5
449
330
3DA
100
AcDbEntity
  8
Ma\U+00DFe
 62
   250
420
  1709851
370
    50
100
AcDb2dPolyline
 66
     1
 10
0.0
 20
0.0
 30
0.0
  0
VERTEX
  5
44A
330
449
100
AcDbEntity
  8
Ma\U+00DFe
 62
   250
420
  1709851
370
    50
100
AcDbVertex
100
AcDb2dVertex
 10
131.029296875
 20
71.5712890625
 30
0.0
  0
VERTEX
  5
44B
330
449
100
AcDbEntity
  8
Ma\U+00DFe
 62
   250
420
  1709851
370
    50
100
AcDbVertex
100
AcDb2dVertex
 10
131.939453125
 20
72.8720703125
 30
0.0
  0
SEQEND
  5
44C
330
449
100
AcDbEntity
  8
Ma\U+00DFe
370
    50
  0
SPLINE
  5
44D
330
3DA
100
AcDbEntity
  8
Ma\U+00DFe
 62
   250
420
  1709851
370
    50
100
AcDbSpline
210
0.0
220
0.0
230
1.0
 70
     8
 71
     3
 72
     8
 73
     4
 74
     0
 42
0.0000000001
 43
0.0000000001
 40
0.0
 40
0.0
 40
0.0
 40
0.0
 40
1.0
 40
1.0
 40
1.0
 40
1.0
 10
128.119140625
 20
70.0615234375
 30
0.0
 10
129.2236328125
 20
70.0654296875
 30
0.0
 10
130.412109375
 20
70.640625
 30
0.0
 10
131.029296875
 20
71.5712890625
 30
0.0
  0
POLYLINE
  5
44E
330
3DA
100
AcDbEntity
  8
Ma\U+00DFe
 62
   250
420
  1709851
370
    50
100
AcDb2dPolyline
 66
     1
 10
0.0
 20
0.0
 30
0.0
  0
VERTEX
  5
44F
330
44E
100
AcDbEntity
  8
Ma\U+00DFe
 62
   250
420
  1709851
370
    50
100
AcDbVertex
100
AcDb2dVertex
 10
123.69921875
 20
126.57177734375
 30
0.0
  0
VERTEX
  5
450
330
44E
100
AcDbEntity
  8
Ma\U+00DFe
 62
   250
420
  1709851
370
    50
100
AcDbVertex
100
AcDb2dVertex
 10
123.5185546875
 20
126.751953125
 30
0.0
  0
SEQEND
  5
451
330
44E
100
AcDbEntity
  8
Ma\U+00DFe
370
    50
  0
POLYLINE
  5
452
330
3DA
100
AcDbEntity
  8
Ma\U+00DFe
 62
   250
420
  1709851
370
    50
100
AcDb2dPolyline
 66
     1
 10
0.0
 20
0.0
 30
0.0
  0
VERTEX
  5
453
330
452
100
AcDbEntity
  8
Ma\U+00DFe
 62
   250
420
  1709851
370
    50
100
AcDbVertex
100
AcDb2dVertex
 10
123.69921875
 20
126.57177734375
 30
0.0
  0
VERTEX
  5
454
330
452
100
AcDbEntity
  8
Ma\U+00DFe
 62
   250
420
  1709851
370
    50
100
AcDbVertex
100
AcDb2dVertex
 10
123.69921875
 20
123.91162109375
 30
0.0
  0
SEQEND
  5
455
330
452
100
AcDbEntity
  8
Ma\U+00DFe
370
    50
  0
POLYLINE
  5
456
330
3DA
100
AcDbEntity
  8
Ma\U+00DFe
 62
   250
420
  1709851
370
    50
100
AcDb2dPolyline
 66
     1
 10
0.0
 20
0.0
 30
0.0
  0
VERTEX
  5
457
330
456
100
AcDbEntity
  8
Ma\U+00DFe
 62
   250
420
  1709851
370
    50
100
AcDbVertex
100
AcDb2dVertex
 10
123.69921875
 20
123.91162109375
 30
0.0
  0
VERTEX
  5
458
330
456
100
AcDbEntity
  8
Ma\U+00DFe
 62
   250
420
  1709851
370
    50
100
AcDbVertex
100
AcDb2dVertex
 10
123.69921875
 20
71.8310546875
 30
0.0
  0
SEQEND
  5
459
330
456
100
AcDbEntity
  8
Ma\U+00DFe
370
    50
  0
POLYLINE
  5
45A
330
3DA
100
AcDbEntity
  8
Ma\U+00DFe
 62
   250
420
  1709851
370
    50
100
AcDb2dPolyline
 66
     1
 10
0.0
 20
0.0
 30
0.0
  0
VERTEX
  5
45B
330
45A
100
AcDbEntity
  8
Ma\U+00DFe
 62
   250
420
  1709851
370
    50
100
AcDbVertex
100
AcDb2dVertex
 10
132.189453125
 20
72.921875
 30
0.0
  0
VERTEX
  5
45C
330
45A
100
AcDbEntity
  8
Ma\U+00DFe
 62
   250
420
  1709851
370
    50
100
AcDbVertex
100
AcDb2dVertex
 10
131.939453125
 20
72.8720703125
 30
0.0
  0
SEQEND
  5
45D
330
45A
100
AcDbEntity
  8
Ma\U+00DFe
370
    50
  0
SPLINE
  5
45E
330
3DA
100
AcDbEntity
  8
Ma\U+00DFe
 62
   250
420
  1709851
370
    50
100
AcDbSpline
210
0.0
220
0.0
230
1.0
 70
     8
 71
     3
 72
    14
 73
    10
 74
     0
 42
0.0000000001
 43
0.0000000001
 40
0.0
 40
0.0
 40
0.0
 40
0.0
 40
1.0
 40
1.0
 40
1.0
 40
2.0
 40
2.0
 40
2.0
 40
3.0
 40
3.0
 40
3.0
 40
3.0
 10
122.9892578125
 20
71.8310546875
 30
0.0
 10
122.9892578125
 20
70.91015625
 30
0.0
 10
123.580078125
 20
69.9677734375
 30
0.0
 10
124.4189453125
 20
69.5810546875
 30
0.0
 10
124.4189453125
 20
69.5810546875
 30
0.0
 10
124.8662109375
 20
69.4482421875
 30
0.0
 10
124.8662109375
 20
69.4482421875
 30
0.0
 10
125.05078125
 20
69.3935546875
 30
0.0
 10
125.271484375
 20
69.3408203125
 30
0.0
 10
125.46875
 20
69.3515625
 30
0.0
  0
POLYLINE
  5
45F
330
3DA
100
AcDbEntity
  8
Ma\U+00DFe
 62
   250
420
  1709851
370
    50
100
AcDb2dPolyline
 66
     1
 10
0.0
 20
0.0
 30
0.0
  0
VERTEX
  5
460
330
45F
100
AcDbEntity
  8
Ma\U+00DFe
 62
   250
420
  1709851
370
    50
100
AcDbVertex
100
AcDb2dVertex
 10
128.119140625
 20
69.3515625
 30
0.0
  0
VERTEX
  5
461
330
45F
100
AcDbEntity
  8
Ma\U+00DFe
 62
   250
420
  1709851
370
    50
100
AcDbVertex
100
AcDb2dVertex
 10
125.46875
 20
69.3515625
 30
0.0
  0
SEQEND
  5
462
330
45F
100
AcDbEntity
  8
Ma\U+00DFe
370
    50
  0
SPLINE
  5
463
330
3DA
100
AcDbEntity
  8
Ma\U+00DFe
 62
   250
420
  1709851
370
    50
100
AcDbSpline
210
0.0
220
0.0
230
1.0
 70
     8
 71
     3
 72
     8
 73
     4
 74
     0
 42
0.0000000001
 43
0.0000000001
 40
0.0
 40
0.0
 40
0.0
 40
0.0
 40
1.0
 40
1.0
 40
1.0
 40
1.0
 10
128.119140625
 20
69.3515625
 30
0.0
 10
129.435546875
 20
69.357421875
 30
0.0
 10
130.876953125
 20
70.0458984375
 30
0.0
 10
131.609375
 20
71.1611328125
 30
0.0
  0
POLYLINE
  5
464
330
3DA
100
AcDbEntity
  8
Ma\U+00DFe
 62
   250
420
  1709851
370
    50
100
AcDb2dPolyline
 66
     1
 10
0.0
 20
0.0
 30
0.0
  0
VERTEX
  5
465
330
464
100
AcDbEntity
  8
Ma\U+00DFe
 62
   250
420
  1709851
370
    50
100
AcDbVertex
100
AcDb2dVertex
 10
132.5185546875
 20
72.4716796875
 30
0.0
  0
VERTEX
  5
466
330
464
100
AcDbEntity
  8
Ma\U+00DFe
 62
   250
420
  1709851
370
    50
100
AcDbVertex
100
AcDb2dVertex
 10
131.609375
 20
71.1611328125
 30
0.0
  0
SEQEND
  5
467
330
464
100
AcDbEntity
  8
Ma\U+00DFe
370
    50
  0
POLYLINE
  5
468
330
3DA
100
AcDbEntity
  8
Ma\U+00DFe
 62
   250
420
  1709851
370
    50
100
AcDb2dPolyline
 66
     1
 10
0.0
 20
0.0
 30
0.0
  0
VERTEX
  5
469
330
468
100
AcDbEntity
  8
Ma\U+00DFe
 62
   250
420
  1709851
370
    50
100
AcDbVertex
100
AcDb2dVertex
 10
132.189453125
 20
72.921875
 30
0.0
  0
VERTEX
  5
46A
330
468
100
AcDbEntity
  8
Ma\U+00DFe
 62
   250
420
  1709851
370
    50
100
AcDbVertex
100
AcDb2dVertex
 10
132.4794921875
 20
72.7119140625
 30
0.0
  0
SEQEND
  5
46B
330
468
100
AcDbEntity
  8
Ma\U+00DFe
370
    50
  0
POLYLINE
  5
46C
330
3DA
100
AcDbEntity
  8
Ma\U+00DFe
 62
   250
420
  1709851
370
    50
100
AcDb2dPolyline
 66
     1
 10
0.0
 20
0.0
 30
0.0
  0
VERTEX
  5
46D
330
46C
100
AcDbEntity
  8
Ma\U+00DFe
 62
   250
420
  1709851
370
    50
100
AcDbVertex
100
AcDb2dVertex
 10
123.1591796875
 20
126.751953125
 30
0.0
  0
VERTEX
  5
46E
330
46C
100
AcDbEntity
  8
Ma\U+00DFe
 62
   250
420
  1709851
370
    50
100
AcDbVertex
100
AcDb2dVertex
 10
123.5185546875
 20
126.751953125
 30
0.0
  0
SEQEND
  5
46F
330
46C
100
AcDbEntity
  8
Ma\U+00DFe
370
    50
  0
POLYLINE
  5
470
330
3DA
100
AcDbEntity
  8
Ma\U+00DFe
 62
   250
420
  1709851
370
    50
100
AcDb2dPolyline
 66
     1
 10
0.0
 20
0.0
 30
0.0
  0
VERTEX
  5
471
330
470
100
AcDbEntity
  8
Ma\U+00DFe
 62
   250
420
  1709851
370
    50
100
AcDbVertex
100
AcDb2dVertex
 10
132.5185546875
 20
72.4716796875
 30
0.0
  0
VERTEX
  5
472
330
470
100
AcDbEntity
  8
Ma\U+00DFe
 62
   250
420
  1709851
370
    50
100
AcDbVertex
100
AcDb2dVertex
 10
132.4794921875
 20
72.7119140625
 30
0.0
  0
SEQEND
  5
473
330
470
100
AcDbEntity
  8
Ma\U+00DFe
370
    50
  0
POLYLINE
  5
474
330
3DA
100
AcDbEntity
  8
Ma\U+00DFe
 62
   250
420
  1709851
370
    50
100
AcDb2dPolyline
 66
     1
 10
0.0
 20
0.0
 30
0.0
  0
VERTEX
  5
475
330
474
100
AcDbEntity
  8
Ma\U+00DFe
 62
   250
420
  1709851
370
    50
100
AcDbVertex
100
AcDb2dVertex
 10
122.9892578125
 20
71.8310546875
 30
0.0
  0
VERTEX
  5
476
330
474
100
AcDbEntity
  8
Ma\U+00DFe
 62
   250
420
  1709851
370
    50
100
AcDbVertex
100
AcDb2dVertex
 10
122.9892578125
 20
123.91162109375
 30
0.0
  0
SEQEND
  5
477
330
474
100
AcDbEntity
  8
Ma\U+00DFe
370
    50
  0
POLYLINE
  5
478
330
3DA
100
AcDbEntity
  8
Ma\U+00DFe
 62
   250
420
  1709851
370
    50
100
AcDb2dPolyline
 66
     1
 10
0.0
 20
0.0
 30
0.0
  0
VERTEX
  5
479
330
478
100
AcDbEntity
  8
Ma\U+00DFe
 62
   250
420
  1709851
370
    50
100
AcDbVertex
100
AcDb2dVertex
 10
123.1591796875
 20
126.751953125
 30
0.0
  0
VERTEX
  5
47A
330
478
100
AcDbEntity
  8
Ma\U+00DFe
 62
   250
420
  1709851
370
    50
100
AcDbVertex
100
AcDb2dVertex
 10
122.9892578125
 20
126.57177734375
 30
0.0
  0
SEQEND
  5
47B
330
478
100
AcDbEntity
  8
Ma\U+00DFe
370
    50
  0
POLYLINE
  5
47C
330
3DA
100
AcDbEntity
  8
Ma\U+00DFe
 62
   250
420
  1709851
370
    50
100
AcDb2dPolyline
 66
     1
 10
0.0
 20
0.0
 30
0.0
  0
VERTEX
  5
47D
330
47C
100
AcDbEntity
  8
Ma\U+00DFe
 62
   250
420
  1709851
370
    50
100
AcDbVertex
100
AcDb2dVertex
 10
122.9892578125
 20
123.91162109375
 30
0.0
  0
VERTEX
  5
47E
330
47C
100
AcDbEntity
  8
Ma\U+00DFe
 62
   250
420
  1709851
370
    50
100
AcDbVertex
100
AcDb2dVertex
 10
122.9892578125
 20
126.57177734375
 30
0.0
  0
SEQEND
  5
47F
330
47C
100
AcDbEntity
  8
Ma\U+00DFe
370
    50
  0
POLYLINE
  5
480
330
3DA
100
AcDbEntity
  8
Ma\U+00DFe
 62
   250
420
  1709851
370
    50
100
AcDb2dPolyline
 66
     1
 10
0.0
 20
0.0
 30
0.0
  0
VERTEX
  5
481
330
480
100
AcDbEntity
  8
Ma\U+00DFe
 62
   250
420
  1709851
370
    50
100
AcDbVertex
100
AcDb2dVertex
 10
129.2587890625
 20
107.8115234375
 30
0.0
  0
VERTEX
  5
482
330
480
100
AcDbEntity
  8
Ma\U+00DFe
 62
   250
420
  1709851
370
    50
100
AcDbVertex
100
AcDb2dVertex
 10
129.2587890625
 20
107.44140625
 30
0.0
  0
SEQEND
  5
483
330
480
100
AcDbEntity
  8
Ma\U+00DFe
370
    50
  0
POLYLINE
  5
484
330
3DA
100
AcDbEntity
  8
Ma\U+00DFe
 62
   250
420
  1709851
370
    50
100
AcDb2dPolyline
 66
     1
 10
0.0
 20
0.0
 30
0.0
  0
VERTEX
  5
485
330
484
100
AcDbEntity
  8
Ma\U+00DFe
 62
   250
420
  1709851
370
    50
100
AcDbVertex
100
AcDb2dVertex
 10
128.2490234375
 20
107.4912109375
 30
0.0
  0
VERTEX
  5
486
330
484
100
AcDbEntity
  8
Ma\U+00DFe
 62
   250
420
  1709851
370
    50
100
AcDbVertex
100
AcDb2dVertex
 10
127.5693359375
 20
107.6513671875
 30
0.0
  0
SEQEND
  5
487
330
484
100
AcDbEntity
  8
Ma\U+00DFe
370
    50
  0
POLYLINE
  5
488
330
3DA
100
AcDbEntity
  8
Ma\U+00DFe
 62
   250
420
  1709851
370
    50
100
AcDb2dPolyline
 66
     1
 10
0.0
 20
0.0
 30
0.0
  0
VERTEX
  5
489
330
488
100
AcDbEntity
  8
Ma\U+00DFe
 62
   250
420
  1709851
370
    50
100
AcDbVertex
100
AcDb2dVertex
 10
128.3896484375
 20
107.44140625
 30
0.0
  0
VERTEX
  5
48A
330
488
100
AcDbEntity
  8
Ma\U+00DFe
 62
   250
420
  1709851
370
    50
100
AcDbVertex
100
AcDb2dVertex
 10
128.2587890625
 20
107.4912109375
 30
0.0
  0
SEQEND
  5
48B
330
488
100
AcDbEntity
  8
Ma\U+00DFe
370
    50
  0
POLYLINE
  5
48C
330
3DA
100
AcDbEntity
  8
Ma\U+00DFe
 62
   250
420
  1709851
370
    50
100
AcDb2dPolyline
 66
     1
 10
0.0
 20
0.0
 30
0.0
  0
VERTEX
  5
48D
330
48C
100
AcDbEntity
  8
Ma\U+00DFe
 62
   250
420
  1709851
370
    50
100
AcDbVertex
100
AcDb2dVertex
 10
128.3896484375
 20
107.44140625
 30
0.0
  0
VERTEX
  5
48E
330
48C
100
AcDbEntity
  8
Ma\U+00DFe
 62
   250
420
  1709851
370
    50
100
AcDbVertex
100
AcDb2dVertex
 10
128.2490234375
 20
107.4912109375
 30
0.0
  0
SEQEND
  5
48F
330
48C
100
AcDbEntity
  8
Ma\U+00DFe
370
    50
  0
POLYLINE
  5
490
330
3DA
100
AcDbEntity
  8
Ma\U+00DFe
 62
   250
420
  1709851
370
    50
100
AcDb2dPolyline
 66
     1
 10
0.0
 20
0.0
 30
0.0
  0
VERTEX
  5
491
330
490
100
AcDbEntity
  8
Ma\U+00DFe
 62
   250
420
  1709851
370
    50
100
AcDbVertex
100
AcDb2dVertex
 10
129.2587890625
 20
109.4619140625
 30
0.0
  0
VERTEX
  5
492
330
490
100
AcDbEntity
  8
Ma\U+00DFe
 62
   250
420
  1709851
370
    50
100
AcDbVertex
100
AcDb2dVertex
 10
129.2587890625
 20
107.8115234375
 30
0.0
  0
SEQEND
  5
493
330
490
100
AcDbEntity
  8
Ma\U+00DFe
370
    50
  0
POLYLINE
  5
494
330
3DA
100
AcDbEntity
  8
Ma\U+00DFe
 62
   250
420
  1709851
370
    50
100
AcDb2dPolyline
 66
     1
 10
0.0
 20
0.0
 30
0.0
  0
VERTEX
  5
495
330
494
100
AcDbEntity
  8
Ma\U+00DFe
 62
   250
420
  1709851
370
    50
100
AcDbVertex
100
AcDb2dVertex
 10
129.439453125
 20
107.9619140625
 30
0.0
  0
VERTEX
  5
496
330
494
100
AcDbEntity
  8
Ma\U+00DFe
 62
   250
420
  1709851
370
    50
100
AcDbVertex
100
AcDb2dVertex
 10
129.439453125
 20
107.6220703125
 30
0.0
  0
SEQEND
  5
497
330
494
100
AcDbEntity
  8
Ma\U+00DFe
370
    50
  0
POLYLINE
  5
498
330
3DA
100
AcDbEntity
  8
Ma\U+00DFe
 62
   250
420
  1709851
370
    50
100
AcDb2dPolyline
 66
     1
 10
0.0
 20
0.0
 30
0.0
  0
VERTEX
  5
499
330
498
100
AcDbEntity
  8
Ma\U+00DFe
 62
   250
420
  1709851
370
    50
100
AcDbVertex
100
AcDb2dVertex
 10
129.439453125
 20
109.4716796875
 30
0.0
  0
VERTEX
  5
49A
330
498
100
AcDbEntity
  8
Ma\U+00DFe
 62
   250
420
  1709851
370
    50
100
AcDbVertex
100
AcDb2dVertex
 10
129.439453125
 20
107.9619140625
 30
0.0
  0
SEQEND
  5
49B
330
498
100
AcDbEntity
  8
Ma\U+00DFe
370
    50
  0
POLYLINE
  5
49C
330
3DA
100
AcDbEntity
  8
Ma\U+00DFe
 62
   250
420
  1709851
370
    50
100
AcDb2dPolyline
 66
     1
 10
0.0
 20
0.0
 30
0.0
  0
VERTEX
  5
49D
330
49C
100
AcDbEntity
  8
Ma\U+00DFe
 62
   250
420
  1709851
370
    50
100
AcDbVertex
100
AcDb2dVertex
 10
129.2587890625
 20
107.44140625
 30
0.0
  0
VERTEX
  5
49E
330
49C
100
AcDbEntity
  8
Ma\U+00DFe
 62
   250
420
  1709851
370
    50
100
AcDbVertex
100
AcDb2dVertex
 10
128.3896484375
 20
107.44140625
 30
0.0
  0
SEQEND
  5
49F
330
49C
100
AcDbEntity
  8
Ma\U+00DFe
370
    50
  0
POLYLINE
  5
4A0
330
3DA
100
AcDbEntity
  8
Ma\U+00DFe
 62
   250
420
  1709851
370
    50
100
AcDb2dPolyline
 66
     1
 10
0.0
 20
0.0
 30
0.0
  0
VERTEX
  5
4A1
330
4A0
100
AcDbEntity
  8
Ma\U+00DFe
 62
   250
420
  1709851
370
    50
100
AcDbVertex
100
AcDb2dVertex
 10
129.439453125
 20
107.6220703125
 30
0.0
  0
VERTEX
  5
4A2
330
4A0
100
AcDbEntity
  8
Ma\U+00DFe
 62
   250
420
  1709851
370
    50
100
AcDbVertex
100
AcDb2dVertex
 10
129.2587890625
 20
107.44140625
 30
0.0
  0
SEQEND
  5
4A3
330
4A0
100
AcDbEntity
  8
Ma\U+00DFe
370
    50
  0
POLYLINE
  5
4A4
330
3DA
100
AcDbEntity
  8
Ma\U+00DFe
 62
   250
420
  1709851
370
    18
100
AcDb2dPolyline
 66
     1
 10
0.0
 20
0.0
 30
0.0
  0
VERTEX
  5
4A5
330
4A4
100
AcDbEntity
  8
Ma\U+00DFe
 62
   250
420
  1709851
370
    18
100
AcDbVertex
100
AcDb2dVertex
 10
122.9892578125
 20
123.91162109375
 30
0.0
  0
VERTEX
  5
4A6
330
4A4
100
AcDbEntity
  8
Ma\U+00DFe
 62
   250
420
  1709851
370
    18
100
AcDbVertex
100
AcDb2dVertex
 10
122.9892578125
 20
126.57177734375
 30
0.0
  0
SEQEND
  5
4A7
330
4A4
100
AcDbEntity
  8
Ma\U+00DFe
370
    18
  0
POLYLINE
  5
4A8
330
3DA
100
AcDbEntity
  8
Ma\U+00DFe
 62
   250
420
  1709851
370
    18
100
AcDb2dPolyline
 66
     1
 10
0.0
 20
0.0
 30
0.0
  0
VERTEX
  5
4A9
330
4A8
100
AcDbEntity
  8
Ma\U+00DFe
 62
   250
420
  1709851
370
    18
100
AcDbVertex
100
AcDb2dVertex
 10
122.9892578125
 20
71.8310546875
 30
0.0
  0
VERTEX
  5
4AA
330
4A8
100
AcDbEntity
  8
Ma\U+00DFe
 62
   250
420
  1709851
370
    18
100
AcDbVertex
100
AcDb2dVertex
 10
122.9892578125
 20
123.91162109375
 30
0.0
  0
SEQEND
  5
4AB
330
4A8
100
AcDbEntity
  8
Ma\U+00DFe
370
    18
  0
SPLINE
  5
4AC
330
3DA
100
AcDbEntity
  8
Ma\U+00DFe
 62
   250
420
  1709851
370
    18
100
AcDbSpline
210
0.0
220
0.0
230
1.0
 70
     8
 71
     3
 72
     8
 73
     4
 74
     0
 42
0.0000000001
 43
0.0000000001
 40
0.0
 40
0.0
 40
0.0
 40
0.0
 40
1.0
 40
1.0
 40
1.0
 40
1.0
 10
125.0791015625
 20
69.3818359375
 30
0.0
 10
125.0966796875
 20
69.37109375
 30
0.0
 10
125.2626953125
 20
69.359375
 30
0.0
 10
125.2890625
 20
69.3623046875
 30
0.0
  0
SPLINE
  5
4AD
330
3DA
100
AcDbEntity
  8
Ma\U+00DFe
 62
   250
420
  1709851
370
    18
100
AcDbSpline
210
0.0
220
0.0
230
1.0
 70
     8
 71
     3
 72
     8
 73
     4
 74
     0
 42
0.0000000001
 43
0.0000000001
 40
0.0
 40
0.0
 40
0.0
 40
0.0
 40
1.0
 40
1.0
 40
1.0
 40
1.0
 10
122.9990234375
 20
71.6513671875
 30
0.0
 10
122.9970703125
 20
71.6259765625
 30
0.0
 10
123.0087890625
 20
71.4599609375
 30
0.0
 10
123.0185546875
 20
71.44140625
 30
0.0
  0
POLYLINE
  5
4AE
330
3DA
100
AcDbEntity
  8
Ma\U+00DFe
 62
   250
420
  1709851
370
    18
100
AcDb2dPolyline
 66
     1
 10
0.0
 20
0.0
 30
0.0
  0
VERTEX
  5
4AF
330
4AE
100
AcDbEntity
  8
Ma\U+00DFe
 62
   250
420
  1709851
370
    18
100
AcDbVertex
100
AcDb2dVertex
 10
128.119140625
 20
69.3515625
 30
0.0
  0
VERTEX
  5
4B0
330
4AE
100
AcDbEntity
  8
Ma\U+00DFe
 62
   250
420
  1709851
370
    18
100
AcDbVertex
100
AcDb2dVertex
 10
125.46875
 20
69.3515625
 30
0.0
  0
SEQEND
  5
4B1
330
4AE
100
AcDbEntity
  8
Ma\U+00DFe
370
    18
  0
POLYLINE
  5
4B2
330
3DA
100
AcDbEntity
  8
Ma\U+00DFe
 62
   250
420
  1709851
370
    18
100
AcDb2dPolyline
 66
     1
 10
0.0
 20
0.0
 30
0.0
  0
VERTEX
  5
4B3
330
4B2
100
AcDbEntity
  8
Ma\U+00DFe
 62
   250
420
  1709851
370
    18
100
AcDbVertex
100
AcDb2dVertex
 10
130.619140625
 20
70.1513671875
 30
0.0
  0
VERTEX
  5
4B4
330
4B2
100
AcDbEntity
  8
Ma\U+00DFe
 62
   250
420
  1709851
370
    18
100
AcDbVertex
100
AcDb2dVertex
 10
130.8486328125
 20
70.341796875
 30
0.0
  0
SEQEND
  5
4B5
330
4B2
100
AcDbEntity
  8
Ma\U+00DFe
370
    18
  0
POLYLINE
  5
4B6
330
3DA
100
AcDbEntity
  8
Ma\U+00DFe
 62
   250
420
  1709851
370
    18
100
AcDb2dPolyline
 66
     1
 10
0.0
 20
0.0
 30
0.0
  0
VERTEX
  5
4B7
330
4B6
100
AcDbEntity
  8
Ma\U+00DFe
 62
   250
420
  1709851
370
    18
100
AcDbVertex
100
AcDb2dVertex
 10
128.119140625
 20
69.3515625
 30
0.0
  0
VERTEX
  5
4B8
330
4B6
100
AcDbEntity
  8
Ma\U+00DFe
 62
   250
420
  1709851
370
    18
100
AcDbVertex
100
AcDb2dVertex
 10
128.4189453125
 20
69.3623046875
 30
0.0
  0
SEQEND
  5
4B9
330
4B6
100
AcDbEntity
  8
Ma\U+00DFe
370
    18
  0
POLYLINE
  5
4BA
330
3DA
100
AcDbEntity
  8
Ma\U+00DFe
 62
   250
420
  1709851
370
    18
100
AcDb2dPolyline
 66
     1
 10
0.0
 20
0.0
 30
0.0
  0
VERTEX
  5
4BB
330
4BA
100
AcDbEntity
  8
Ma\U+00DFe
 62
   250
420
  1709851
370
    18
100
AcDbVertex
100
AcDb2dVertex
 10
130.8486328125
 20
70.341796875
 30
0.0
  0
VERTEX
  5
4BC
330
4BA
100
AcDbEntity
  8
Ma\U+00DFe
 62
   250
420
  1709851
370
    18
100
AcDbVertex
100
AcDb2dVertex
 10
130.939453125
 20
70.4111328125
 30
0.0
  0
SEQEND
  5
4BD
330
4BA
100
AcDbEntity
  8
Ma\U+00DFe
370
    18
  0
POLYLINE
  5
4BE
330
3DA
100
AcDbEntity
  8
Ma\U+00DFe
 62
   250
420
  1709851
370
    18
100
AcDb2dPolyline
 66
     1
 10
0.0
 20
0.0
 30
0.0
  0
VERTEX
  5
4BF
330
4BE
100
AcDbEntity
  8
Ma\U+00DFe
 62
   250
420
  1709851
370
    18
100
AcDbVertex
100
AcDb2dVertex
 10
132.5185546875
 20
72.4716796875
 30
0.0
  0
VERTEX
  5
4C0
330
4BE
100
AcDbEntity
  8
Ma\U+00DFe
 62
   250
420
  1709851
370
    18
100
AcDbVertex
100
AcDb2dVertex
 10
131.6494140625
 20
71.2216796875
 30
0.0
  0
SEQEND
  5
4C1
330
4BE
100
AcDbEntity
  8
Ma\U+00DFe
370
    18
  0
POLYLINE
  5
4C2
330
3DA
100
AcDbEntity
  8
Ma\U+00DFe
 62
   250
420
  1709851
370
    18
100
AcDb2dPolyline
 66
     1
 10
0.0
 20
0.0
 30
0.0
  0
VERTEX
  5
4C3
330
4C2
100
AcDbEntity
  8
Ma\U+00DFe
 62
   250
420
  1709851
370
    18
100
AcDbVertex
100
AcDb2dVertex
 10
123.1591796875
 20
126.751953125
 30
0.0
  0
VERTEX
  5
4C4
330
4C2
100
AcDbEntity
  8
Ma\U+00DFe
 62
   250
420
  1709851
370
    18
100
AcDbVertex
100
AcDb2dVertex
 10
123.5185546875
 20
126.751953125
 30
0.0
  0
SEQEND
  5
4C5
330
4C2
100
AcDbEntity
  8
Ma\U+00DFe
370
    18
  0
POLYLINE
  5
4C6
330
3DA
100
AcDbEntity
  8
Ma\U+00DFe
 62
   250
420
  1709851
370
    18
100
AcDb2dPolyline
 66
     1
 10
0.0
 20
0.0
 30
0.0
  0
VERTEX
  5
4C7
330
4C6
100
AcDbEntity
  8
Ma\U+00DFe
 62
   250
420
  1709851
370
    18
100
AcDbVertex
100
AcDb2dVertex
 10
132.189453125
 20
72.921875
 30
0.0
  0
VERTEX
  5
4C8
330
4C6
100
AcDbEntity
  8
Ma\U+00DFe
 62
   250
420
  1709851
370
    18
100
AcDbVertex
100
AcDb2dVertex
 10
132.4794921875
 20
72.7119140625
 30
0.0
  0
SEQEND
  5
4C9
330
4C6
100
AcDbEntity
  8
Ma\U+00DFe
370
    18
  0
POLYLINE
  5
4CA
330
3DA
100
AcDbEntity
  8
Ma\U+00DFe
 62
   250
420
  1709851
370
    18
100
AcDb2dPolyline
 66
     1
 10
0.0
 20
0.0
 30
0.0
  0
VERTEX
  5
4CB
330
4CA
100
AcDbEntity
  8
Ma\U+00DFe
 62
   250
420
  1709851
370
    18
100
AcDbVertex
100
AcDb2dVertex
 10
131.0693359375
 20
71.6318359375
 30
0.0
  0
VERTEX
  5
4CC
330
4CA
100
AcDbEntity
  8
Ma\U+00DFe
 62
   250
420
  1709851
370
    18
100
AcDbVertex
100
AcDb2dVertex
 10
131.939453125
 20
72.8720703125
 30
0.0
  0
SEQEND
  5
4CD
330
4CA
100
AcDbEntity
  8
Ma\U+00DFe
370
    18
  0
SPLINE
  5
4CE
330
3DA
100
AcDbEntity
  8
Ma\U+00DFe
 62
   250
420
  1709851
370
    18
100
AcDbSpline
210
0.0
220
0.0
230
1.0
 70
     8
 71
     3
 72
     8
 73
     4
 74
     0
 42
0.0000000001
 43
0.0000000001
 40
0.0
 40
0.0
 40
0.0
 40
0.0
 40
1.0
 40
1.0
 40
1.0
 40
1.0
 10
130.4091796875
 20
70.8916015625
 30
0.0
 10
130.6162109375
 20
71.0966796875
 30
0.0
 10
130.87109375
 20
71.3232421875
 30
0.0
 10
131.029296875
 20
71.5712890625
 30
0.0
  0
POLYLINE
  5
4CF
330
3DA
100
AcDbEntity
  8
Ma\U+00DFe
 62
   250
420
  1709851
370
    18
100
AcDb2dPolyline
 66
     1
 10
0.0
 20
0.0
 30
0.0
  0
VERTEX
  5
4D0
330
4CF
100
AcDbEntity
  8
Ma\U+00DFe
 62
   250
420
  1709851
370
    18
100
AcDbVertex
100
AcDb2dVertex
 10
125.46875
 20
70.0615234375
 30
0.0
  0
VERTEX
  5
4D1
330
4CF
100
AcDbEntity
  8
Ma\U+00DFe
 62
   250
420
  1709851
370
    18
100
AcDbVertex
100
AcDb2dVertex
 10
128.119140625
 20
70.0615234375
 30
0.0
  0
SEQEND
  5
4D2
330
4CF
100
AcDbEntity
  8
Ma\U+00DFe
370
    18
  0
POLYLINE
  5
4D3
330
3DA
100
AcDbEntity
  8
Ma\U+00DFe
 62
   250
420
  1709851
370
    18
100
AcDb2dPolyline
 66
     1
 10
0.0
 20
0.0
 30
0.0
  0
VERTEX
  5
4D4
330
4D3
100
AcDbEntity
  8
Ma\U+00DFe
 62
   250
420
  1709851
370
    18
100
AcDbVertex
100
AcDb2dVertex
 10
123.69921875
 20
123.91162109375
 30
0.0
  0
VERTEX
  5
4D5
330
4D3
100
AcDbEntity
  8
Ma\U+00DFe
 62
   250
420
  1709851
370
    18
100
AcDbVertex
100
AcDb2dVertex
 10
123.69921875
 20
71.8310546875
 30
0.0
  0
SEQEND
  5
4D6
330
4D3
100
AcDbEntity
  8
Ma\U+00DFe
370
    18
  0
SPLINE
  5
4D7
330
3DA
100
AcDbEntity
  8
Ma\U+00DFe
 62
   250
420
  1709851
370
    18
100
AcDbSpline
210
0.0
220
0.0
230
1.0
 70
     8
 71
     3
 72
     8
 73
     4
 74
     0
 42
0.0000000001
 43
0.0000000001
 40
0.0
 40
0.0
 40
0.0
 40
0.0
 40
1.0
 40
1.0
 40
1.0
 40
1.0
 10
129.3486328125
 20
123.79150390625
 30
0.0
 10
129.3828125
 20
124.490234375
 30
0.0
 10
129.5517578125
 20
125.587890625
 30
0.0
 10
130.21875
 20
125.9814453125
 30
0.0
  0
SPLINE
  5
4D8
330
3DA
100
AcDbEntity
  8
Ma\U+00DFe
 62
   250
420
  1709851
370
    18
100
AcDbSpline
210
0.0
220
0.0
230
1.0
 70
     8
 71
     3
 72
     8
 73
     4
 74
     0
 42
0.0000000001
 43
0.0000000001
 40
0.0
 40
0.0
 40
0.0
 40
0.0
 40
1.0
 40
1.0
 40
1.0
 40
1.0
 10
129.3486328125
 20
123.79150390625
 30
0.0
 10
129.3056640625
 20
123.0244140625
 30
0.0
 10
129.2841796875
 20
122.23828125
 30
0.0
 10
129.3388671875
 20
121.4716796875
 30
0.0
  0
POLYLINE
  5
4D9
330
3DA
100
AcDbEntity
  8
Ma\U+00DFe
 62
   250
420
  1709851
370
    18
100
AcDb2dPolyline
 66
     1
 10
0.0
 20
0.0
 30
0.0
  0
VERTEX
  5
4DA
330
4D9
100
AcDbEntity
  8
Ma\U+00DFe
 62
   250
420
  1709851
370
    18
100
AcDbVertex
100
AcDb2dVertex
 10
129.3388671875
 20
121.4716796875
 30
0.0
  0
VERTEX
  5
4DB
330
4D9
100
AcDbEntity
  8
Ma\U+00DFe
 62
   250
420
  1709851
370
    18
100
AcDbVertex
100
AcDb2dVertex
 10
129.3388671875
 20
121.421875
 30
0.0
  0
SEQEND
  5
4DC
330
4D9
100
AcDbEntity
  8
Ma\U+00DFe
370
    18
  0
POLYLINE
  5
4DD
330
3DA
100
AcDbEntity
  8
Ma\U+00DFe
 62
   250
420
  1709851
370
    18
100
AcDb2dPolyline
 66
     1
 10
0.0
 20
0.0
 30
0.0
  0
VERTEX
  5
4DE
330
4DD
100
AcDbEntity
  8
Ma\U+00DFe
 62
   250
420
  1709851
370
    18
100
AcDbVertex
100
AcDb2dVertex
 10
129.94921875
 20
109.8515625
 30
0.0
  0
VERTEX
  5
4DF
330
4DD
100
AcDbEntity
  8
Ma\U+00DFe
 62
   250
420
  1709851
370
    18
100
AcDbVertex
100
AcDb2dVertex
 10
129.3388671875
 20
121.421875
 30
0.0
  0
SEQEND
  5
4E0
330
4DD
100
AcDbEntity
  8
Ma\U+00DFe
370
    18
  0
SPLINE
  5
4E1
330
3DA
100
AcDbEntity
  8
Ma\U+00DFe
 62
   250
420
  1709851
370
    18
100
AcDbSpline
210
0.0
220
0.0
230
1.0
 70
     8
 71
     3
 72
    14
 73
    10
 74
     0
 42
0.0000000001
 43
0.0000000001
 40
0.0
 40
0.0
 40
0.0
 40
0.0
 40
1.0
 40
1.0
 40
1.0
 40
2.0
 40
2.0
 40
2.0
 40
3.0
 40
3.0
 40
3.0
 40
3.0
 10
129.9892578125
 20
109.1513671875
 30
0.0
 10
130.0263671875
 20
108.8251953125
 30
0.0
 10
130.03515625
 20
108.482421875
 30
0.0
 10
130.0986328125
 20
108.1611328125
 30
0.0
 10
130.1357421875
 20
107.9814453125
 30
0.0
 10
130.201171875
 20
107.8095703125
 30
0.0
 10
130.2392578125
 20
107.6318359375
 30
0.0
 10
130.3125
 20
107.587890625
 30
0.0
 10
130.41796875
 20
107.1455078125
 30
0.0
 10
130.8291015625
 20
107.091796875
 30
0.0
  0
POLYLINE
  5
4E2
330
3DA
100
AcDbEntity
  8
Ma\U+00DFe
 62
   250
420
  1709851
370
    18
100
AcDb2dPolyline
 66
     1
 10
0.0
 20
0.0
 30
0.0
  0
VERTEX
  5
4E3
330
4E2
100
AcDbEntity
  8
Ma\U+00DFe
 62
   250
420
  1709851
370
    18
100
AcDbVertex
100
AcDb2dVertex
 10
131.87890625
 20
87.001953125
 30
0.0
  0
VERTEX
  5
4E4
330
4E2
100
AcDbEntity
  8
Ma\U+00DFe
 62
   250
420
  1709851
370
    18
100
AcDbVertex
100
AcDb2dVertex
 10
130.96875
 20
104.431640625
 30
0.0
  0
SEQEND
  5
4E5
330
4E2
100
AcDbEntity
  8
Ma\U+00DFe
370
    18
  0
SPLINE
  5
4E6
330
3DA
100
AcDbEntity
  8
Ma\U+00DFe
 62
   250
420
  1709851
370
    18
100
AcDbSpline
210
0.0
220
0.0
230
1.0
 70
     8
 71
     3
 72
     8
 73
     4
 74
     0
 42
0.0000000001
 43
0.0000000001
 40
0.0
 40
0.0
 40
0.0
 40
0.0
 40
1.0
 40
1.0
 40
1.0
 40
1.0
 10
131.548828125
 20
130.24169921875
 30
0.0
 10
131.4228515625
 20
130.021484375
 30
0.0
 10
131.30078125
 20
129.66064453125
 30
0.0
 10
131.2294921875
 20
129.41162109375
 30
0.0
  0
POLYLINE
  5
4E7
330
3DA
100
AcDbEntity
  8
Ma\U+00DFe
 62
   250
420
  1709851
370
    18
100
AcDb2dPolyline
 66
     1
 10
0.0
 20
0.0
 30
0.0
  0
VERTEX
  5
4E8
330
4E7
100
AcDbEntity
  8
Ma\U+00DFe
 62
   250
420
  1709851
370
    18
100
AcDbVertex
100
AcDb2dVertex
 10
130.94921875
 20
128.5615234375
 30
0.0
  0
VERTEX
  5
4E9
330
4E7
100
AcDbEntity
  8
Ma\U+00DFe
 62
   250
420
  1709851
370
    18
100
AcDbVertex
100
AcDb2dVertex
 10
130.798828125
 20
128.0615234375
 30
0.0
  0
SEQEND
  5
4EA
330
4E7
100
AcDbEntity
  8
Ma\U+00DFe
370
    18
  0
POLYLINE
  5
4EB
330
3DA
100
AcDbEntity
  8
Ma\U+00DFe
 62
   250
420
  1709851
370
    18
100
AcDb2dPolyline
 66
     1
 10
0.0
 20
0.0
 30
0.0
  0
VERTEX
  5
4EC
330
4EB
100
AcDbEntity
  8
Ma\U+00DFe
 62
   250
420
  1709851
370
    18
100
AcDbVertex
100
AcDb2dVertex
 10
130.87890625
 20
121.5517578125
 30
0.0
  0
VERTEX
  5
4ED
330
4EB
100
AcDbEntity
  8
Ma\U+00DFe
 62
   250
420
  1709851
370
    18
100
AcDbVertex
100
AcDb2dVertex
 10
130.87890625
 20
121.51171875
 30
0.0
  0
SEQEND
  5
4EE
330
4EB
100
AcDbEntity
  8
Ma\U+00DFe
370
    18
  0
POLYLINE
  5
4EF
330
3DA
100
AcDbEntity
  8
Ma\U+00DFe
 62
   250
420
  1709851
370
    18
100
AcDb2dPolyline
 66
     1
 10
0.0
 20
0.0
 30
0.0
  0
VERTEX
  5
4F0
330
4EF
100
AcDbEntity
  8
Ma\U+00DFe
 62
   250
420
  1709851
370
    18
100
AcDbVertex
100
AcDb2dVertex
 10
131.6787109375
 20
130.57177734375
 30
0.0
  0
VERTEX
  5
4F1
330
4EF
100
AcDbEntity
  8
Ma\U+00DFe
 62
   250
420
  1709851
370
    18
100
AcDbVertex
100
AcDb2dVertex
 10
134.3291015625
 20
136.8017578125
 30
0.0
  0
SEQEND
  5
4F2
330
4EF
100
AcDbEntity
  8
Ma\U+00DFe
370
    18
  0
POLYLINE
  5
4F3
330
3DA
100
AcDbEntity
  8
Ma\U+00DFe
 62
   250
420
  1709851
370
    18
100
AcDb2dPolyline
 66
     1
 10
0.0
 20
0.0
 30
0.0
  0
VERTEX
  5
4F4
330
4F3
100
AcDbEntity
  8
Ma\U+00DFe
 62
   250
420
  1709851
370
    18
100
AcDbVertex
100
AcDb2dVertex
 10
132.9091796875
 20
121.61181640625
 30
0.0
  0
VERTEX
  5
4F5
330
4F3
100
AcDbEntity
  8
Ma\U+00DFe
 62
   250
420
  1709851
370
    18
100
AcDbVertex
100
AcDb2dVertex
 10
134.71875
 20
87.1318359375
 30
0.0
  0
SEQEND
  5
4F6
330
4F3
100
AcDbEntity
  8
Ma\U+00DFe
370
    18
  0
SPLINE
  5
4F7
330
3DA
100
AcDbEntity
  8
Ma\U+00DFe
 62
   250
420
  1709851
370
    18
100
AcDbSpline
210
0.0
220
0.0
230
1.0
 70
     8
 71
     3
 72
     8
 73
     4
 74
     0
 42
0.0000000001
 43
0.0000000001
 40
0.0
 40
0.0
 40
0.0
 40
0.0
 40
1.0
 40
1.0
 40
1.0
 40
1.0
 10
133.94921875
 20
128.591796875
 30
0.0
 10
133.8662109375
 20
128.35107421875
 30
0.0
 10
133.755859375
 20
128.09912109375
 30
0.0
 10
133.69921875
 20
127.8515625
 30
0.0
  0
SPLINE
  5
4F8
330
3DA
100
AcDbEntity
  8
Ma\U+00DFe
 62
   250
420
  1709851
370
    18
100
AcDbSpline
210
0.0
220
0.0
230
1.0
 70
     8
 71
     3
 72
     8
 73
     4
 74
     0
 42
0.0000000001
 43
0.0000000001
 40
0.0
 40
0.0
 40
0.0
 40
0.0
 40
1.0
 40
1.0
 40
1.0
 40
1.0
 10
133.4794921875
 20
127.091796875
 30
0.0
 10
133.4169921875
 20
126.8408203125
 30
0.0
 10
133.369140625
 20
126.5771484375
 30
0.0
 10
133.2890625
 20
126.33154296875
 30
0.0
  0
SPLINE
  5
4F9
330
3DA
100
AcDbEntity
  8
Ma\U+00DFe
 62
   250
420
  1709851
370
    18
100
AcDbSpline
210
0.0
220
0.0
230
1.0
 70
     8
 71
     3
 72
     8
 73
     4
 74
     0
 42
0.0000000001
 43
0.0000000001
 40
0.0
 40
0.0
 40
0.0
 40
0.0
 40
1.0
 40
1.0
 40
1.0
 40
1.0
 10
133.029296875
 20
124.771484375
 30
0.0
 10
133.0
 20
124.513671875
 30
0.0
 10
132.9833984375
 20
124.2470703125
 30
0.0
 10
132.939453125
 20
123.99169921875
 30
0.0
  0
SPLINE
  5
4FA
330
3DA
100
AcDbEntity
  8
Ma\U+00DFe
 62
   250
420
  1709851
370
    18
100
AcDbSpline
210
0.0
220
0.0
230
1.0
 70
     8
 71
     3
 72
     8
 73
     4
 74
     0
 42
0.0000000001
 43
0.0000000001
 40
0.0
 40
0.0
 40
0.0
 40
0.0
 40
1.0
 40
1.0
 40
1.0
 40
1.0
 10
132.8994140625
 20
123.20166015625
 30
0.0
 10
132.8916015625
 20
122.943359375
 30
0.0
 10
132.8720703125
 20
122.6796875
 30
0.0
 10
132.87890625
 20
122.421875
 30
0.0
  0
POLYLINE
  5
4FB
330
3DA
100
AcDbEntity
  8
Ma\U+00DFe
 62
   250
420
  1709851
370
    18
100
AcDb2dPolyline
 66
     1
 10
0.0
 20
0.0
 30
0.0
  0
VERTEX
  5
4FC
330
4FB
100
AcDbEntity
  8
Ma\U+00DFe
 62
   250
420
  1709851
370
    18
100
AcDbVertex
100
AcDb2dVertex
 10
134.279296875
 20
129.431640625
 30
0.0
  0
VERTEX
  5
4FD
330
4FB
100
AcDbEntity
  8
Ma\U+00DFe
 62
   250
420
  1709851
370
    18
100
AcDbVertex
100
AcDb2dVertex
 10
134.2685546875
 20
129.41162109375
 30
0.0
  0
SEQEND
  5
4FE
330
4FB
100
AcDbEntity
  8
Ma\U+00DFe
370
    18
  0
POLYLINE
  5
4FF
330
3DA
100
AcDbEntity
  8
Ma\U+00DFe
 62
   250
420
  1709851
370
    18
100
AcDb2dPolyline
 66
     1
 10
0.0
 20
0.0
 30
0.0
  0
VERTEX
  5
500
330
4FF
100
AcDbEntity
  8
Ma\U+00DFe
 62
   250
420
  1709851
370
    18
100
AcDbVertex
100
AcDb2dVertex
 10
134.2685546875
 20
129.41162109375
 30
0.0
  0
VERTEX
  5
501
330
4FF
100
AcDbEntity
  8
Ma\U+00DFe
 62
   250
420
  1709851
370
    18
100
AcDbVertex
100
AcDb2dVertex
 10
134.2587890625
 20
129.3916015625
 30
0.0
  0
SEQEND
  5
502
330
4FF
100
AcDbEntity
  8
Ma\U+00DFe
370
    18
  0
POLYLINE
  5
503
330
3DA
100
AcDbEntity
  8
Ma\U+00DFe
 62
   250
420
  1709851
370
    18
100
AcDb2dPolyline
 66
     1
 10
0.0
 20
0.0
 30
0.0
  0
VERTEX
  5
504
330
503
100
AcDbEntity
  8
Ma\U+00DFe
 62
   250
420
  1709851
370
    18
100
AcDbVertex
100
AcDb2dVertex
 10
134.279296875
 20
129.421875
 30
0.0
  0
VERTEX
  5
505
330
503
100
AcDbEntity
  8
Ma\U+00DFe
 62
   250
420
  1709851
370
    18
100
AcDbVertex
100
AcDb2dVertex
 10
134.2685546875
 20
129.41162109375
 30
0.0
  0
SEQEND
  5
506
330
503
100
AcDbEntity
  8
Ma\U+00DFe
370
    18
  0
POLYLINE
  5
507
330
3DA
100
AcDbEntity
  8
Ma\U+00DFe
 62
   250
420
  1709851
370
    18
100
AcDb2dPolyline
 66
     1
 10
0.0
 20
0.0
 30
0.0
  0
VERTEX
  5
508
330
507
100
AcDbEntity
  8
Ma\U+00DFe
 62
   250
420
  1709851
370
    18
100
AcDbVertex
100
AcDb2dVertex
 10
134.2587890625
 20
129.3818359375
 30
0.0
  0
VERTEX
  5
509
330
507
100
AcDbEntity
  8
Ma\U+00DFe
 62
   250
420
  1709851
370
    18
100
AcDbVertex
100
AcDb2dVertex
 10
134.2490234375
 20
129.36181640625
 30
0.0
  0
SEQEND
  5
50A
330
507
100
AcDbEntity
  8
Ma\U+00DFe
370
    18
  0
POLYLINE
  5
50B
330
3DA
100
AcDbEntity
  8
Ma\U+00DFe
 62
   250
420
  1709851
370
    18
100
AcDb2dPolyline
 66
     1
 10
0.0
 20
0.0
 30
0.0
  0
VERTEX
  5
50C
330
50B
100
AcDbEntity
  8
Ma\U+00DFe
 62
   250
420
  1709851
370
    18
100
AcDbVertex
100
AcDb2dVertex
 10
134.2490234375
 20
129.3515625
 30
0.0
  0
VERTEX
  5
50D
330
50B
100
AcDbEntity
  8
Ma\U+00DFe
 62
   250
420
  1709851
370
    18
100
AcDbVertex
100
AcDb2dVertex
 10
134.2392578125
 20
129.341796875
 30
0.0
  0
SEQEND
  5
50E
330
50B
100
AcDbEntity
  8
Ma\U+00DFe
370
    18
  0
POLYLINE
  5
50F
330
3DA
100
AcDbEntity
  8
Ma\U+00DFe
 62
   250
420
  1709851
370
    18
100
AcDb2dPolyline
 66
     1
 10
0.0
 20
0.0
 30
0.0
  0
VERTEX
  5
510
330
50F
100
AcDbEntity
  8
Ma\U+00DFe
 62
   250
420
  1709851
370
    18
100
AcDbVertex
100
AcDb2dVertex
 10
136.9990234375
 20
135.841796875
 30
0.0
  0
VERTEX
  5
511
330
50F
100
AcDbEntity
  8
Ma\U+00DFe
 62
   250
420
  1709851
370
    18
100
AcDbVertex
100
AcDb2dVertex
 10
134.2890625
 20
129.4619140625
 30
0.0
  0
SEQEND
  5
512
330
50F
100
AcDbEntity
  8
Ma\U+00DFe
370
    18
  0
POLYLINE
  5
513
330
3DA
100
AcDbEntity
  8
Ma\U+00DFe
 62
   250
420
  1709851
370
    18
100
AcDb2dPolyline
 66
     1
 10
0.0
 20
0.0
 30
0.0
  0
VERTEX
  5
514
330
513
100
AcDbEntity
  8
Ma\U+00DFe
 62
   250
420
  1709851
370
    18
100
AcDbVertex
100
AcDb2dVertex
 10
134.96875
 20
82.181640625
 30
0.0
  0
VERTEX
  5
515
330
513
100
AcDbEntity
  8
Ma\U+00DFe
 62
   250
420
  1709851
370
    18
100
AcDbVertex
100
AcDb2dVertex
 10
134.9287109375
 20
83.0322265625
 30
0.0
  0
SEQEND
  5
516
330
513
100
AcDbEntity
  8
Ma\U+00DFe
370
    18
  0
POLYLINE
  5
517
330
3DA
100
AcDbEntity
  8
Ma\U+00DFe
 62
   250
420
  1709851
370
    18
100
AcDb2dPolyline
 66
     1
 10
0.0
 20
0.0
 30
0.0
  0
VERTEX
  5
518
330
517
100
AcDbEntity
  8
Ma\U+00DFe
 62
   250
420
  1709851
370
    18
100
AcDbVertex
100
AcDb2dVertex
 10
135.3095703125
 20
139.12158203125
 30
0.0
  0
VERTEX
  5
519
330
517
100
AcDbEntity
  8
Ma\U+00DFe
 62
   250
420
  1709851
370
    18
100
AcDbVertex
100
AcDb2dVertex
 10
135.0390625
 20
138.49169921875
 30
0.0
  0
SEQEND
  5
51A
330
517
100
AcDbEntity
  8
Ma\U+00DFe
370
    18
  0
POLYLINE
  5
51B
330
3DA
100
AcDbEntity
  8
Ma\U+00DFe
 62
   250
420
  1709851
370
    18
100
AcDb2dPolyline
 66
     1
 10
0.0
 20
0.0
 30
0.0
  0
VERTEX
  5
51C
330
51B
100
AcDbEntity
  8
Ma\U+00DFe
 62
   250
420
  1709851
370
    18
100
AcDbVertex
100
AcDb2dVertex
 10
135.3095703125
 20
139.12158203125
 30
0.0
  0
VERTEX
  5
51D
330
51B
100
AcDbEntity
  8
Ma\U+00DFe
 62
   250
420
  1709851
370
    18
100
AcDbVertex
100
AcDb2dVertex
 10
135.0390625
 20
138.49169921875
 30
0.0
  0
SEQEND
  5
51E
330
51B
100
AcDbEntity
  8
Ma\U+00DFe
370
    18
  0
POLYLINE
  5
51F
330
3DA
100
AcDbEntity
  8
Ma\U+00DFe
 62
   250
420
  1709851
370
    18
100
AcDb2dPolyline
 66
     1
 10
0.0
 20
0.0
 30
0.0
  0
VERTEX
  5
520
330
51F
100
AcDbEntity
  8
Ma\U+00DFe
 62
   250
420
  1709851
370
    18
100
AcDbVertex
100
AcDb2dVertex
 10
134.6396484375
 20
137.54150390625
 30
0.0
  0
VERTEX
  5
521
330
51F
100
AcDbEntity
  8
Ma\U+00DFe
 62
   250
420
  1709851
370
    18
100
AcDbVertex
100
AcDb2dVertex
 10
134.619140625
 20
137.49169921875
 30
0.0
  0
SEQEND
  5
522
330
51F
100
AcDbEntity
  8
Ma\U+00DFe
370
    18
  0
POLYLINE
  5
523
330
3DA
100
AcDbEntity
  8
Ma\U+00DFe
 62
   250
420
  1709851
370
    18
100
AcDb2dPolyline
 66
     1
 10
0.0
 20
0.0
 30
0.0
  0
VERTEX
  5
524
330
523
100
AcDbEntity
  8
Ma\U+00DFe
 62
   250
420
  1709851
370
    18
100
AcDbVertex
100
AcDb2dVertex
 10
138.3193359375
 20
138.94140625
 30
0.0
  0
VERTEX
  5
525
330
523
100
AcDbEntity
  8
Ma\U+00DFe
 62
   250
420
  1709851
370
    18
100
AcDbVertex
100
AcDb2dVertex
 10
138.9189453125
 20
140.37158203125
 30
0.0
  0
SEQEND
  5
526
330
523
100
AcDbEntity
  8
Ma\U+00DFe
370
    18
  0
POLYLINE
  5
527
330
3DA
100
AcDbEntity
  8
Ma\U+00DFe
 62
   250
420
  1709851
370
    18
100
AcDb2dPolyline
 66
     1
 10
0.0
 20
0.0
 30
0.0
  0
VERTEX
  5
528
330
527
100
AcDbEntity
  8
Ma\U+00DFe
 62
   250
420
  1709851
370
    18
100
AcDbVertex
100
AcDb2dVertex
 10
136.9990234375
 20
135.841796875
 30
0.0
  0
VERTEX
  5
529
330
527
100
AcDbEntity
  8
Ma\U+00DFe
 62
   250
420
  1709851
370
    18
100
AcDbVertex
100
AcDb2dVertex
 10
137.3291015625
 20
136.62158203125
 30
0.0
  0
SEQEND
  5
52A
330
527
100
AcDbEntity
  8
Ma\U+00DFe
370
    18
  0
POLYLINE
  5
52B
330
3DA
100
AcDbEntity
  8
Ma\U+00DFe
 62
   250
420
  1709851
370
    18
100
AcDb2dPolyline
 66
     1
 10
0.0
 20
0.0
 30
0.0
  0
VERTEX
  5
52C
330
52B
100
AcDbEntity
  8
Ma\U+00DFe
 62
   250
420
  1709851
370
    18
100
AcDbVertex
100
AcDb2dVertex
 10
131.6787109375
 20
130.57177734375
 30
0.0
  0
VERTEX
  5
52D
330
52B
100
AcDbEntity
  8
Ma\U+00DFe
 62
   250
420
  1709851
370
    18
100
AcDbVertex
100
AcDb2dVertex
 10
131.6689453125
 20
130.54150390625
 30
0.0
  0
SEQEND
  5
52E
330
52B
100
AcDbEntity
  8
Ma\U+00DFe
370
    18
  0
POLYLINE
  5
52F
330
3DA
100
AcDbEntity
  8
Ma\U+00DFe
 62
   250
420
  1709851
370
    18
100
AcDb2dPolyline
 66
     1
 10
0.0
 20
0.0
 30
0.0
  0
VERTEX
  5
530
330
52F
100
AcDbEntity
  8
Ma\U+00DFe
 62
   250
420
  1709851
370
    18
100
AcDbVertex
100
AcDb2dVertex
 10
131.5595703125
 20
130.28173828125
 30
0.0
  0
VERTEX
  5
531
330
52F
100
AcDbEntity
  8
Ma\U+00DFe
 62
   250
420
  1709851
370
    18
100
AcDbVertex
100
AcDb2dVertex
 10
131.548828125
 20
130.24169921875
 30
0.0
  0
SEQEND
  5
532
330
52F
100
AcDbEntity
  8
Ma\U+00DFe
370
    18
  0
POLYLINE
  5
533
330
3DA
100
AcDbEntity
  8
Ma\U+00DFe
 62
   250
420
  1709851
370
    18
100
AcDb2dPolyline
 66
     1
 10
0.0
 20
0.0
 30
0.0
  0
VERTEX
  5
534
330
533
100
AcDbEntity
  8
Ma\U+00DFe
 62
   250
420
  1709851
370
    18
100
AcDbVertex
100
AcDb2dVertex
 10
131.62890625
 20
130.44140625
 30
0.0
  0
VERTEX
  5
535
330
533
100
AcDbEntity
  8
Ma\U+00DFe
 62
   250
420
  1709851
370
    18
100
AcDbVertex
100
AcDb2dVertex
 10
131.619140625
 20
130.431640625
 30
0.0
  0
SEQEND
  5
536
330
533
100
AcDbEntity
  8
Ma\U+00DFe
370
    18
  0
POLYLINE
  5
537
330
3DA
100
AcDbEntity
  8
Ma\U+00DFe
 62
   250
420
  1709851
370
    18
100
AcDb2dPolyline
 66
     1
 10
0.0
 20
0.0
 30
0.0
  0
VERTEX
  5
538
330
537
100
AcDbEntity
  8
Ma\U+00DFe
 62
   250
420
  1709851
370
    18
100
AcDbVertex
100
AcDb2dVertex
 10
131.619140625
 20
130.431640625
 30
0.0
  0
VERTEX
  5
539
330
537
100
AcDbEntity
  8
Ma\U+00DFe
 62
   250
420
  1709851
370
    18
100
AcDbVertex
100
AcDb2dVertex
 10
131.609375
 20
130.41162109375
 30
0.0
  0
SEQEND
  5
53A
330
537
100
AcDbEntity
  8
Ma\U+00DFe
370
    18
  0
POLYLINE
  5
53B
330
3DA
100
AcDbEntity
  8
Ma\U+00DFe
 62
   250
420
  1709851
370
    18
100
AcDb2dPolyline
 66
     1
 10
0.0
 20
0.0
 30
0.0
  0
VERTEX
  5
53C
330
53B
100
AcDbEntity
  8
Ma\U+00DFe
 62
   250
420
  1709851
370
    18
100
AcDbVertex
100
AcDb2dVertex
 10
131.609375
 20
130.41162109375
 30
0.0
  0
VERTEX
  5
53D
330
53B
100
AcDbEntity
  8
Ma\U+00DFe
 62
   250
420
  1709851
370
    18
100
AcDbVertex
100
AcDb2dVertex
 10
131.5986328125
 20
130.37158203125
 30
0.0
  0
SEQEND
  5
53E
330
53B
100
AcDbEntity
  8
Ma\U+00DFe
370
    18
  0
POLYLINE
  5
53F
330
3DA
100
AcDbEntity
  8
Ma\U+00DFe
 62
   250
420
  1709851
370
    18
100
AcDb2dPolyline
 66
     1
 10
0.0
 20
0.0
 30
0.0
  0
VERTEX
  5
540
330
53F
100
AcDbEntity
  8
Ma\U+00DFe
 62
   250
420
  1709851
370
    18
100
AcDbVertex
100
AcDb2dVertex
 10
131.6494140625
 20
130.4814453125
 30
0.0
  0
VERTEX
  5
541
330
53F
100
AcDbEntity
  8
Ma\U+00DFe
 62
   250
420
  1709851
370
    18
100
AcDbVertex
100
AcDb2dVertex
 10
131.6396484375
 20
130.4716796875
 30
0.0
  0
SEQEND
  5
542
330
53F
100
AcDbEntity
  8
Ma\U+00DFe
370
    18
  0
POLYLINE
  5
543
330
3DA
100
AcDbEntity
  8
Ma\U+00DFe
 62
   250
420
  1709851
370
    18
100
AcDb2dPolyline
 66
     1
 10
0.0
 20
0.0
 30
0.0
  0
VERTEX
  5
544
330
543
100
AcDbEntity
  8
Ma\U+00DFe
 62
   250
420
  1709851
370
    18
100
AcDbVertex
100
AcDb2dVertex
 10
131.6591796875
 20
130.501953125
 30
0.0
  0
VERTEX
  5
545
330
543
100
AcDbEntity
  8
Ma\U+00DFe
 62
   250
420
  1709851
370
    18
100
AcDbVertex
100
AcDb2dVertex
 10
131.6494140625
 20
130.4814453125
 30
0.0
  0
SEQEND
  5
546
330
543
100
AcDbEntity
  8
Ma\U+00DFe
370
    18
  0
POLYLINE
  5
547
330
3DA
100
AcDbEntity
  8
Ma\U+00DFe
 62
   250
420
  1709851
370
    18
100
AcDb2dPolyline
 66
     1
 10
0.0
 20
0.0
 30
0.0
  0
VERTEX
  5
548
330
547
100
AcDbEntity
  8
Ma\U+00DFe
 62
   250
420
  1709851
370
    18
100
AcDbVertex
100
AcDb2dVertex
 10
131.6494140625
 20
130.4814453125
 30
0.0
  0
VERTEX
  5
549
330
547
100
AcDbEntity
  8
Ma\U+00DFe
 62
   250
420
  1709851
370
    18
100
AcDbVertex
100
AcDb2dVertex
 10
131.6396484375
 20
130.4716796875
 30
0.0
  0
SEQEND
  5
54A
330
547
100
AcDbEntity
  8
Ma\U+00DFe
370
    18
  0
POLYLINE
  5
54B
330
3DA
100
AcDbEntity
  8
Ma\U+00DFe
 62
   250
420
  1709851
370
    18
100
AcDb2dPolyline
 66
     1
 10
0.0
 20
0.0
 30
0.0
  0
VERTEX
  5
54C
330
54B
100
AcDbEntity
  8
Ma\U+00DFe
 62
   250
420
  1709851
370
    18
100
AcDbVertex
100
AcDb2dVertex
 10
131.6494140625
 20
130.49169921875
 30
0.0
  0
VERTEX
  5
54D
330
54B
100
AcDbEntity
  8
Ma\U+00DFe
 62
   250
420
  1709851
370
    18
100
AcDbVertex
100
AcDb2dVertex
 10
131.6494140625
 20
130.4814453125
 30
0.0
  0
SEQEND
  5
54E
330
54B
100
AcDbEntity
  8
Ma\U+00DFe
370
    18
  0
POLYLINE
  5
54F
330
3DA
100
AcDbEntity
  8
Ma\U+00DFe
 62
   250
420
  1709851
370
    18
100
AcDb2dPolyline
 66
     1
 10
0.0
 20
0.0
 30
0.0
  0
VERTEX
  5
550
330
54F
100
AcDbEntity
  8
Ma\U+00DFe
 62
   250
420
  1709851
370
    18
100
AcDbVertex
100
AcDb2dVertex
 10
131.5888671875
 20
130.341796875
 30
0.0
  0
VERTEX
  5
551
330
54F
100
AcDbEntity
  8
Ma\U+00DFe
 62
   250
420
  1709851
370
    18
100
AcDbVertex
100
AcDb2dVertex
 10
131.5791015625
 20
130.33154296875
 30
0.0
  0
SEQEND
  5
552
330
54F
100
AcDbEntity
  8
Ma\U+00DFe
370
    18
  0
POLYLINE
  5
553
330
3DA
100
AcDbEntity
  8
Ma\U+00DFe
 62
   250
420
  1709851
370
    18
100
AcDb2dPolyline
 66
     1
 10
0.0
 20
0.0
 30
0.0
  0
VERTEX
  5
554
330
553
100
AcDbEntity
  8
Ma\U+00DFe
 62
   250
420
  1709851
370
    18
100
AcDbVertex
100
AcDb2dVertex
 10
131.5791015625
 20
130.33154296875
 30
0.0
  0
VERTEX
  5
555
330
553
100
AcDbEntity
  8
Ma\U+00DFe
 62
   250
420
  1709851
370
    18
100
AcDbVertex
100
AcDb2dVertex
 10
131.5888671875
 20
130.341796875
 30
0.0
  0
SEQEND
  5
556
330
553
100
AcDbEntity
  8
Ma\U+00DFe
370
    18
  0
POLYLINE
  5
557
330
3DA
100
AcDbEntity
  8
Ma\U+00DFe
 62
   250
420
  1709851
370
    18
100
AcDb2dPolyline
 66
     1
 10
0.0
 20
0.0
 30
0.0
  0
VERTEX
  5
558
330
557
100
AcDbEntity
  8
Ma\U+00DFe
 62
   250
420
  1709851
370
    18
100
AcDbVertex
100
AcDb2dVertex
 10
131.5791015625
 20
130.33154296875
 30
0.0
  0
VERTEX
  5
559
330
557
100
AcDbEntity
  8
Ma\U+00DFe
 62
   250
420
  1709851
370
    18
100
AcDbVertex
100
AcDb2dVertex
 10
131.5693359375
 20
130.3115234375
 30
0.0
  0
SEQEND
  5
55A
330
557
100
AcDbEntity
  8
Ma\U+00DFe
370
    18
  0
POLYLINE
  5
55B
330
3DA
100
AcDbEntity
  8
Ma\U+00DFe
 62
   250
420
  1709851
370
    18
100
AcDb2dPolyline
 66
     1
 10
0.0
 20
0.0
 30
0.0
  0
VERTEX
  5
55C
330
55B
100
AcDbEntity
  8
Ma\U+00DFe
 62
   250
420
  1709851
370
    18
100
AcDbVertex
100
AcDb2dVertex
 10
131.5693359375
 20
130.3115234375
 30
0.0
  0
VERTEX
  5
55D
330
55B
100
AcDbEntity
  8
Ma\U+00DFe
 62
   250
420
  1709851
370
    18
100
AcDbVertex
100
AcDb2dVertex
 10
131.5791015625
 20
130.33154296875
 30
0.0
  0
SEQEND
  5
55E
330
55B
100
AcDbEntity
  8
Ma\U+00DFe
370
    18
  0
POLYLINE
  5
55F
330
3DA
100
AcDbEntity
  8
Ma\U+00DFe
 62
   250
420
  1709851
370
    18
100
AcDb2dPolyline
 66
     1
 10
0.0
 20
0.0
 30
0.0
  0
VERTEX
  5
560
330
55F
100
AcDbEntity
  8
Ma\U+00DFe
 62
   250
420
  1709851
370
    18
100
AcDbVertex
100
AcDb2dVertex
 10
131.6494140625
 20
130.49169921875
 30
0.0
  0
VERTEX
  5
561
330
55F
100
AcDbEntity
  8
Ma\U+00DFe
 62
   250
420
  1709851
370
    18
100
AcDbVertex
100
AcDb2dVertex
 10
131.6396484375
 20
130.4716796875
 30
0.0
  0
SEQEND
  5
562
330
55F
100
AcDbEntity
  8
Ma\U+00DFe
370
    18
  0
POLYLINE
  5
563
330
3DA
100
AcDbEntity
  8
Ma\U+00DFe
 62
   250
420
  1709851
370
    18
100
AcDb2dPolyline
 66
     1
 10
0.0
 20
0.0
 30
0.0
  0
VERTEX
  5
564
330
563
100
AcDbEntity
  8
Ma\U+00DFe
 62
   250
420
  1709851
370
    18
100
AcDbVertex
100
AcDb2dVertex
 10
131.6494140625
 20
130.501953125
 30
0.0
  0
VERTEX
  5
565
330
563
100
AcDbEntity
  8
Ma\U+00DFe
 62
   250
420
  1709851
370
    18
100
AcDbVertex
100
AcDb2dVertex
 10
131.6494140625
 20
130.49169921875
 30
0.0
  0
SEQEND
  5
566
330
563
100
AcDbEntity
  8
Ma\U+00DFe
370
    18
  0
POLYLINE
  5
567
330
3DA
100
AcDbEntity
  8
Ma\U+00DFe
 62
   250
420
  1709851
370
    18
100
AcDb2dPolyline
 66
     1
 10
0.0
 20
0.0
 30
0.0
  0
VERTEX
  5
568
330
567
100
AcDbEntity
  8
Ma\U+00DFe
 62
   250
420
  1709851
370
    18
100
AcDbVertex
100
AcDb2dVertex
 10
123.3896484375
 20
109.3916015625
 30
0.0
  0
VERTEX
  5
569
330
567
100
AcDbEntity
  8
Ma\U+00DFe
 62
   250
420
  1709851
370
    18
100
AcDbVertex
100
AcDb2dVertex
 10
128.3291015625
 20
109.3916015625
 30
0.0
  0
SEQEND
  5
56A
330
567
100
AcDbEntity
  8
Ma\U+00DFe
370
    18
  0
POLYLINE
  5
56B
330
3DA
100
AcDbEntity
  8
Ma\U+00DFe
 62
   250
420
  1709851
370
    18
100
AcDb2dPolyline
 66
     1
 10
0.0
 20
0.0
 30
0.0
  0
VERTEX
  5
56C
330
56B
100
AcDbEntity
  8
Ma\U+00DFe
 62
   250
420
  1709851
370
    18
100
AcDbVertex
100
AcDb2dVertex
 10
123.3896484375
 20
123.91162109375
 30
0.0
  0
VERTEX
  5
56D
330
56B
100
AcDbEntity
  8
Ma\U+00DFe
 62
   250
420
  1709851
370
    18
100
AcDbVertex
100
AcDb2dVertex
 10
128.279296875
 20
123.91162109375
 30
0.0
  0
SEQEND
  5
56E
330
56B
100
AcDbEntity
  8
Ma\U+00DFe
370
    18
  0
POLYLINE
  5
56F
330
3DA
100
AcDbEntity
  8
Ma\U+00DFe
 62
   250
420
  1709851
370
    18
100
AcDb2dPolyline
 66
     1
 10
0.0
 20
0.0
 30
0.0
  0
VERTEX
  5
570
330
56F
100
AcDbEntity
  8
Ma\U+00DFe
 62
   250
420
  1709851
370
    18
100
AcDbVertex
100
AcDb2dVertex
 10
127.2392578125
 20
126.82177734375
 30
0.0
  0
VERTEX
  5
571
330
56F
100
AcDbEntity
  8
Ma\U+00DFe
 62
   250
420
  1709851
370
    18
100
AcDbVertex
100
AcDb2dVertex
 10
127.2392578125
 20
126.8017578125
 30
0.0
  0
SEQEND
  5
572
330
56F
100
AcDbEntity
  8
Ma\U+00DFe
370
    18
  0
POLYLINE
  5
573
330
3DA
100
AcDbEntity
  8
Ma\U+00DFe
 62
   250
420
  1709851
370
    18
100
AcDb2dPolyline
 66
     1
 10
0.0
 20
0.0
 30
0.0
  0
VERTEX
  5
574
330
573
100
AcDbEntity
  8
Ma\U+00DFe
 62
   250
420
  1709851
370
    18
100
AcDbVertex
100
AcDb2dVertex
 10
127.2392578125
 20
107.6611328125
 30
0.0
  0
VERTEX
  5
575
330
573
100
AcDbEntity
  8
Ma\U+00DFe
 62
   250
420
  1709851
370
    18
100
AcDbVertex
100
AcDb2dVertex
 10
127.2392578125
 20
107.4716796875
 30
0.0
  0
SEQEND
  5
576
330
573
100
AcDbEntity
  8
Ma\U+00DFe
370
    18
  0
ENDBLK
  5
3DD
330
3DA
100
AcDbEntity
  8
0
100
AcDbBlockEnd
  0
BLOCK
  5
5DA
330
5D8
100
AcDbEntity
  8
0
100
AcDbBlockBegin
  2
block 6
 70
     0
 71
     0
 10
0.0
 20
0.0
 30
0.0
  3
block 6
  1

  0
POLYLINE
  5
5DC
330
5D8
100
AcDbEntity
  8
Ma\U+00DFe
 62
   250
420
  1709851
370
    18
100
AcDb2dPolyline
 66
     1
 10
0.0
 20
0.0
 30
0.0
  0
VERTEX
  5
5DD
330
5DC
100
AcDbEntity
  8
Ma\U+00DFe
 62
   250
420
  1709851
370
    18
100
AcDbVertex
100
AcDb2dVertex
 10
120.3896484375
 20
69.3505859375
 30
0.0
  0
VERTEX
  5
5DE
330
5DC
100
AcDbEntity
  8
Ma\U+00DFe
 62
   250
420
  1709851
370
    18
100
AcDbVertex
100
AcDb2dVertex
 10
101.9892578125
 20
69.3505859375
 30
0.0
  0
SEQEND
  5
5DF
330
5DC
100
AcDbEntity
  8
Ma\U+00DFe
370
    18
  0
POLYLINE
  5
5E0
330
5D8
100
AcDbEntity
  8
Ma\U+00DFe
 62
   250
420
  1709851
370
    18
100
AcDb2dPolyline
 66
     1
 10
0.0
 20
0.0
 30
0.0
  0
VERTEX
  5
5E1
330
5E0
100
AcDbEntity
  8
Ma\U+00DFe
 62
   250
420
  1709851
370
    18
100
AcDbVertex
100
AcDb2dVertex
 10
122.0185546875
 20
110.4599609375
 30
0.0
  0
VERTEX
  5
5E2
330
5E0
100
AcDbEntity
  8
Ma\U+00DFe
 62
   250
420
  1709851
370
    18
100
AcDbVertex
100
AcDb2dVertex
 10
101.9892578125
 20
110.4599609375
 30
0.0
  0
SEQEND
  5
5E3
330
5E0
100
AcDbEntity
  8
Ma\U+00DFe
370
    18
  0
POLYLINE
  5
5E4
330
5D8
100
AcDbEntity
  8
Ma\U+00DFe
 62
   250
420
  1709851
370
    18
100
AcDb2dPolyline
 66
     1
 10
0.0
 20
0.0
 30
0.0
  0
VERTEX
  5
5E5
330
5E4
100
AcDbEntity
  8
Ma\U+00DFe
 62
   250
420
  1709851
370
    18
100
AcDbVertex
100
AcDb2dVertex
 10
122.0185546875
 20
110.4599609375
 30
0.0
  0
VERTEX
  5
5E6
330
5E4
100
AcDbEntity
  8
Ma\U+00DFe
 62
   250
420
  1709851
370
    18
100
AcDbVertex
100
AcDb2dVertex
 10
101.9892578125
 20
110.4599609375
 30
0.0
  0
SEQEND
  5
5E7
330
5E4
100
AcDbEntity
  8
Ma\U+00DFe
370
    18
  0
POLYLINE
  5
5E8
330
5D8
100
AcDbEntity
  8
Ma\U+00DFe
 62
   250
420
  1709851
370
    18
100
AcDb2dPolyline
 66
     1
 10
0.0
 20
0.0
 30
0.0
  0
VERTEX
  5
5E9
330
5E8
100
AcDbEntity
  8
Ma\U+00DFe
 62
   250
420
  1709851
370
    18
100
AcDbVertex
100
AcDb2dVertex
 10
122.0185546875
 20
122.8603515625
 30
0.0
  0
VERTEX
  5
5EA
330
5E8
100
AcDbEntity
  8
Ma\U+00DFe
 62
   250
420
  1709851
370
    18
100
AcDbVertex
100
AcDb2dVertex
 10
101.9892578125
 20
122.8603515625
 30
0.0
  0
SEQEND
  5
5EB
330
5E8
100
AcDbEntity
  8
Ma\U+00DFe
370
    18
  0
POLYLINE
  5
5EC
330
5D8
100
AcDbEntity
  8
Ma\U+00DFe
370
     0
100
AcDb2dPolyline
 66
     1
 10
0.0
 20
0.0
 30
0.0
  0
VERTEX
  5
5ED
330
5EC
100
AcDbEntity
  8
Ma\U+00DFe
370
     0
100
AcDbVertex
100
AcDb2dVertex
 10
104.109375
 20
75.490234375
 30
0.0
  0
VERTEX
  5
5EE
330
5EC
100
AcDbEntity
  8
Ma\U+00DFe
370
     0
100
AcDbVertex
100
AcDb2dVertex
 10
107.6591796875
 20
69.3505859375
 30
0.0
  0
VERTEX
  5
5EF
330
5EC
100
AcDbEntity
  8
Ma\U+00DFe
370
     0
100
AcDbVertex
100
AcDb2dVertex
 10
111.19921875
 20
75.490234375
 30
0.0
  0
VERTEX
  5
5F0
330
5EC
100
AcDbEntity
  8
Ma\U+00DFe
370
     0
100
AcDbVertex
100
AcDb2dVertex
 10
104.109375
 20
75.490234375
 30
0.0
  0
SEQEND
  5
5F1
330
5EC
100
AcDbEntity
  8
Ma\U+00DFe
370
     0
  0
HATCH
  5
5F2
330
5D8
100
AcDbEntity
  8
Ma\U+00DFe
 62
   250
420
  1709851
100
AcDbHatch
 10
0.0
 20
0.0
 30
0.0
210
0.0
220
0.0
230
1.0
  2
SOLID
 70
     1
 71
     0
 91
        1
 92
        1
 93
        3
 72
     1
 10
104.109375
 20
75.490234375
 11
107.6591796875
 21
69.3505859375
 72
     1
 10
107.6591796875
 20
69.3505859375
 11
111.19921875
 21
75.490234375
 72
     1
 10
111.19921875
 20
75.490234375
 11
104.109375
 21
75.490234375
 97
        0
 75
     0
 76
     1
 98
        0
  0
POLYLINE
  5
5F3
330
5D8
100
AcDbEntity
  8
Ma\U+00DFe
370
     0
100
AcDb2dPolyline
 66
     1
 10
0.0
 20
0.0
 30
0.0
  0
VERTEX
  5
5F4
330
5F3
100
AcDbEntity
  8
Ma\U+00DFe
370
     0
100
AcDbVertex
100
AcDb2dVertex
 10
111.19921875
 20
104.3203125
 30
0.0
  0
VERTEX
  5
5F5
330
5F3
100
AcDbEntity
  8
Ma\U+00DFe
370
     0
100
AcDbVertex
100
AcDb2dVertex
 10
107.6591796875
 20
110.4599609375
 30
0.0
  0
VERTEX
  5
5F6
330
5F3
100
AcDbEntity
  8
Ma\U+00DFe
370
     0
100
AcDbVertex
100
AcDb2dVertex
 10
104.109375
 20
104.3203125
 30
0.0
  0
VERTEX
  5
5F7
330
5F3
100
AcDbEntity
  8
Ma\U+00DFe
370
     0
100
AcDbVertex
100
AcDb2dVertex
 10
111.19921875
 20
104.3203125
 30
0.0
  0
SEQEND
  5
5F8
330
5F3
100
AcDbEntity
  8
Ma\U+00DFe
370
     0
  0
HATCH
  5
5F9
330
5D8
100
AcDbEntity
  8
Ma\U+00DFe
 62
   250
420
  1709851
100
AcDbHatch
 10
0.0
 20
0.0
 30
0.0
210
0.0
220
0.0
230
1.0
  2
SOLID
 70
     1
 71
     0
 91
        1
 92
        1
 93
        3
 72
     1
 10
111.19921875
 20
104.3203125
 11
107.6591796875
 21
110.4599609375
 72
     1
 10
107.6591796875
 20
110.4599609375
 11
104.109375
 21
104.3203125
 72
     1
 10
104.109375
 20
104.3203125
 11
111.19921875
 21
104.3203125
 97
        0
 75
     0
 76
     1
 98
        0
  0
POLYLINE
  5
5FA
330
5D8
100
AcDbEntity
  8
Ma\U+00DFe
370
     0
100
AcDb2dPolyline
 66
     1
 10
0.0
 20
0.0
 30
0.0
  0
VERTEX
  5
5FB
330
5FA
100
AcDbEntity
  8
Ma\U+00DFe
370
     0
100
AcDbVertex
100
AcDb2dVertex
 10
104.8486328125
 20
82.4599609375
 30
0.0
  0
VERTEX
  5
5FC
330
5FA
100
AcDbEntity
  8
Ma\U+00DFe
370
     0
100
AcDbVertex
100
AcDb2dVertex
 10
111.19921875
 20
82.4599609375
 30
0.0
  0
VERTEX
  5
5FD
330
5FA
100
AcDbEntity
  8
Ma\U+00DFe
370
     0
100
AcDbVertex
100
AcDb2dVertex
 10
111.19921875
 20
83.25
 30
0.0
  0
VERTEX
  5
5FE
330
5FA
100
AcDbEntity
  8
Ma\U+00DFe
370
     0
100
AcDbVertex
100
AcDb2dVertex
 10
104.109375
 20
83.25
 30
0.0
  0
VERTEX
  5
5FF
330
5FA
100
AcDbEntity
  8
Ma\U+00DFe
370
     0
100
AcDbVertex
100
AcDb2dVertex
 10
104.109375
 20
81.7001953125
 30
0.0
  0
VERTEX
  5
600
330
5FA
100
AcDbEntity
  8
Ma\U+00DFe
370
     0
100
AcDbVertex
100
AcDb2dVertex
 10
104.8486328125
 20
81.2900390625
 30
0.0
  0
VERTEX
  5
601
330
5FA
100
AcDbEntity
  8
Ma\U+00DFe
370
     0
100
AcDbVertex
100
AcDb2dVertex
 10
104.8486328125
 20
82.4599609375
 30
0.0
  0
SEQEND
  5
602
330
5FA
100
AcDbEntity
  8
Ma\U+00DFe
370
     0
  0
POLYLINE
  5
603
330
5D8
100
AcDbEntity
  8
Ma\U+00DFe
370
     0
100
AcDb2dPolyline
 66
     1
 10
0.0
 20
0.0
 30
0.0
  0
VERTEX
  5
604
330
603
100
AcDbEntity
  8
Ma\U+00DFe
370
     0
100
AcDbVertex
100
AcDb2dVertex
 10
104.8486328125
 20
89.669921875
 30
0.0
  0
VERTEX
  5
605
330
603
100
AcDbEntity
  8
Ma\U+00DFe
370
     0
100
AcDbVertex
100
AcDb2dVertex
 10
111.19921875
 20
89.669921875
 30
0.0
  0
VERTEX
  5
606
330
603
100
AcDbEntity
  8
Ma\U+00DFe
370
     0
100
AcDbVertex
100
AcDb2dVertex
 10
111.19921875
 20
90.4599609375
 30
0.0
  0
VERTEX
  5
607
330
603
100
AcDbEntity
  8
Ma\U+00DFe
370
     0
100
AcDbVertex
100
AcDb2dVertex
 10
104.109375
 20
90.4599609375
 30
0.0
  0
VERTEX
  5
608
330
603
100
AcDbEntity
  8
Ma\U+00DFe
370
     0
100
AcDbVertex
100
AcDb2dVertex
 10
104.109375
 20
88.91015625
 30
0.0
  0
VERTEX
  5
609
330
603
100
AcDbEntity
  8
Ma\U+00DFe
370
     0
100
AcDbVertex
100
AcDb2dVertex
 10
104.8486328125
 20
88.5
 30
0.0
  0
VERTEX
  5
60A
330
603
100
AcDbEntity
  8
Ma\U+00DFe
370
     0
100
AcDbVertex
100
AcDb2dVertex
 10
104.8486328125
 20
89.669921875
 30
0.0
  0
SEQEND
  5
60B
330
603
100
AcDbEntity
  8
Ma\U+00DFe
370
     0
  0
POLYLINE
  5
60C
330
5D8
100
AcDbEntity
  8
Ma\U+00DFe
370
     0
100
AcDb2dPolyline
 66
     1
 10
0.0
 20
0.0
 30
0.0
  0
VERTEX
  5
60D
330
60C
100
AcDbEntity
  8
Ma\U+00DFe
370
     0
100
AcDbVertex
100
AcDb2dVertex
 10
103.9892578125
 20
97.6298828125
 30
0.0
  0
VERTEX
  5
60E
330
60C
100
AcDbEntity
  8
Ma\U+00DFe
370
     0
100
AcDbVertex
100
AcDb2dVertex
 10
107.19921875
 20
95.2802734375
 30
0.0
  0
VERTEX
  5
60F
330
60C
100
AcDbEntity
  8
Ma\U+00DFe
370
     0
100
AcDbVertex
100
AcDb2dVertex
 10
107.9892578125
 20
94.8203125
 30
0.0
  0
VERTEX
  5
610
330
60C
100
AcDbEntity
  8
Ma\U+00DFe
370
     0
100
AcDbVertex
100
AcDb2dVertex
 10
108.8994140625
 20
94.6298828125
 30
0.0
  0
VERTEX
  5
611
330
60C
100
AcDbEntity
  8
Ma\U+00DFe
370
     0
100
AcDbVertex
100
AcDb2dVertex
 10
109.8486328125
 20
94.8203125
 30
0.0
  0
VERTEX
  5
612
330
60C
100
AcDbEntity
  8
Ma\U+00DFe
370
     0
100
AcDbVertex
100
AcDb2dVertex
 10
110.619140625
 20
95.3505859375
 30
0.0
  0
VERTEX
  5
613
330
60C
100
AcDbEntity
  8
Ma\U+00DFe
370
     0
100
AcDbVertex
100
AcDb2dVertex
 10
111.12890625
 20
96.1298828125
 30
0.0
  0
VERTEX
  5
614
330
60C
100
AcDbEntity
  8
Ma\U+00DFe
370
     0
100
AcDbVertex
100
AcDb2dVertex
 10
111.3193359375
 20
97.0703125
 30
0.0
  0
VERTEX
  5
615
330
60C
100
AcDbEntity
  8
Ma\U+00DFe
370
     0
100
AcDbVertex
100
AcDb2dVertex
 10
111.12890625
 20
98.009765625
 30
0.0
  0
VERTEX
  5
616
330
60C
100
AcDbEntity
  8
Ma\U+00DFe
370
     0
100
AcDbVertex
100
AcDb2dVertex
 10
110.619140625
 20
98.7900390625
 30
0.0
  0
VERTEX
  5
617
330
60C
100
AcDbEntity
  8
Ma\U+00DFe
370
     0
100
AcDbVertex
100
AcDb2dVertex
 10
109.8486328125
 20
99.3203125
 30
0.0
  0
VERTEX
  5
618
330
60C
100
AcDbEntity
  8
Ma\U+00DFe
370
     0
100
AcDbVertex
100
AcDb2dVertex
 10
108.8896484375
 20
99.5205078125
 30
0.0
  0
VERTEX
  5
619
330
60C
100
AcDbEntity
  8
Ma\U+00DFe
370
     0
100
AcDbVertex
100
AcDb2dVertex
 10
107.9794921875
 20
99.33984375
 30
0.0
  0
VERTEX
  5
61A
330
60C
100
AcDbEntity
  8
Ma\U+00DFe
370
     0
100
AcDbVertex
100
AcDb2dVertex
 10
107.2392578125
 20
98.8505859375
 30
0.0
  0
VERTEX
  5
61B
330
60C
100
AcDbEntity
  8
Ma\U+00DFe
370
     0
100
AcDbVertex
100
AcDb2dVertex
 10
106.7294921875
 20
98.1201171875
 30
0.0
  0
VERTEX
  5
61C
330
60C
100
AcDbEntity
  8
Ma\U+00DFe
370
     0
100
AcDbVertex
100
AcDb2dVertex
 10
106.548828125
 20
97.2294921875
 30
0.0
  0
VERTEX
  5
61D
330
60C
100
AcDbEntity
  8
Ma\U+00DFe
370
     0
100
AcDbVertex
100
AcDb2dVertex
 10
106.6494140625
 20
96.6005859375
 30
0.0
  0
VERTEX
  5
61E
330
60C
100
AcDbEntity
  8
Ma\U+00DFe
370
     0
100
AcDbVertex
100
AcDb2dVertex
 10
106.62890625
 20
96.58984375
 30
0.0
  0
VERTEX
  5
61F
330
60C
100
AcDbEntity
  8
Ma\U+00DFe
370
     0
100
AcDbVertex
100
AcDb2dVertex
 10
104.4287109375
 20
98.2197265625
 30
0.0
  0
VERTEX
  5
620
330
60C
100
AcDbEntity
  8
Ma\U+00DFe
370
     0
100
AcDbVertex
100
AcDb2dVertex
 10
103.9892578125
 20
97.6298828125
 30
0.0
  0
SEQEND
  5
621
330
60C
100
AcDbEntity
  8
Ma\U+00DFe
370
     0
  0
POLYLINE
  5
622
330
5D8
100
AcDbEntity
  8
Ma\U+00DFe
370
     0
100
AcDb2dPolyline
 66
     1
 10
0.0
 20
0.0
 30
0.0
  0
VERTEX
  5
623
330
622
100
AcDbEntity
  8
Ma\U+00DFe
370
     0
100
AcDbVertex
100
AcDb2dVertex
 10
110.5888671875
 20
97.0703125
 30
0.0
  0
VERTEX
  5
624
330
622
100
AcDbEntity
  8
Ma\U+00DFe
370
     0
100
AcDbVertex
100
AcDb2dVertex
 10
110.458984375
 20
96.4306640625
 30
0.0
  0
VERTEX
  5
625
330
622
100
AcDbEntity
  8
Ma\U+00DFe
370
     0
100
AcDbVertex
100
AcDb2dVertex
 10
110.0986328125
 20
95.8994140625
 30
0.0
  0
VERTEX
  5
626
330
622
100
AcDbEntity
  8
Ma\U+00DFe
370
     0
100
AcDbVertex
100
AcDb2dVertex
 10
109.5693359375
 20
95.5400390625
 30
0.0
  0
VERTEX
  5
627
330
622
100
AcDbEntity
  8
Ma\U+00DFe
370
     0
100
AcDbVertex
100
AcDb2dVertex
 10
108.9189453125
 20
95.419921875
 30
0.0
  0
VERTEX
  5
628
330
622
100
AcDbEntity
  8
Ma\U+00DFe
370
     0
100
AcDbVertex
100
AcDb2dVertex
 10
108.279296875
 20
95.5400390625
 30
0.0
  0
VERTEX
  5
629
330
622
100
AcDbEntity
  8
Ma\U+00DFe
370
     0
100
AcDbVertex
100
AcDb2dVertex
 10
107.7587890625
 20
95.8994140625
 30
0.0
  0
VERTEX
  5
62A
330
622
100
AcDbEntity
  8
Ma\U+00DFe
370
     0
100
AcDbVertex
100
AcDb2dVertex
 10
107.4091796875
 20
96.4306640625
 30
0.0
  0
VERTEX
  5
62B
330
622
100
AcDbEntity
  8
Ma\U+00DFe
370
     0
100
AcDbVertex
100
AcDb2dVertex
 10
107.279296875
 20
97.0703125
 30
0.0
  0
VERTEX
  5
62C
330
622
100
AcDbEntity
  8
Ma\U+00DFe
370
     0
100
AcDbVertex
100
AcDb2dVertex
 10
107.4091796875
 20
97.7099609375
 30
0.0
  0
VERTEX
  5
62D
330
622
100
AcDbEntity
  8
Ma\U+00DFe
370
     0
100
AcDbVertex
100
AcDb2dVertex
 10
107.7587890625
 20
98.240234375
 30
0.0
  0
VERTEX
  5
62E
330
622
100
AcDbEntity
  8
Ma\U+00DFe
370
     0
100
AcDbVertex
100
AcDb2dVertex
 10
108.279296875
 20
98.6005859375
 30
0.0
  0
VERTEX
  5
62F
330
622
100
AcDbEntity
  8
Ma\U+00DFe
370
     0
100
AcDbVertex
100
AcDb2dVertex
 10
108.9189453125
 20
98.7294921875
 30
0.0
  0
VERTEX
  5
630
330
622
100
AcDbEntity
  8
Ma\U+00DFe
370
     0
100
AcDbVertex
100
AcDb2dVertex
 10
109.5693359375
 20
98.6005859375
 30
0.0
  0
VERTEX
  5
631
330
622
100
AcDbEntity
  8
Ma\U+00DFe
370
     0
100
AcDbVertex
100
AcDb2dVertex
 10
110.0986328125
 20
98.240234375
 30
0.0
  0
VERTEX
  5
632
330
622
100
AcDbEntity
  8
Ma\U+00DFe
370
     0
100
AcDbVertex
100
AcDb2dVertex
 10
110.458984375
 20
97.7099609375
 30
0.0
  0
VERTEX
  5
633
330
622
100
AcDbEntity
  8
Ma\U+00DFe
370
     0
100
AcDbVertex
100
AcDb2dVertex
 10
110.5888671875
 20
97.0703125
 30
0.0
  0
SEQEND
  5
634
330
622
100
AcDbEntity
  8
Ma\U+00DFe
370
     0
  0
HATCH
  5
635
330
5D8
100
AcDbEntity
  8
Ma\U+00DFe
 62
   250
420
  1709851
100
AcDbHatch
 10
0.0
 20
0.0
 30
0.0
210
0.0
220
0.0
230
1.0
  2
SOLID
 70
     1
 71
     0
 91
        4
 92
        1
 93
       16
 72
     1
 10
110.5888671875
 20
97.0703125
 11
110.458984375
 21
96.4306640625
 72
     1
 10
110.458984375
 20
96.4306640625
 11
110.0986328125
 21
95.8994140625
 72
     1
 10
110.0986328125
 20
95.8994140625
 11
109.5693359375
 21
95.5400390625
 72
     1
 10
109.5693359375
 20
95.5400390625
 11
108.9189453125
 21
95.419921875
 72
     1
 10
108.9189453125
 20
95.419921875
 11
108.279296875
 21
95.5400390625
 72
     1
 10
108.279296875
 20
95.5400390625
 11
107.7587890625
 21
95.8994140625
 72
     1
 10
107.7587890625
 20
95.8994140625
 11
107.4091796875
 21
96.4306640625
 72
     1
 10
107.4091796875
 20
96.4306640625
 11
107.279296875
 21
97.0703125
 72
     1
 10
107.279296875
 20
97.0703125
 11
107.4091796875
 21
97.7099609375
 72
     1
 10
107.4091796875
 20
97.7099609375
 11
107.7587890625
 21
98.240234375
 72
     1
 10
107.7587890625
 20
98.240234375
 11
108.279296875
 21
98.6005859375
 72
     1
 10
108.279296875
 20
98.6005859375
 11
108.9189453125
 21
98.7294921875
 72
     1
 10
108.9189453125
 20
98.7294921875
 11
109.5693359375
 21
98.6005859375
 72
     1
 10
109.5693359375
 20
98.6005859375
 11
110.0986328125
 21
98.240234375
 72
     1
 10
110.0986328125
 20
98.240234375
 11
110.458984375
 21
97.7099609375
 72
     1
 10
110.458984375
 20
97.7099609375
 11
110.5888671875
 21
97.0703125
 97
        0
 92
        1
 93
        6
 72
     1
 10
104.8486328125
 20
82.4599609375
 11
111.19921875
 21
82.4599609375
 72
     1
 10
111.19921875
 20
82.4599609375
 11
111.19921875
 21
83.25
 72
     1
 10
111.19921875
 20
83.25
 11
104.109375
 21
83.25
 72
     1
 10
104.109375
 20
83.25
 11
104.109375
 21
81.7001953125
 72
     1
 10
104.109375
 20
81.7001953125
 11
104.8486328125
 21
81.2900390625
 72
     1
 10
104.8486328125
 20
81.2900390625
 11
104.8486328125
 21
82.4599609375
 97
        0
 92
        1
 93
        6
 72
     1
 10
104.8486328125
 20
89.669921875
 11
111.19921875
 21
89.669921875
 72
     1
 10
111.19921875
 20
89.669921875
 11
111.19921875
 21
90.4599609375
 72
     1
 10
111.19921875
 20
90.4599609375
 11
104.109375
 21
90.4599609375
 72
     1
 10
104.109375
 20
90.4599609375
 11
104.109375
 21
88.91015625
 72
     1
 10
104.109375
 20
88.91015625
 11
104.8486328125
 21
88.5
 72
     1
 10
104.8486328125
 20
88.5
 11
104.8486328125
 21
89.669921875
 97
        0
 92
        1
 93
       19
 72
     1
 10
103.9892578125
 20
97.6298828125
 11
107.19921875
 21
95.2802734375
 72
     1
 10
107.19921875
 20
95.2802734375
 11
107.9892578125
 21
94.8203125
 72
     1
 10
107.9892578125
 20
94.8203125
 11
108.8994140625
 21
94.6298828125
 72
     1
 10
108.8994140625
 20
94.6298828125
 11
109.8486328125
 21
94.8203125
 72
     1
 10
109.8486328125
 20
94.8203125
 11
110.619140625
 21
95.3505859375
 72
     1
 10
110.619140625
 20
95.3505859375
 11
111.12890625
 21
96.1298828125
 72
     1
 10
111.12890625
 20
96.1298828125
 11
111.3193359375
 21
97.0703125
 72
     1
 10
111.3193359375
 20
97.0703125
 11
111.12890625
 21
98.009765625
 72
     1
 10
111.12890625
 20
98.009765625
 11
110.619140625
 21
98.7900390625
 72
     1
 10
110.619140625
 20
98.7900390625
 11
109.8486328125
 21
99.3203125
 72
     1
 10
109.8486328125
 20
99.3203125
 11
108.8896484375
 21
99.5205078125
 72
     1
 10
108.8896484375
 20
99.5205078125
 11
107.9794921875
 21
99.33984375
 72
     1
 10
107.9794921875
 20
99.33984375
 11
107.2392578125
 21
98.8505859375
 72
     1
 10
107.2392578125
 20
98.8505859375
 11
106.7294921875
 21
98.1201171875
 72
     1
 10
106.7294921875
 20
98.1201171875
 11
106.548828125
 21
97.2294921875
 72
     1
 10
106.548828125
 20
97.2294921875
 11
106.6494140625
 21
96.6005859375
 72
     1
 10
106.6494140625
 20
96.6005859375
 11
106.62890625
 21
96.58984375
 72
     1
 10
106.62890625
 20
96.58984375
 11
104.4287109375
 21
98.2197265625
 72
     1
 10
104.4287109375
 20
98.2197265625
 11
103.9892578125
 21
97.6298828125
 97
        0
 75
     0
 76
     1
 98
        0
  0
POLYLINE
  5
636
330
5D8
100
AcDbEntity
  8
Ma\U+00DFe
 62
   250
420
  1709851
370
    18
100
AcDb2dPolyline
 66
     1
 10
0.0
 20
0.0
 30
0.0
  0
VERTEX
  5
637
330
636
100
AcDbEntity
  8
Ma\U+00DFe
 62
   250
420
  1709851
370
    18
100
AcDbVertex
100
AcDb2dVertex
 10
107.6591796875
 20
75.490234375
 30
0.0
  0
VERTEX
  5
638
330
636
100
AcDbEntity
  8
Ma\U+00DFe
 62
   250
420
  1709851
370
    18
100
AcDbVertex
100
AcDb2dVertex
 10
107.6591796875
 20
75.5498046875
 30
0.0
  0
SEQEND
  5
639
330
636
100
AcDbEntity
  8
Ma\U+00DFe
370
    18
  0
POLYLINE
  5
63A
330
5D8
100
AcDbEntity
  8
Ma\U+00DFe
 62
   250
420
  1709851
370
    18
100
AcDb2dPolyline
 66
     1
 10
0.0
 20
0.0
 30
0.0
  0
VERTEX
  5
63B
330
63A
100
AcDbEntity
  8
Ma\U+00DFe
 62
   250
420
  1709851
370
    18
100
AcDbVertex
100
AcDb2dVertex
 10
107.6591796875
 20
104.259765625
 30
0.0
  0
VERTEX
  5
63C
330
63A
100
AcDbEntity
  8
Ma\U+00DFe
 62
   250
420
  1709851
370
    18
100
AcDbVertex
100
AcDb2dVertex
 10
107.6591796875
 20
104.3203125
 30
0.0
  0
SEQEND
  5
63D
330
63A
100
AcDbEntity
  8
Ma\U+00DFe
370
    18
  0
POLYLINE
  5
63E
330
5D8
100
AcDbEntity
  8
Ma\U+00DFe
 62
   250
420
  1709851
370
    18
100
AcDb2dPolyline
 66
     1
 10
0.0
 20
0.0
 30
0.0
  0
VERTEX
  5
63F
330
63E
100
AcDbEntity
  8
Ma\U+00DFe
 62
   250
420
  1709851
370
    18
100
AcDbVertex
100
AcDb2dVertex
 10
104.109375
 20
75.490234375
 30
0.0
  0
VERTEX
  5
640
330
63E
100
AcDbEntity
  8
Ma\U+00DFe
 62
   250
420
  1709851
370
    18
100
AcDbVertex
100
AcDb2dVertex
 10
107.6591796875
 20
69.3505859375
 30
0.0
  0
VERTEX
  5
641
330
63E
100
AcDbEntity
  8
Ma\U+00DFe
 62
   250
420
  1709851
370
    18
100
AcDbVertex
100
AcDb2dVertex
 10
111.19921875
 20
75.490234375
 30
0.0
  0
VERTEX
  5
642
330
63E
100
AcDbEntity
  8
Ma\U+00DFe
 62
   250
420
  1709851
370
    18
100
AcDbVertex
100
AcDb2dVertex
 10
104.109375
 20
75.490234375
 30
0.0
  0
SEQEND
  5
643
330
63E
100
AcDbEntity
  8
Ma\U+00DFe
370
    18
  0
POLYLINE
  5
644
330
5D8
100
AcDbEntity
  8
Ma\U+00DFe
 62
   250
420
  1709851
370
    18
100
AcDb2dPolyline
 66
     1
 10
0.0
 20
0.0
 30
0.0
  0
VERTEX
  5
645
330
644
100
AcDbEntity
  8
Ma\U+00DFe
 62
   250
420
  1709851
370
    18
100
AcDbVertex
100
AcDb2dVertex
 10
111.19921875
 20
104.3203125
 30
0.0
  0
VERTEX
  5
646
330
644
100
AcDbEntity
  8
Ma\U+00DFe
 62
   250
420
  1709851
370
    18
100
AcDbVertex
100
AcDb2dVertex
 10
107.6591796875
 20
110.4599609375
 30
0.0
  0
VERTEX
  5
647
330
644
100
AcDbEntity
  8
Ma\U+00DFe
 62
   250
420
  1709851
370
    18
100
AcDbVertex
100
AcDb2dVertex
 10
104.109375
 20
104.3203125
 30
0.0
  0
VERTEX
  5
648
330
644
100
AcDbEntity
  8
Ma\U+00DFe
 62
   250
420
  1709851
370
    18
100
AcDbVertex
100
AcDb2dVertex
 10
111.19921875
 20
104.3203125
 30
0.0
  0
SEQEND
  5
649
330
644
100
AcDbEntity
  8
Ma\U+00DFe
370
    18
  0
POLYLINE
  5
64A
330
5D8
100
AcDbEntity
  8
Ma\U+00DFe
370
     0
100
AcDb2dPolyline
 66
     1
 10
0.0
 20
0.0
 30
0.0
  0
VERTEX
  5
64B
330
64A
100
AcDbEntity
  8
Ma\U+00DFe
370
     0
100
AcDbVertex
100
AcDb2dVertex
 10
111.19921875
 20
104.3203125
 30
0.0
  0
VERTEX
  5
64C
330
64A
100
AcDbEntity
  8
Ma\U+00DFe
370
     0
100
AcDbVertex
100
AcDb2dVertex
 10
107.6591796875
 20
110.4599609375
 30
0.0
  0
VERTEX
  5
64D
330
64A
100
AcDbEntity
  8
Ma\U+00DFe
370
     0
100
AcDbVertex
100
AcDb2dVertex
 10
104.109375
 20
104.3203125
 30
0.0
  0
VERTEX
  5
64E
330
64A
100
AcDbEntity
  8
Ma\U+00DFe
370
     0
100
AcDbVertex
100
AcDb2dVertex
 10
111.19921875
 20
104.3203125
 30
0.0
  0
SEQEND
  5
64F
330
64A
100
AcDbEntity
  8
Ma\U+00DFe
370
     0
  0
HATCH
  5
650
330
5D8
100
AcDbEntity
  8
Ma\U+00DFe
 62
   250
420
  1709851
100
AcDbHatch
 10
0.0
 20
0.0
 30
0.0
210
0.0
220
0.0
230
1.0
  2
SOLID
 70
     1
 71
     0
 91
        1
 92
        1
 93
        3
 72
     1
 10
111.19921875
 20
104.3203125
 11
107.6591796875
 21
110.4599609375
 72
     1
 10
107.6591796875
 20
110.4599609375
 11
104.109375
 21
104.3203125
 72
     1
 10
104.109375
 20
104.3203125
 11
111.19921875
 21
104.3203125
 97
        0
 75
     0
 76
     1
 98
        0
  0
POLYLINE
  5
651
330
5D8
100
AcDbEntity
  8
Ma\U+00DFe
370
     0
100
AcDb2dPolyline
 66
     1
 10
0.0
 20
0.0
 30
0.0
  0
VERTEX
  5
652
330
651
100
AcDbEntity
  8
Ma\U+00DFe
370
     0
100
AcDbVertex
100
AcDb2dVertex
 10
104.109375
 20
129.0
 30
0.0
  0
VERTEX
  5
653
330
651
100
AcDbEntity
  8
Ma\U+00DFe
370
     0
100
AcDbVertex
100
AcDb2dVertex
 10
107.6591796875
 20
122.8603515625
 30
0.0
  0
VERTEX
  5
654
330
651
100
AcDbEntity
  8
Ma\U+00DFe
370
     0
100
AcDbVertex
100
AcDb2dVertex
 10
111.19921875
 20
129.0
 30
0.0
  0
VERTEX
  5
655
330
651
100
AcDbEntity
  8
Ma\U+00DFe
370
     0
100
AcDbVertex
100
AcDb2dVertex
 10
104.109375
 20
129.0
 30
0.0
  0
SEQEND
  5
656
330
651
100
AcDbEntity
  8
Ma\U+00DFe
370
     0
  0
HATCH
  5
657
330
5D8
100
AcDbEntity
  8
Ma\U+00DFe
 62
   250
420
  1709851
100
AcDbHatch
 10
0.0
 20
0.0
 30
0.0
210
0.0
220
0.0
230
1.0
  2
SOLID
 70
     1
 71
     0
 91
        1
 92
        1
 93
        3
 72
     1
 10
104.109375
 20
129.0
 11
107.6591796875
 21
122.8603515625
 72
     1
 10
107.6591796875
 20
122.8603515625
 11
111.19921875
 21
129.0
 72
     1
 10
111.19921875
 20
129.0
 11
104.109375
 21
129.0
 97
        0
 75
     0
 76
     1
 98
        0
  0
POLYLINE
  5
658
330
5D8
100
AcDbEntity
  8
Ma\U+00DFe
370
     0
100
AcDb2dPolyline
 66
     1
 10
0.0
 20
0.0
 30
0.0
  0
VERTEX
  5
659
330
658
100
AcDbEntity
  8
Ma\U+00DFe
370
     0
100
AcDbVertex
100
AcDb2dVertex
 10
107.8388671875
 20
139.41015625
 30
0.0
  0
VERTEX
  5
65A
330
658
100
AcDbEntity
  8
Ma\U+00DFe
370
     0
100
AcDbVertex
100
AcDb2dVertex
 10
107.9189453125
 20
140.0
 30
0.0
  0
VERTEX
  5
65B
330
658
100
AcDbEntity
  8
Ma\U+00DFe
370
     0
100
AcDbVertex
100
AcDb2dVertex
 10
108.1591796875
 20
140.47998046875
 30
0.0
  0
VERTEX
  5
65C
330
658
100
AcDbEntity
  8
Ma\U+00DFe
370
     0
100
AcDbVertex
100
AcDb2dVertex
 10
108.5888671875
 20
140.7900390625
 30
0.0
  0
VERTEX
  5
65D
330
658
100
AcDbEntity
  8
Ma\U+00DFe
370
     0
100
AcDbVertex
100
AcDb2dVertex
 10
109.1689453125
 20
140.91015625
 30
0.0
  0
VERTEX
  5
65E
330
658
100
AcDbEntity
  8
Ma\U+00DFe
370
     0
100
AcDbVertex
100
AcDb2dVertex
 10
109.71875
 20
140.7998046875
 30
0.0
  0
VERTEX
  5
65F
330
658
100
AcDbEntity
  8
Ma\U+00DFe
370
     0
100
AcDbVertex
100
AcDb2dVertex
 10
110.1689453125
 20
140.509765625
 30
0.0
  0
VERTEX
  5
660
330
658
100
AcDbEntity
  8
Ma\U+00DFe
370
     0
100
AcDbVertex
100
AcDb2dVertex
 10
110.4794921875
 20
140.0703125
 30
0.0
  0
VERTEX
  5
661
330
658
100
AcDbEntity
  8
Ma\U+00DFe
370
     0
100
AcDbVertex
100
AcDb2dVertex
 10
110.5888671875
 20
139.5302734375
 30
0.0
  0
VERTEX
  5
662
330
658
100
AcDbEntity
  8
Ma\U+00DFe
370
     0
100
AcDbVertex
100
AcDb2dVertex
 10
110.4990234375
 20
139.009765625
 30
0.0
  0
VERTEX
  5
663
330
658
100
AcDbEntity
  8
Ma\U+00DFe
370
     0
100
AcDbVertex
100
AcDb2dVertex
 10
110.2490234375
 20
138.58984375
 30
0.0
  0
VERTEX
  5
664
330
658
100
AcDbEntity
  8
Ma\U+00DFe
370
     0
100
AcDbVertex
100
AcDb2dVertex
 10
109.859375
 20
138.2900390625
 30
0.0
  0
VERTEX
  5
665
330
658
100
AcDbEntity
  8
Ma\U+00DFe
370
     0
100
AcDbVertex
100
AcDb2dVertex
 10
109.359375
 20
138.16015625
 30
0.0
  0
VERTEX
  5
666
330
658
100
AcDbEntity
  8
Ma\U+00DFe
370
     0
100
AcDbVertex
100
AcDb2dVertex
 10
109.359375
 20
137.39013671875
 30
0.0
  0
VERTEX
  5
667
330
658
100
AcDbEntity
  8
Ma\U+00DFe
370
     0
100
AcDbVertex
100
AcDb2dVertex
 10
110.1689453125
 20
137.56005859375
 30
0.0
  0
VERTEX
  5
668
330
658
100
AcDbEntity
  8
Ma\U+00DFe
370
     0
100
AcDbVertex
100
AcDb2dVertex
 10
110.7890625
 20
138.02001953125
 30
0.0
  0
VERTEX
  5
669
330
658
100
AcDbEntity
  8
Ma\U+00DFe
370
     0
100
AcDbVertex
100
AcDb2dVertex
 10
111.189453125
 20
138.68017578125
 30
0.0
  0
VERTEX
  5
66A
330
658
100
AcDbEntity
  8
Ma\U+00DFe
370
     0
100
AcDbVertex
100
AcDb2dVertex
 10
111.3193359375
 20
139.5
 30
0.0
  0
VERTEX
  5
66B
330
658
100
AcDbEntity
  8
Ma\U+00DFe
370
     0
100
AcDbVertex
100
AcDb2dVertex
 10
111.1689453125
 20
140.35009765625
 30
0.0
  0
VERTEX
  5
66C
330
658
100
AcDbEntity
  8
Ma\U+00DFe
370
     0
100
AcDbVertex
100
AcDb2dVertex
 10
110.7392578125
 20
141.0498046875
 30
0.0
  0
VERTEX
  5
66D
330
658
100
AcDbEntity
  8
Ma\U+00DFe
370
     0
100
AcDbVertex
100
AcDb2dVertex
 10
110.0693359375
 20
141.52001953125
 30
0.0
  0
VERTEX
  5
66E
330
658
100
AcDbEntity
  8
Ma\U+00DFe
370
     0
100
AcDbVertex
100
AcDb2dVertex
 10
109.21875
 20
141.7001953125
 30
0.0
  0
VERTEX
  5
66F
330
658
100
AcDbEntity
  8
Ma\U+00DFe
370
     0
100
AcDbVertex
100
AcDb2dVertex
 10
108.189453125
 20
141.43994140625
 30
0.0
  0
VERTEX
  5
670
330
658
100
AcDbEntity
  8
Ma\U+00DFe
370
     0
100
AcDbVertex
100
AcDb2dVertex
 10
107.779296875
 20
141.1298828125
 30
0.0
  0
VERTEX
  5
671
330
658
100
AcDbEntity
  8
Ma\U+00DFe
370
     0
100
AcDbVertex
100
AcDb2dVertex
 10
107.4794921875
 20
140.68017578125
 30
0.0
  0
VERTEX
  5
672
330
658
100
AcDbEntity
  8
Ma\U+00DFe
370
     0
100
AcDbVertex
100
AcDb2dVertex
 10
106.8291015625
 20
141.35009765625
 30
0.0
  0
VERTEX
  5
673
330
658
100
AcDbEntity
  8
Ma\U+00DFe
370
     0
100
AcDbVertex
100
AcDb2dVertex
 10
105.9287109375
 20
141.60009765625
 30
0.0
  0
VERTEX
  5
674
330
658
100
AcDbEntity
  8
Ma\U+00DFe
370
     0
100
AcDbVertex
100
AcDb2dVertex
 10
105.1396484375
 20
141.43994140625
 30
0.0
  0
VERTEX
  5
675
330
658
100
AcDbEntity
  8
Ma\U+00DFe
370
     0
100
AcDbVertex
100
AcDb2dVertex
 10
104.529296875
 20
141.009765625
 30
0.0
  0
VERTEX
  5
676
330
658
100
AcDbEntity
  8
Ma\U+00DFe
370
     0
100
AcDbVertex
100
AcDb2dVertex
 10
104.12890625
 20
140.3701171875
 30
0.0
  0
VERTEX
  5
677
330
658
100
AcDbEntity
  8
Ma\U+00DFe
370
     0
100
AcDbVertex
100
AcDb2dVertex
 10
103.9892578125
 20
139.580078125
 30
0.0
  0
VERTEX
  5
678
330
658
100
AcDbEntity
  8
Ma\U+00DFe
370
     0
100
AcDbVertex
100
AcDb2dVertex
 10
104.12890625
 20
138.7900390625
 30
0.0
  0
VERTEX
  5
679
330
658
100
AcDbEntity
  8
Ma\U+00DFe
370
     0
100
AcDbVertex
100
AcDb2dVertex
 10
104.5087890625
 20
138.2001953125
 30
0.0
  0
VERTEX
  5
67A
330
658
100
AcDbEntity
  8
Ma\U+00DFe
370
     0
100
AcDbVertex
100
AcDb2dVertex
 10
105.0986328125
 20
137.81005859375
 30
0.0
  0
VERTEX
  5
67B
330
658
100
AcDbEntity
  8
Ma\U+00DFe
370
     0
100
AcDbVertex
100
AcDb2dVertex
 10
105.859375
 20
137.6201171875
 30
0.0
  0
VERTEX
  5
67C
330
658
100
AcDbEntity
  8
Ma\U+00DFe
370
     0
100
AcDbVertex
100
AcDb2dVertex
 10
105.859375
 20
138.39990234375
 30
0.0
  0
VERTEX
  5
67D
330
658
100
AcDbEntity
  8
Ma\U+00DFe
370
     0
100
AcDbVertex
100
AcDb2dVertex
 10
105.4091796875
 20
138.5
 30
0.0
  0
VERTEX
  5
67E
330
658
100
AcDbEntity
  8
Ma\U+00DFe
370
     0
100
AcDbVertex
100
AcDb2dVertex
 10
105.0390625
 20
138.740234375
 30
0.0
  0
VERTEX
  5
67F
330
658
100
AcDbEntity
  8
Ma\U+00DFe
370
     0
100
AcDbVertex
100
AcDb2dVertex
 10
104.8095703125
 20
139.08984375
 30
0.0
  0
VERTEX
  5
680
330
658
100
AcDbEntity
  8
Ma\U+00DFe
370
     0
100
AcDbVertex
100
AcDb2dVertex
 10
104.71875
 20
139.56005859375
 30
0.0
  0
VERTEX
  5
681
330
658
100
AcDbEntity
  8
Ma\U+00DFe
370
     0
100
AcDbVertex
100
AcDb2dVertex
 10
104.8193359375
 20
140.06005859375
 30
0.0
  0
VERTEX
  5
682
330
658
100
AcDbEntity
  8
Ma\U+00DFe
370
     0
100
AcDbVertex
100
AcDb2dVertex
 10
105.0595703125
 20
140.4599609375
 30
0.0
  0
VERTEX
  5
683
330
658
100
AcDbEntity
  8
Ma\U+00DFe
370
     0
100
AcDbVertex
100
AcDb2dVertex
 10
105.458984375
 20
140.7099609375
 30
0.0
  0
VERTEX
  5
684
330
658
100
AcDbEntity
  8
Ma\U+00DFe
370
     0
100
AcDbVertex
100
AcDb2dVertex
 10
105.958984375
 20
140.81005859375
 30
0.0
  0
VERTEX
  5
685
330
658
100
AcDbEntity
  8
Ma\U+00DFe
370
     0
100
AcDbVertex
100
AcDb2dVertex
 10
106.5185546875
 20
140.68017578125
 30
0.0
  0
VERTEX
  5
686
330
658
100
AcDbEntity
  8
Ma\U+00DFe
370
     0
100
AcDbVertex
100
AcDb2dVertex
 10
106.869140625
 20
140.3798828125
 30
0.0
  0
VERTEX
  5
687
330
658
100
AcDbEntity
  8
Ma\U+00DFe
370
     0
100
AcDbVertex
100
AcDb2dVertex
 10
107.048828125
 20
139.93017578125
 30
0.0
  0
VERTEX
  5
688
330
658
100
AcDbEntity
  8
Ma\U+00DFe
370
     0
100
AcDbVertex
100
AcDb2dVertex
 10
107.109375
 20
139.41015625
 30
0.0
  0
VERTEX
  5
689
330
658
100
AcDbEntity
  8
Ma\U+00DFe
370
     0
100
AcDbVertex
100
AcDb2dVertex
 10
107.8388671875
 20
139.41015625
 30
0.0
  0
SEQEND
  5
68A
330
658
100
AcDbEntity
  8
Ma\U+00DFe
370
     0
  0
POLYLINE
  5
68B
330
5D8
100
AcDbEntity
  8
Ma\U+00DFe
370
     0
100
AcDb2dPolyline
 66
     1
 10
0.0
 20
0.0
 30
0.0
  0
VERTEX
  5
68C
330
68B
100
AcDbEntity
  8
Ma\U+00DFe
370
     0
100
AcDbVertex
100
AcDb2dVertex
 10
104.8486328125
 20
148.97998046875
 30
0.0
  0
VERTEX
  5
68D
330
68B
100
AcDbEntity
  8
Ma\U+00DFe
370
     0
100
AcDbVertex
100
AcDb2dVertex
 10
104.109375
 20
148.97998046875
 30
0.0
  0
VERTEX
  5
68E
330
68B
100
AcDbEntity
  8
Ma\U+00DFe
370
     0
100
AcDbVertex
100
AcDb2dVertex
 10
104.109375
 20
146.16015625
 30
0.0
  0
VERTEX
  5
68F
330
68B
100
AcDbEntity
  8
Ma\U+00DFe
370
     0
100
AcDbVertex
100
AcDb2dVertex
 10
107.5087890625
 20
145.14013671875
 30
0.0
  0
VERTEX
  5
690
330
68B
100
AcDbEntity
  8
Ma\U+00DFe
370
     0
100
AcDbVertex
100
AcDb2dVertex
 10
107.189453125
 20
145.7802734375
 30
0.0
  0
VERTEX
  5
691
330
68B
100
AcDbEntity
  8
Ma\U+00DFe
370
     0
100
AcDbVertex
100
AcDb2dVertex
 10
107.048828125
 20
146.47998046875
 30
0.0
  0
VERTEX
  5
692
330
68B
100
AcDbEntity
  8
Ma\U+00DFe
370
     0
100
AcDbVertex
100
AcDb2dVertex
 10
107.189453125
 20
147.169921875
 30
0.0
  0
VERTEX
  5
693
330
68B
100
AcDbEntity
  8
Ma\U+00DFe
370
     0
100
AcDbVertex
100
AcDb2dVertex
 10
107.5390625
 20
147.72998046875
 30
0.0
  0
VERTEX
  5
694
330
68B
100
AcDbEntity
  8
Ma\U+00DFe
370
     0
100
AcDbVertex
100
AcDb2dVertex
 10
108.0888671875
 20
148.1103515625
 30
0.0
  0
VERTEX
  5
695
330
68B
100
AcDbEntity
  8
Ma\U+00DFe
370
     0
100
AcDbVertex
100
AcDb2dVertex
 10
108.7685546875
 20
148.25
 30
0.0
  0
VERTEX
  5
696
330
68B
100
AcDbEntity
  8
Ma\U+00DFe
370
     0
100
AcDbVertex
100
AcDb2dVertex
 10
109.4990234375
 20
148.1103515625
 30
0.0
  0
VERTEX
  5
697
330
68B
100
AcDbEntity
  8
Ma\U+00DFe
370
     0
100
AcDbVertex
100
AcDb2dVertex
 10
110.0693359375
 20
147.740234375
 30
0.0
  0
VERTEX
  5
698
330
68B
100
AcDbEntity
  8
Ma\U+00DFe
370
     0
100
AcDbVertex
100
AcDb2dVertex
 10
110.458984375
 20
147.18017578125
 30
0.0
  0
VERTEX
  5
699
330
68B
100
AcDbEntity
  8
Ma\U+00DFe
370
     0
100
AcDbVertex
100
AcDb2dVertex
 10
110.5888671875
 20
146.4599609375
 30
0.0
  0
VERTEX
  5
69A
330
68B
100
AcDbEntity
  8
Ma\U+00DFe
370
     0
100
AcDbVertex
100
AcDb2dVertex
 10
110.3193359375
 20
145.5400390625
 30
0.0
  0
VERTEX
  5
69B
330
68B
100
AcDbEntity
  8
Ma\U+00DFe
370
     0
100
AcDbVertex
100
AcDb2dVertex
 10
109.5986328125
 20
144.89013671875
 30
0.0
  0
VERTEX
  5
69C
330
68B
100
AcDbEntity
  8
Ma\U+00DFe
370
     0
100
AcDbVertex
100
AcDb2dVertex
 10
110.048828125
 20
144.259765625
 30
0.0
  0
VERTEX
  5
69D
330
68B
100
AcDbEntity
  8
Ma\U+00DFe
370
     0
100
AcDbVertex
100
AcDb2dVertex
 10
110.5888671875
 20
144.669921875
 30
0.0
  0
VERTEX
  5
69E
330
68B
100
AcDbEntity
  8
Ma\U+00DFe
370
     0
100
AcDbVertex
100
AcDb2dVertex
 10
110.9892578125
 20
145.169921875
 30
0.0
  0
VERTEX
  5
69F
330
68B
100
AcDbEntity
  8
Ma\U+00DFe
370
     0
100
AcDbVertex
100
AcDb2dVertex
 10
111.2294921875
 20
145.77001953125
 30
0.0
  0
VERTEX
  5
6A0
330
68B
100
AcDbEntity
  8
Ma\U+00DFe
370
     0
100
AcDbVertex
100
AcDb2dVertex
 10
111.3193359375
 20
146.43017578125
 30
0.0
  0
VERTEX
  5
6A1
330
68B
100
AcDbEntity
  8
Ma\U+00DFe
370
     0
100
AcDbVertex
100
AcDb2dVertex
 10
111.12890625
 20
147.4501953125
 30
0.0
  0
VERTEX
  5
6A2
330
68B
100
AcDbEntity
  8
Ma\U+00DFe
370
     0
100
AcDbVertex
100
AcDb2dVertex
 10
110.609375
 20
148.2802734375
 30
0.0
  0
VERTEX
  5
6A3
330
68B
100
AcDbEntity
  8
Ma\U+00DFe
370
     0
100
AcDbVertex
100
AcDb2dVertex
 10
109.8095703125
 20
148.830078125
 30
0.0
  0
VERTEX
  5
6A4
330
68B
100
AcDbEntity
  8
Ma\U+00DFe
370
     0
100
AcDbVertex
100
AcDb2dVertex
 10
108.7890625
 20
149.0400390625
 30
0.0
  0
VERTEX
  5
6A5
330
68B
100
AcDbEntity
  8
Ma\U+00DFe
370
     0
100
AcDbVertex
100
AcDb2dVertex
 10
107.8291015625
 20
148.8603515625
 30
0.0
  0
VERTEX
  5
6A6
330
68B
100
AcDbEntity
  8
Ma\U+00DFe
370
     0
100
AcDbVertex
100
AcDb2dVertex
 10
107.0390625
 20
148.3798828125
 30
0.0
  0
VERTEX
  5
6A7
330
68B
100
AcDbEntity
  8
Ma\U+00DFe
370
     0
100
AcDbVertex
100
AcDb2dVertex
 10
106.5185546875
 20
147.64013671875
 30
0.0
  0
VERTEX
  5
6A8
330
68B
100
AcDbEntity
  8
Ma\U+00DFe
370
     0
100
AcDbVertex
100
AcDb2dVertex
 10
106.3193359375
 20
146.68017578125
 30
0.0
  0
VERTEX
  5
6A9
330
68B
100
AcDbEntity
  8
Ma\U+00DFe
370
     0
100
AcDbVertex
100
AcDb2dVertex
 10
106.359375
 20
146.25
 30
0.0
  0
VERTEX
  5
6AA
330
68B
100
AcDbEntity
  8
Ma\U+00DFe
370
     0
100
AcDbVertex
100
AcDb2dVertex
 10
104.8486328125
 20
146.72021484375
 30
0.0
  0
VERTEX
  5
6AB
330
68B
100
AcDbEntity
  8
Ma\U+00DFe
370
     0
100
AcDbVertex
100
AcDb2dVertex
 10
104.8486328125
 20
148.97998046875
 30
0.0
  0
SEQEND
  5
6AC
330
68B
100
AcDbEntity
  8
Ma\U+00DFe
370
     0
  0
HATCH
  5
6AD
330
5D8
100
AcDbEntity
  8
Ma\U+00DFe
 62
   250
420
  1709851
100
AcDbHatch
 10
0.0
 20
0.0
 30
0.0
210
0.0
220
0.0
230
1.0
  2
SOLID
 70
     1
 71
     0
 91
        2
 92
        1
 93
       31
 72
     1
 10
104.8486328125
 20
148.97998046875
 11
104.109375
 21
148.97998046875
 72
     1
 10
104.109375
 20
148.97998046875
 11
104.109375
 21
146.16015625
 72
     1
 10
104.109375
 20
146.16015625
 11
107.5087890625
 21
145.14013671875
 72
     1
 10
107.5087890625
 20
145.14013671875
 11
107.189453125
 21
145.7802734375
 72
     1
 10
107.189453125
 20
145.7802734375
 11
107.048828125
 21
146.47998046875
 72
     1
 10
107.048828125
 20
146.47998046875
 11
107.189453125
 21
147.169921875
 72
     1
 10
107.189453125
 20
147.169921875
 11
107.5390625
 21
147.72998046875
 72
     1
 10
107.5390625
 20
147.72998046875
 11
108.0888671875
 21
148.1103515625
 72
     1
 10
108.0888671875
 20
148.1103515625
 11
108.7685546875
 21
148.25
 72
     1
 10
108.7685546875
 20
148.25
 11
109.4990234375
 21
148.1103515625
 72
     1
 10
109.4990234375
 20
148.1103515625
 11
110.0693359375
 21
147.740234375
 72
     1
 10
110.0693359375
 20
147.740234375
 11
110.458984375
 21
147.18017578125
 72
     1
 10
110.458984375
 20
147.18017578125
 11
110.5888671875
 21
146.4599609375
 72
     1
 10
110.5888671875
 20
146.4599609375
 11
110.3193359375
 21
145.5400390625
 72
     1
 10
110.3193359375
 20
145.5400390625
 11
109.5986328125
 21
144.89013671875
 72
     1
 10
109.5986328125
 20
144.89013671875
 11
110.048828125
 21
144.259765625
 72
     1
 10
110.048828125
 20
144.259765625
 11
110.5888671875
 21
144.669921875
 72
     1
 10
110.5888671875
 20
144.669921875
 11
110.9892578125
 21
145.169921875
 72
     1
 10
110.9892578125
 20
145.169921875
 11
111.2294921875
 21
145.77001953125
 72
     1
 10
111.2294921875
 20
145.77001953125
 11
111.3193359375
 21
146.43017578125
 72
     1
 10
111.3193359375
 20
146.43017578125
 11
111.12890625
 21
147.4501953125
 72
     1
 10
111.12890625
 20
147.4501953125
 11
110.609375
 21
148.2802734375
 72
     1
 10
110.609375
 20
148.2802734375
 11
109.8095703125
 21
148.830078125
 72
     1
 10
109.8095703125
 20
148.830078125
 11
108.7890625
 21
149.0400390625
 72
     1
 10
108.7890625
 20
149.0400390625
 11
107.8291015625
 21
148.8603515625
 72
     1
 10
107.8291015625
 20
148.8603515625
 11
107.0390625
 21
148.3798828125
 72
     1
 10
107.0390625
 20
148.3798828125
 11
106.5185546875
 21
147.64013671875
 72
     1
 10
106.5185546875
 20
147.64013671875
 11
106.3193359375
 21
146.68017578125
 72
     1
 10
106.3193359375
 20
146.68017578125
 11
106.359375
 21
146.25
 72
     1
 10
106.359375
 20
146.25
 11
104.8486328125
 21
146.72021484375
 72
     1
 10
104.8486328125
 20
146.72021484375
 11
104.8486328125
 21
148.97998046875
 97
        0
 92
        1
 93
       48
 72
     1
 10
107.8388671875
 20
139.41015625
 11
107.9189453125
 21
140.0
 72
     1
 10
107.9189453125
 20
140.0
 11
108.1591796875
 21
140.47998046875
 72
     1
 10
108.1591796875
 20
140.47998046875
 11
108.5888671875
 21
140.7900390625
 72
     1
 10
108.5888671875
 20
140.7900390625
 11
109.1689453125
 21
140.91015625
 72
     1
 10
109.1689453125
 20
140.91015625
 11
109.71875
 21
140.7998046875
 72
     1
 10
109.71875
 20
140.7998046875
 11
110.1689453125
 21
140.509765625
 72
     1
 10
110.1689453125
 20
140.509765625
 11
110.4794921875
 21
140.0703125
 72
     1
 10
110.4794921875
 20
140.0703125
 11
110.5888671875
 21
139.5302734375
 72
     1
 10
110.5888671875
 20
139.5302734375
 11
110.4990234375
 21
139.009765625
 72
     1
 10
110.4990234375
 20
139.009765625
 11
110.2490234375
 21
138.58984375
 72
     1
 10
110.2490234375
 20
138.58984375
 11
109.859375
 21
138.2900390625
 72
     1
 10
109.859375
 20
138.2900390625
 11
109.359375
 21
138.16015625
 72
     1
 10
109.359375
 20
138.16015625
 11
109.359375
 21
137.39013671875
 72
     1
 10
109.359375
 20
137.39013671875
 11
110.1689453125
 21
137.56005859375
 72
     1
 10
110.1689453125
 20
137.56005859375
 11
110.7890625
 21
138.02001953125
 72
     1
 10
110.7890625
 20
138.02001953125
 11
111.189453125
 21
138.68017578125
 72
     1
 10
111.189453125
 20
138.68017578125
 11
111.3193359375
 21
139.5
 72
     1
 10
111.3193359375
 20
139.5
 11
111.1689453125
 21
140.35009765625
 72
     1
 10
111.1689453125
 20
140.35009765625
 11
110.7392578125
 21
141.0498046875
 72
     1
 10
110.7392578125
 20
141.0498046875
 11
110.0693359375
 21
141.52001953125
 72
     1
 10
110.0693359375
 20
141.52001953125
 11
109.21875
 21
141.7001953125
 72
     1
 10
109.21875
 20
141.7001953125
 11
108.189453125
 21
141.43994140625
 72
     1
 10
108.189453125
 20
141.43994140625
 11
107.779296875
 21
141.1298828125
 72
     1
 10
107.779296875
 20
141.1298828125
 11
107.4794921875
 21
140.68017578125
 72
     1
 10
107.4794921875
 20
140.68017578125
 11
106.8291015625
 21
141.35009765625
 72
     1
 10
106.8291015625
 20
141.35009765625
 11
105.9287109375
 21
141.60009765625
 72
     1
 10
105.9287109375
 20
141.60009765625
 11
105.1396484375
 21
141.43994140625
 72
     1
 10
105.1396484375
 20
141.43994140625
 11
104.529296875
 21
141.009765625
 72
     1
 10
104.529296875
 20
141.009765625
 11
104.12890625
 21
140.3701171875
 72
     1
 10
104.12890625
 20
140.3701171875
 11
103.9892578125
 21
139.580078125
 72
     1
 10
103.9892578125
 20
139.580078125
 11
104.12890625
 21
138.7900390625
 72
     1
 10
104.12890625
 20
138.7900390625
 11
104.5087890625
 21
138.2001953125
 72
     1
 10
104.5087890625
 20
138.2001953125
 11
105.0986328125
 21
137.81005859375
 72
     1
 10
105.0986328125
 20
137.81005859375
 11
105.859375
 21
137.6201171875
 72
     1
 10
105.859375
 20
137.6201171875
 11
105.859375
 21
138.39990234375
 72
     1
 10
105.859375
 20
138.39990234375
 11
105.4091796875
 21
138.5
 72
     1
 10
105.4091796875
 20
138.5
 11
105.0390625
 21
138.740234375
 72
     1
 10
105.0390625
 20
138.740234375
 11
104.8095703125
 21
139.08984375
 72
     1
 10
104.8095703125
 20
139.08984375
 11
104.71875
 21
139.56005859375
 72
     1
 10
104.71875
 20
139.56005859375
 11
104.8193359375
 21
140.06005859375
 72
     1
 10
104.8193359375
 20
140.06005859375
 11
105.0595703125
 21
140.4599609375
 72
     1
 10
105.0595703125
 20
140.4599609375
 11
105.458984375
 21
140.7099609375
 72
     1
 10
105.458984375
 20
140.7099609375
 11
105.958984375
 21
140.81005859375
 72
     1
 10
105.958984375
 20
140.81005859375
 11
106.5185546875
 21
140.68017578125
 72
     1
 10
106.5185546875
 20
140.68017578125
 11
106.869140625
 21
140.3798828125
 72
     1
 10
106.869140625
 20
140.3798828125
 11
107.048828125
 21
139.93017578125
 72
     1
 10
107.048828125
 20
139.93017578125
 11
107.109375
 21
139.41015625
 72
     1
 10
107.109375
 20
139.41015625
 11
107.8388671875
 21
139.41015625
 97
        0
 75
     0
 76
     1
 98
        0
  0
POLYLINE
  5
6AE
330
5D8
100
AcDbEntity
  8
Ma\U+00DFe
 62
   250
420
  1709851
370
    18
100
AcDb2dPolyline
 66
     1
 10
0.0
 20
0.0
 30
0.0
  0
VERTEX
  5
6AF
330
6AE
100
AcDbEntity
  8
Ma\U+00DFe
 62
   250
420
  1709851
370
    18
100
AcDbVertex
100
AcDb2dVertex
 10
107.6591796875
 20
101.2802734375
 30
0.0
  0
VERTEX
  5
6B0
330
6AE
100
AcDbEntity
  8
Ma\U+00DFe
 62
   250
420
  1709851
370
    18
100
AcDbVertex
100
AcDb2dVertex
 10
107.6591796875
 20
104.3203125
 30
0.0
  0
SEQEND
  5
6B1
330
6AE
100
AcDbEntity
  8
Ma\U+00DFe
370
    18
  0
POLYLINE
  5
6B2
330
5D8
100
AcDbEntity
  8
Ma\U+00DFe
 62
   250
420
  1709851
370
    18
100
AcDb2dPolyline
 66
     1
 10
0.0
 20
0.0
 30
0.0
  0
VERTEX
  5
6B3
330
6B2
100
AcDbEntity
  8
Ma\U+00DFe
 62
   250
420
  1709851
370
    18
100
AcDbVertex
100
AcDb2dVertex
 10
107.6591796875
 20
110.4599609375
 30
0.0
  0
VERTEX
  5
6B4
330
6B2
100
AcDbEntity
  8
Ma\U+00DFe
 62
   250
420
  1709851
370
    18
100
AcDbVertex
100
AcDb2dVertex
 10
107.6591796875
 20
122.8603515625
 30
0.0
  0
SEQEND
  5
6B5
330
6B2
100
AcDbEntity
  8
Ma\U+00DFe
370
    18
  0
POLYLINE
  5
6B6
330
5D8
100
AcDbEntity
  8
Ma\U+00DFe
 62
   250
420
  1709851
370
    18
100
AcDb2dPolyline
 66
     1
 10
0.0
 20
0.0
 30
0.0
  0
VERTEX
  5
6B7
330
6B6
100
AcDbEntity
  8
Ma\U+00DFe
 62
   250
420
  1709851
370
    18
100
AcDbVertex
100
AcDb2dVertex
 10
107.6591796875
 20
129.0
 30
0.0
  0
VERTEX
  5
6B8
330
6B6
100
AcDbEntity
  8
Ma\U+00DFe
 62
   250
420
  1709851
370
    18
100
AcDbVertex
100
AcDb2dVertex
 10
107.6591796875
 20
135.6103515625
 30
0.0
  0
SEQEND
  5
6B9
330
6B6
100
AcDbEntity
  8
Ma\U+00DFe
370
    18
  0
POLYLINE
  5
6BA
330
5D8
100
AcDbEntity
  8
Ma\U+00DFe
 62
   250
420
  1709851
370
    18
100
AcDb2dPolyline
 66
     1
 10
0.0
 20
0.0
 30
0.0
  0
VERTEX
  5
6BB
330
6BA
100
AcDbEntity
  8
Ma\U+00DFe
 62
   250
420
  1709851
370
    18
100
AcDbVertex
100
AcDb2dVertex
 10
111.19921875
 20
104.3203125
 30
0.0
  0
VERTEX
  5
6BC
330
6BA
100
AcDbEntity
  8
Ma\U+00DFe
 62
   250
420
  1709851
370
    18
100
AcDbVertex
100
AcDb2dVertex
 10
107.6591796875
 20
110.4599609375
 30
0.0
  0
VERTEX
  5
6BD
330
6BA
100
AcDbEntity
  8
Ma\U+00DFe
 62
   250
420
  1709851
370
    18
100
AcDbVertex
100
AcDb2dVertex
 10
104.109375
 20
104.3203125
 30
0.0
  0
VERTEX
  5
6BE
330
6BA
100
AcDbEntity
  8
Ma\U+00DFe
 62
   250
420
  1709851
370
    18
100
AcDbVertex
100
AcDb2dVertex
 10
111.19921875
 20
104.3203125
 30
0.0
  0
SEQEND
  5
6BF
330
6BA
100
AcDbEntity
  8
Ma\U+00DFe
370
    18
  0
POLYLINE
  5
6C0
330
5D8
100
AcDbEntity
  8
Ma\U+00DFe
 62
   250
420
  1709851
370
    18
100
AcDb2dPolyline
 66
     1
 10
0.0
 20
0.0
 30
0.0
  0
VERTEX
  5
6C1
330
6C0
100
AcDbEntity
  8
Ma\U+00DFe
 62
   250
420
  1709851
370
    18
100
AcDbVertex
100
AcDb2dVertex
 10
104.109375
 20
129.0
 30
0.0
  0
VERTEX
  5
6C2
330
6C0
100
AcDbEntity
  8
Ma\U+00DFe
 62
   250
420
  1709851
370
    18
100
AcDbVertex
100
AcDb2dVertex
 10
107.6591796875
 20
122.8603515625
 30
0.0
  0
VERTEX
  5
6C3
330
6C0
100
AcDbEntity
  8
Ma\U+00DFe
 62
   250
420
  1709851
370
    18
100
AcDbVertex
100
AcDb2dVertex
 10
111.19921875
 20
129.0
 30
0.0
  0
VERTEX
  5
6C4
330
6C0
100
AcDbEntity
  8
Ma\U+00DFe
 62
   250
420
  1709851
370
    18
100
AcDbVertex
100
AcDb2dVertex
 10
104.109375
 20
129.0
 30
0.0
  0
SEQEND
  5
6C5
330
6C0
100
AcDbEntity
  8
Ma\U+00DFe
370
    18
  0
POLYLINE
  5
6C6
330
5D8
100
AcDbEntity
  8
Ma\U+00DFe
 62
   250
420
  1709851
370
    18
100
AcDb2dPolyline
 66
     1
 10
0.0
 20
0.0
 30
0.0
  0
VERTEX
  5
6C7
330
6C6
100
AcDbEntity
  8
Ma\U+00DFe
 62
   250
420
  1709851
370
    18
100
AcDbVertex
100
AcDb2dVertex
 10
107.6591796875
 20
75.2802734375
 30
0.0
  0
VERTEX
  5
6C8
330
6C6
100
AcDbEntity
  8
Ma\U+00DFe
 62
   250
420
  1709851
370
    18
100
AcDbVertex
100
AcDb2dVertex
 10
107.6591796875
 20
79.3203125
 30
0.0
  0
SEQEND
  5
6C9
330
6C6
100
AcDbEntity
  8
Ma\U+00DFe
370
    18
  0
ENDBLK
  5
5DB
330
5D8
100
AcDbEntity
  8
0
100
AcDbBlockEnd
  0
ENDSEC
  0
SECTION
  2
ENTITIES
  0
INSERT
  5
3F
330
1F
100
AcDbEntity
  8
Vordergrund
100
AcDbBlockReference
  2
block 2
 10
0.0
 20
0.0
 30
0.0
  0
INSERT
  5
D7
330
1F
100
AcDbEntity
  8
Vordergrund
100
AcDbBlockReference
  2
block 3
 10
0.0
 20
0.0
 30
0.0
  0
POLYLINE
  5
270
330
1F
100
AcDbEntity
  8
Ma\U+00DFe
 62
   250
420
  1709851
370
    18
100
AcDb2dPolyline
 66
     1
 10
0.0
 20
0.0
 30
0.0
  0
VERTEX
  5
271
330
270
100
AcDbEntity
  8
Ma\U+00DFe
 62
   250
420
  1709851
370
    18
100
AcDbVertex
100
AcDb2dVertex
 10
29.3896484375
 20
137.27783203125
 30
0.0
  0
VERTEX
  5
272
330
270
100
AcDbEntity
  8
Ma\U+00DFe
 62
   250
420
  1709851
370
    18
100
AcDbVertex
100
AcDb2dVertex
 10
29.3896484375
 20
157.35302734375
 30
0.0
  0
SEQEND
  5
273
330
270
100
AcDbEntity
  8
Ma\U+00DFe
370
    18
  0
POLYLINE
  5
274
330
1F
100
AcDbEntity
  8
Ma\U+00DFe
 62
   250
420
  1709851
370
    18
100
AcDb2dPolyline
 66
     1
 10
0.0
 20
0.0
 30
0.0
  0
VERTEX
  5
275
330
274
100
AcDbEntity
  8
Ma\U+00DFe
 62
   250
420
  1709851
370
    18
100
AcDbVertex
100
AcDb2dVertex
 10
43.5498046875
 20
137.27783203125
 30
0.0
  0
VERTEX
  5
276
330
274
100
AcDbEntity
  8
Ma\U+00DFe
 62
   250
420
  1709851
370
    18
100
AcDbVertex
100
AcDb2dVertex
 10
43.5498046875
 20
157.35302734375
 30
0.0
  0
SEQEND
  5
277
330
274
100
AcDbEntity
  8
Ma\U+00DFe
370
    18
  0
POLYLINE
  5
278
330
1F
100
AcDbEntity
  8
Ma\U+00DFe
370
     0
100
AcDb2dPolyline
 66
     1
 10
0.0
 20
0.0
 30
0.0
  0
VERTEX
  5
279
330
278
100
AcDbEntity
  8
Ma\U+00DFe
370
     0
100
AcDbVertex
100
AcDb2dVertex
 10
23.25
 20
148.14306640625
 30
0.0
  0
VERTEX
  5
27A
330
278
100
AcDbEntity
  8
Ma\U+00DFe
370
     0
100
AcDbVertex
100
AcDb2dVertex
 10
29.3896484375
 20
151.68310546875
 30
0.0
  0
VERTEX
  5
27B
330
278
100
AcDbEntity
  8
Ma\U+00DFe
370
     0
100
AcDbVertex
100
AcDb2dVertex
 10
23.25
 20
155.2333984375
 30
0.0
  0
VERTEX
  5
27C
330
278
100
AcDbEntity
  8
Ma\U+00DFe
370
     0
100
AcDbVertex
100
AcDb2dVertex
 10
23.25
 20
148.14306640625
 30
0.0
  0
SEQEND
  5
27D
330
278
100
AcDbEntity
  8
Ma\U+00DFe
370
     0
  0
HATCH
  5
27E
330
1F
100
AcDbEntity
  8
Ma\U+00DFe
 62
   250
420
  1709851
100
AcDbHatch
 10
0.0
 20
0.0
 30
0.0
210
0.0
220
0.0
230
1.0
  2
SOLID
 70
     1
 71
     0
 91
        1
 92
        1
 93
        3
 72
     1
 10
23.25
 20
148.14306640625
 11
29.3896484375
 21
151.68310546875
 72
     1
 10
29.3896484375
 20
151.68310546875
 11
23.25
 21
155.2333984375
 72
     1
 10
23.25
 20
155.2333984375
 11
23.25
 21
148.14306640625
 97
        0
 75
     0
 76
     1
 98
        0
  0
POLYLINE
  5
27F
330
1F
100
AcDbEntity
  8
Ma\U+00DFe
370
     0
100
AcDb2dPolyline
 66
     1
 10
0.0
 20
0.0
 30
0.0
  0
VERTEX
  5
280
330
27F
100
AcDbEntity
  8
Ma\U+00DFe
370
     0
100
AcDbVertex
100
AcDb2dVertex
 10
49.6796875
 20
155.2333984375
 30
0.0
  0
VERTEX
  5
281
330
27F
100
AcDbEntity
  8
Ma\U+00DFe
370
     0
100
AcDbVertex
100
AcDb2dVertex
 10
43.5498046875
 20
151.68310546875
 30
0.0
  0
VERTEX
  5
282
330
27F
100
AcDbEntity
  8
Ma\U+00DFe
370
     0
100
AcDbVertex
100
AcDb2dVertex
 10
49.6796875
 20
148.14306640625
 30
0.0
  0
VERTEX
  5
283
330
27F
100
AcDbEntity
  8
Ma\U+00DFe
370
     0
100
AcDbVertex
100
AcDb2dVertex
 10
49.6796875
 20
155.2333984375
 30
0.0
  0
SEQEND
  5
284
330
27F
100
AcDbEntity
  8
Ma\U+00DFe
370
     0
  0
HATCH
  5
285
330
1F
100
AcDbEntity
  8
Ma\U+00DFe
 62
   250
420
  1709851
100
AcDbHatch
 10
0.0
 20
0.0
 30
0.0
210
0.0
220
0.0
230
1.0
  2
SOLID
 70
     1
 71
     0
 91
        1
 92
        1
 93
        3
 72
     1
 10
49.6796875
 20
155.2333984375
 11
43.5498046875
 21
151.68310546875
 72
     1
 10
43.5498046875
 20
151.68310546875
 11
49.6796875
 21
148.14306640625
 72
     1
 10
49.6796875
 20
148.14306640625
 11
49.6796875
 21
155.2333984375
 97
        0
 75
     0
 76
     1
 98
        0
  0
POLYLINE
  5
286
330
1F
100
AcDbEntity
  8
Ma\U+00DFe
370
     0
100
AcDb2dPolyline
 66
     1
 10
0.0
 20
0.0
 30
0.0
  0
VERTEX
  5
287
330
286
100
AcDbEntity
  8
Ma\U+00DFe
370
     0
100
AcDbVertex
100
AcDb2dVertex
 10
34.439453125
 20
150.0234375
 30
0.0
  0
VERTEX
  5
288
330
286
100
AcDbEntity
  8
Ma\U+00DFe
370
     0
100
AcDbVertex
100
AcDb2dVertex
 10
34.439453125
 20
155.623046875
 30
0.0
  0
VERTEX
  5
289
330
286
100
AcDbEntity
  8
Ma\U+00DFe
370
     0
100
AcDbVertex
100
AcDb2dVertex
 10
34.419921875
 20
155.623046875
 30
0.0
  0
VERTEX
  5
28A
330
286
100
AcDbEntity
  8
Ma\U+00DFe
370
     0
100
AcDbVertex
100
AcDb2dVertex
 10
30.029296875
 20
149.29296875
 30
0.0
  0
VERTEX
  5
28B
330
286
100
AcDbEntity
  8
Ma\U+00DFe
370
     0
100
AcDbVertex
100
AcDb2dVertex
 10
33.6494140625
 20
149.29296875
 30
0.0
  0
VERTEX
  5
28C
330
286
100
AcDbEntity
  8
Ma\U+00DFe
370
     0
100
AcDbVertex
100
AcDb2dVertex
 10
33.6494140625
 20
148.14306640625
 30
0.0
  0
VERTEX
  5
28D
330
286
100
AcDbEntity
  8
Ma\U+00DFe
370
     0
100
AcDbVertex
100
AcDb2dVertex
 10
34.439453125
 20
148.14306640625
 30
0.0
  0
VERTEX
  5
28E
330
286
100
AcDbEntity
  8
Ma\U+00DFe
370
     0
100
AcDbVertex
100
AcDb2dVertex
 10
34.439453125
 20
149.29296875
 30
0.0
  0
VERTEX
  5
28F
330
286
100
AcDbEntity
  8
Ma\U+00DFe
370
     0
100
AcDbVertex
100
AcDb2dVertex
 10
35.3193359375
 20
149.29296875
 30
0.0
  0
VERTEX
  5
290
330
286
100
AcDbEntity
  8
Ma\U+00DFe
370
     0
100
AcDbVertex
100
AcDb2dVertex
 10
35.3193359375
 20
150.0234375
 30
0.0
  0
VERTEX
  5
291
330
286
100
AcDbEntity
  8
Ma\U+00DFe
370
     0
100
AcDbVertex
100
AcDb2dVertex
 10
34.439453125
 20
150.0234375
 30
0.0
  0
SEQEND
  5
292
330
286
100
AcDbEntity
  8
Ma\U+00DFe
370
     0
  0
POLYLINE
  5
293
330
1F
100
AcDbEntity
  8
Ma\U+00DFe
370
     0
100
AcDb2dPolyline
 66
     1
 10
0.0
 20
0.0
 30
0.0
  0
VERTEX
  5
294
330
293
100
AcDbEntity
  8
Ma\U+00DFe
370
     0
100
AcDbVertex
100
AcDb2dVertex
 10
33.6494140625
 20
150.0234375
 30
0.0
  0
VERTEX
  5
295
330
293
100
AcDbEntity
  8
Ma\U+00DFe
370
     0
100
AcDbVertex
100
AcDb2dVertex
 10
31.4091796875
 20
150.0234375
 30
0.0
  0
VERTEX
  5
296
330
293
100
AcDbEntity
  8
Ma\U+00DFe
370
     0
100
AcDbVertex
100
AcDb2dVertex
 10
33.6298828125
 20
153.22314453125
 30
0.0
  0
VERTEX
  5
297
330
293
100
AcDbEntity
  8
Ma\U+00DFe
370
     0
100
AcDbVertex
100
AcDb2dVertex
 10
33.6494140625
 20
153.22314453125
 30
0.0
  0
VERTEX
  5
298
330
293
100
AcDbEntity
  8
Ma\U+00DFe
370
     0
100
AcDbVertex
100
AcDb2dVertex
 10
33.6494140625
 20
150.0234375
 30
0.0
  0
SEQEND
  5
299
330
293
100
AcDbEntity
  8
Ma\U+00DFe
370
     0
  0
POLYLINE
  5
29A
330
1F
100
AcDbEntity
  8
Ma\U+00DFe
370
     0
100
AcDb2dPolyline
 66
     1
 10
0.0
 20
0.0
 30
0.0
  0
VERTEX
  5
29B
330
29A
100
AcDbEntity
  8
Ma\U+00DFe
370
     0
100
AcDbVertex
100
AcDb2dVertex
 10
40.0693359375
 20
155.35302734375
 30
0.0
  0
VERTEX
  5
29C
330
29A
100
AcDbEntity
  8
Ma\U+00DFe
370
     0
100
AcDbVertex
100
AcDb2dVertex
 10
39.439453125
 20
155.2431640625
 30
0.0
  0
VERTEX
  5
29D
330
29A
100
AcDbEntity
  8
Ma\U+00DFe
370
     0
100
AcDbVertex
100
AcDb2dVertex
 10
38.919921875
 20
154.97314453125
 30
0.0
  0
VERTEX
  5
29E
330
29A
100
AcDbEntity
  8
Ma\U+00DFe
370
     0
100
AcDbVertex
100
AcDb2dVertex
 10
38.1298828125
 20
154.05322265625
 30
0.0
  0
VERTEX
  5
29F
330
29A
100
AcDbEntity
  8
Ma\U+00DFe
370
     0
100
AcDbVertex
100
AcDb2dVertex
 10
37.669921875
 20
152.86328125
 30
0.0
  0
VERTEX
  5
2A0
330
29A
100
AcDbEntity
  8
Ma\U+00DFe
370
     0
100
AcDbVertex
100
AcDb2dVertex
 10
37.529296875
 20
151.67333984375
 30
0.0
  0
VERTEX
  5
2A1
330
29A
100
AcDbEntity
  8
Ma\U+00DFe
370
     0
100
AcDbVertex
100
AcDb2dVertex
 10
37.7001953125
 20
150.36328125
 30
0.0
  0
VERTEX
  5
2A2
330
29A
100
AcDbEntity
  8
Ma\U+00DFe
370
     0
100
AcDbVertex
100
AcDb2dVertex
 10
38.189453125
 20
149.18310546875
 30
0.0
  0
VERTEX
  5
2A3
330
29A
100
AcDbEntity
  8
Ma\U+00DFe
370
     0
100
AcDbVertex
100
AcDb2dVertex
 10
38.9892578125
 20
148.34326171875
 30
0.0
  0
VERTEX
  5
2A4
330
29A
100
AcDbEntity
  8
Ma\U+00DFe
370
     0
100
AcDbVertex
100
AcDb2dVertex
 10
39.4892578125
 20
148.11328125
 30
0.0
  0
VERTEX
  5
2A5
330
29A
100
AcDbEntity
  8
Ma\U+00DFe
370
     0
100
AcDbVertex
100
AcDb2dVertex
 10
40.0693359375
 20
148.0234375
 30
0.0
  0
VERTEX
  5
2A6
330
29A
100
AcDbEntity
  8
Ma\U+00DFe
370
     0
100
AcDbVertex
100
AcDb2dVertex
 10
40.6396484375
 20
148.11328125
 30
0.0
  0
VERTEX
  5
2A7
330
29A
100
AcDbEntity
  8
Ma\U+00DFe
370
     0
100
AcDbVertex
100
AcDb2dVertex
 10
41.1396484375
 20
148.34326171875
 30
0.0
  0
VERTEX
  5
2A8
330
29A
100
AcDbEntity
  8
Ma\U+00DFe
370
     0
100
AcDbVertex
100
AcDb2dVertex
 10
41.939453125
 20
149.18310546875
 30
0.0
  0
VERTEX
  5
2A9
330
29A
100
AcDbEntity
  8
Ma\U+00DFe
370
     0
100
AcDbVertex
100
AcDb2dVertex
 10
42.4296875
 20
150.36328125
 30
0.0
  0
VERTEX
  5
2AA
330
29A
100
AcDbEntity
  8
Ma\U+00DFe
370
     0
100
AcDbVertex
100
AcDb2dVertex
 10
42.609375
 20
151.67333984375
 30
0.0
  0
VERTEX
  5
2AB
330
29A
100
AcDbEntity
  8
Ma\U+00DFe
370
     0
100
AcDbVertex
100
AcDb2dVertex
 10
42.4599609375
 20
152.86328125
 30
0.0
  0
VERTEX
  5
2AC
330
29A
100
AcDbEntity
  8
Ma\U+00DFe
370
     0
100
AcDbVertex
100
AcDb2dVertex
 10
42.009765625
 20
154.05322265625
 30
0.0
  0
VERTEX
  5
2AD
330
29A
100
AcDbEntity
  8
Ma\U+00DFe
370
     0
100
AcDbVertex
100
AcDb2dVertex
 10
41.2197265625
 20
154.97314453125
 30
0.0
  0
VERTEX
  5
2AE
330
29A
100
AcDbEntity
  8
Ma\U+00DFe
370
     0
100
AcDbVertex
100
AcDb2dVertex
 10
40.689453125
 20
155.2431640625
 30
0.0
  0
VERTEX
  5
2AF
330
29A
100
AcDbEntity
  8
Ma\U+00DFe
370
     0
100
AcDbVertex
100
AcDb2dVertex
 10
40.0693359375
 20
155.35302734375
 30
0.0
  0
SEQEND
  5
2B0
330
29A
100
AcDbEntity
  8
Ma\U+00DFe
370
     0
  0
POLYLINE
  5
2B1
330
1F
100
AcDbEntity
  8
Ma\U+00DFe
370
     0
100
AcDb2dPolyline
 66
     1
 10
0.0
 20
0.0
 30
0.0
  0
VERTEX
  5
2B2
330
2B1
100
AcDbEntity
  8
Ma\U+00DFe
370
     0
100
AcDbVertex
100
AcDb2dVertex
 10
40.0693359375
 20
154.623046875
 30
0.0
  0
VERTEX
  5
2B3
330
2B1
100
AcDbEntity
  8
Ma\U+00DFe
370
     0
100
AcDbVertex
100
AcDb2dVertex
 10
40.51953125
 20
154.5234375
 30
0.0
  0
VERTEX
  5
2B4
330
2B1
100
AcDbEntity
  8
Ma\U+00DFe
370
     0
100
AcDbVertex
100
AcDb2dVertex
 10
40.9091796875
 20
154.29296875
 30
0.0
  0
VERTEX
  5
2B5
330
2B1
100
AcDbEntity
  8
Ma\U+00DFe
370
     0
100
AcDbVertex
100
AcDb2dVertex
 10
41.4501953125
 20
153.5029296875
 30
0.0
  0
VERTEX
  5
2B6
330
2B1
100
AcDbEntity
  8
Ma\U+00DFe
370
     0
100
AcDbVertex
100
AcDb2dVertex
 10
41.7294921875
 20
152.5234375
 30
0.0
  0
VERTEX
  5
2B7
330
2B1
100
AcDbEntity
  8
Ma\U+00DFe
370
     0
100
AcDbVertex
100
AcDb2dVertex
 10
41.8193359375
 20
151.64306640625
 30
0.0
  0
VERTEX
  5
2B8
330
2B1
100
AcDbEntity
  8
Ma\U+00DFe
370
     0
100
AcDbVertex
100
AcDb2dVertex
 10
41.7197265625
 20
150.76318359375
 30
0.0
  0
VERTEX
  5
2B9
330
2B1
100
AcDbEntity
  8
Ma\U+00DFe
370
     0
100
AcDbVertex
100
AcDb2dVertex
 10
41.419921875
 20
149.8134765625
 30
0.0
  0
VERTEX
  5
2BA
330
2B1
100
AcDbEntity
  8
Ma\U+00DFe
370
     0
100
AcDbVertex
100
AcDb2dVertex
 10
40.8896484375
 20
149.05322265625
 30
0.0
  0
VERTEX
  5
2BB
330
2B1
100
AcDbEntity
  8
Ma\U+00DFe
370
     0
100
AcDbVertex
100
AcDb2dVertex
 10
40.509765625
 20
148.8330078125
 30
0.0
  0
VERTEX
  5
2BC
330
2B1
100
AcDbEntity
  8
Ma\U+00DFe
370
     0
100
AcDbVertex
100
AcDb2dVertex
 10
40.0693359375
 20
148.7529296875
 30
0.0
  0
VERTEX
  5
2BD
330
2B1
100
AcDbEntity
  8
Ma\U+00DFe
370
     0
100
AcDbVertex
100
AcDb2dVertex
 10
39.6201171875
 20
148.8330078125
 30
0.0
  0
VERTEX
  5
2BE
330
2B1
100
AcDbEntity
  8
Ma\U+00DFe
370
     0
100
AcDbVertex
100
AcDb2dVertex
 10
39.2392578125
 20
149.0634765625
 30
0.0
  0
VERTEX
  5
2BF
330
2B1
100
AcDbEntity
  8
Ma\U+00DFe
370
     0
100
AcDbVertex
100
AcDb2dVertex
 10
38.7099609375
 20
149.8134765625
 30
0.0
  0
VERTEX
  5
2C0
330
2B1
100
AcDbEntity
  8
Ma\U+00DFe
370
     0
100
AcDbVertex
100
AcDb2dVertex
 10
38.419921875
 20
150.76318359375
 30
0.0
  0
VERTEX
  5
2C1
330
2B1
100
AcDbEntity
  8
Ma\U+00DFe
370
     0
100
AcDbVertex
100
AcDb2dVertex
 10
38.3193359375
 20
151.64306640625
 30
0.0
  0
VERTEX
  5
2C2
330
2B1
100
AcDbEntity
  8
Ma\U+00DFe
370
     0
100
AcDbVertex
100
AcDb2dVertex
 10
38.3994140625
 20
152.5234375
 30
0.0
  0
VERTEX
  5
2C3
330
2B1
100
AcDbEntity
  8
Ma\U+00DFe
370
     0
100
AcDbVertex
100
AcDb2dVertex
 10
38.689453125
 20
153.5029296875
 30
0.0
  0
VERTEX
  5
2C4
330
2B1
100
AcDbEntity
  8
Ma\U+00DFe
370
     0
100
AcDbVertex
100
AcDb2dVertex
 10
39.2294921875
 20
154.29296875
 30
0.0
  0
VERTEX
  5
2C5
330
2B1
100
AcDbEntity
  8
Ma\U+00DFe
370
     0
100
AcDbVertex
100
AcDb2dVertex
 10
39.609375
 20
154.5234375
 30
0.0
  0
VERTEX
  5
2C6
330
2B1
100
AcDbEntity
  8
Ma\U+00DFe
370
     0
100
AcDbVertex
100
AcDb2dVertex
 10
40.0693359375
 20
154.623046875
 30
0.0
  0
SEQEND
  5
2C7
330
2B1
100
AcDbEntity
  8
Ma\U+00DFe
370
     0
  0
HATCH
  5
2C8
330
1F
100
AcDbEntity
  8
Ma\U+00DFe
 62
   250
420
  1709851
100
AcDbHatch
 10
0.0
 20
0.0
 30
0.0
210
0.0
220
0.0
230
1.0
  2
SOLID
 70
     1
 71
     0
 91
        4
 92
        1
 93
       20
 72
     1
 10
40.0693359375
 20
154.623046875
 11
40.51953125
 21
154.5234375
 72
     1
 10
40.51953125
 20
154.5234375
 11
40.9091796875
 21
154.29296875
 72
     1
 10
40.9091796875
 20
154.29296875
 11
41.4501953125
 21
153.5029296875
 72
     1
 10
41.4501953125
 20
153.5029296875
 11
41.7294921875
 21
152.5234375
 72
     1
 10
41.7294921875
 20
152.5234375
 11
41.8193359375
 21
151.64306640625
 72
     1
 10
41.8193359375
 20
151.64306640625
 11
41.7197265625
 21
150.76318359375
 72
     1
 10
41.7197265625
 20
150.76318359375
 11
41.419921875
 21
149.8134765625
 72
     1
 10
41.419921875
 20
149.8134765625
 11
40.8896484375
 21
149.05322265625
 72
     1
 10
40.8896484375
 20
149.05322265625
 11
40.509765625
 21
148.8330078125
 72
     1
 10
40.509765625
 20
148.8330078125
 11
40.0693359375
 21
148.7529296875
 72
     1
 10
40.0693359375
 20
148.7529296875
 11
39.6201171875
 21
148.8330078125
 72
     1
 10
39.6201171875
 20
148.8330078125
 11
39.2392578125
 21
149.0634765625
 72
     1
 10
39.2392578125
 20
149.0634765625
 11
38.7099609375
 21
149.8134765625
 72
     1
 10
38.7099609375
 20
149.8134765625
 11
38.419921875
 21
150.76318359375
 72
     1
 10
38.419921875
 20
150.76318359375
 11
38.3193359375
 21
151.64306640625
 72
     1
 10
38.3193359375
 20
151.64306640625
 11
38.3994140625
 21
152.5234375
 72
     1
 10
38.3994140625
 20
152.5234375
 11
38.689453125
 21
153.5029296875
 72
     1
 10
38.689453125
 20
153.5029296875
 11
39.2294921875
 21
154.29296875
 72
     1
 10
39.2294921875
 20
154.29296875
 11
39.609375
 21
154.5234375
 72
     1
 10
39.609375
 20
154.5234375
 11
40.0693359375
 21
154.623046875
 97
        0
 92
        1
 93
       10
 72
     1
 10
34.439453125
 20
150.0234375
 11
34.439453125
 21
155.623046875
 72
     1
 10
34.439453125
 20
155.623046875
 11
34.419921875
 21
155.623046875
 72
     1
 10
34.419921875
 20
155.623046875
 11
30.029296875
 21
149.29296875
 72
     1
 10
30.029296875
 20
149.29296875
 11
33.6494140625
 21
149.29296875
 72
     1
 10
33.6494140625
 20
149.29296875
 11
33.6494140625
 21
148.14306640625
 72
     1
 10
33.6494140625
 20
148.14306640625
 11
34.439453125
 21
148.14306640625
 72
     1
 10
34.439453125
 20
148.14306640625
 11
34.439453125
 21
149.29296875
 72
     1
 10
34.439453125
 20
149.29296875
 11
35.3193359375
 21
149.29296875
 72
     1
 10
35.3193359375
 20
149.29296875
 11
35.3193359375
 21
150.0234375
 72
     1
 10
35.3193359375
 20
150.0234375
 11
34.439453125
 21
150.0234375
 97
        0
 92
        1
 93
        4
 72
     1
 10
33.6494140625
 20
150.0234375
 11
31.4091796875
 21
150.0234375
 72
     1
 10
31.4091796875
 20
150.0234375
 11
33.6298828125
 21
153.22314453125
 72
     1
 10
33.6298828125
 20
153.22314453125
 11
33.6494140625
 21
153.22314453125
 72
     1
 10
33.6494140625
 20
153.22314453125
 11
33.6494140625
 21
150.0234375
 97
        0
 92
        1
 93
       20
 72
     1
 10
40.0693359375
 20
155.35302734375
 11
39.439453125
 21
155.2431640625
 72
     1
 10
39.439453125
 20
155.2431640625
 11
38.919921875
 21
154.97314453125
 72
     1
 10
38.919921875
 20
154.97314453125
 11
38.1298828125
 21
154.05322265625
 72
     1
 10
38.1298828125
 20
154.05322265625
 11
37.669921875
 21
152.86328125
 72
     1
 10
37.669921875
 20
152.86328125
 11
37.529296875
 21
151.67333984375
 72
     1
 10
37.529296875
 20
151.67333984375
 11
37.7001953125
 21
150.36328125
 72
     1
 10
37.7001953125
 20
150.36328125
 11
38.189453125
 21
149.18310546875
 72
     1
 10
38.189453125
 20
149.18310546875
 11
38.9892578125
 21
148.34326171875
 72
     1
 10
38.9892578125
 20
148.34326171875
 11
39.4892578125
 21
148.11328125
 72
     1
 10
39.4892578125
 20
148.11328125
 11
40.0693359375
 21
148.0234375
 72
     1
 10
40.0693359375
 20
148.0234375
 11
40.6396484375
 21
148.11328125
 72
     1
 10
40.6396484375
 20
148.11328125
 11
41.1396484375
 21
148.34326171875
 72
     1
 10
41.1396484375
 20
148.34326171875
 11
41.939453125
 21
149.18310546875
 72
     1
 10
41.939453125
 20
149.18310546875
 11
42.4296875
 21
150.36328125
 72
     1
 10
42.4296875
 20
150.36328125
 11
42.609375
 21
151.67333984375
 72
     1
 10
42.609375
 20
151.67333984375
 11
42.4599609375
 21
152.86328125
 72
     1
 10
42.4599609375
 20
152.86328125
 11
42.009765625
 21
154.05322265625
 72
     1
 10
42.009765625
 20
154.05322265625
 11
41.2197265625
 21
154.97314453125
 72
     1
 10
41.2197265625
 20
154.97314453125
 11
40.689453125
 21
155.2431640625
 72
     1
 10
40.689453125
 20
155.2431640625
 11
40.0693359375
 21
155.35302734375
 97
        0
 75
     0
 76
     1
 98
        0
  0
POLYLINE
  5
2C9
330
1F
100
AcDbEntity
  8
Ma\U+00DFe
 62
   250
420
  1709851
370
    18
100
AcDb2dPolyline
 66
     1
 10
0.0
 20
0.0
 30
0.0
  0
VERTEX
  5
2CA
330
2C9
100
AcDbEntity
  8
Ma\U+00DFe
 62
   250
420
  1709851
370
    18
100
AcDbVertex
100
AcDb2dVertex
 10
15.2099609375
 20
151.68310546875
 30
0.0
  0
VERTEX
  5
2CB
330
2C9
100
AcDbEntity
  8
Ma\U+00DFe
 62
   250
420
  1709851
370
    18
100
AcDbVertex
100
AcDb2dVertex
 10
23.25
 20
151.68310546875
 30
0.0
  0
SEQEND
  5
2CC
330
2C9
100
AcDbEntity
  8
Ma\U+00DFe
370
    18
  0
POLYLINE
  5
2CD
330
1F
100
AcDbEntity
  8
Ma\U+00DFe
 62
   250
420
  1709851
370
    18
100
AcDb2dPolyline
 66
     1
 10
0.0
 20
0.0
 30
0.0
  0
VERTEX
  5
2CE
330
2CD
100
AcDbEntity
  8
Ma\U+00DFe
 62
   250
420
  1709851
370
    18
100
AcDbVertex
100
AcDb2dVertex
 10
49.6796875
 20
151.68310546875
 30
0.0
  0
VERTEX
  5
2CF
330
2CD
100
AcDbEntity
  8
Ma\U+00DFe
 62
   250
420
  1709851
370
    18
100
AcDbVertex
100
AcDb2dVertex
 10
57.7197265625
 20
151.68310546875
 30
0.0
  0
SEQEND
  5
2D0
330
2CD
100
AcDbEntity
  8
Ma\U+00DFe
370
    18
  0
POLYLINE
  5
2D1
330
1F
100
AcDbEntity
  8
Ma\U+00DFe
 62
   250
420
  1709851
370
    18
100
AcDb2dPolyline
 66
     1
 10
0.0
 20
0.0
 30
0.0
  0
VERTEX
  5
2D2
330
2D1
100
AcDbEntity
  8
Ma\U+00DFe
 62
   250
420
  1709851
370
    18
100
AcDbVertex
100
AcDb2dVertex
 10
23.25
 20
148.14306640625
 30
0.0
  0
VERTEX
  5
2D3
330
2D1
100
AcDbEntity
  8
Ma\U+00DFe
 62
   250
420
  1709851
370
    18
100
AcDbVertex
100
AcDb2dVertex
 10
29.3896484375
 20
151.68310546875
 30
0.0
  0
VERTEX
  5
2D4
330
2D1
100
AcDbEntity
  8
Ma\U+00DFe
 62
   250
420
  1709851
370
    18
100
AcDbVertex
100
AcDb2dVertex
 10
23.25
 20
155.2333984375
 30
0.0
  0
VERTEX
  5
2D5
330
2D1
100
AcDbEntity
  8
Ma\U+00DFe
 62
   250
420
  1709851
370
    18
100
AcDbVertex
100
AcDb2dVertex
 10
23.25
 20
148.14306640625
 30
0.0
  0
SEQEND
  5
2D6
330
2D1
100
AcDbEntity
  8
Ma\U+00DFe
370
    18
  0
POLYLINE
  5
2D7
330
1F
100
AcDbEntity
  8
Ma\U+00DFe
 62
   250
420
  1709851
370
    18
100
AcDb2dPolyline
 66
     1
 10
0.0
 20
0.0
 30
0.0
  0
VERTEX
  5
2D8
330
2D7
100
AcDbEntity
  8
Ma\U+00DFe
 62
   250
420
  1709851
370
    18
100
AcDbVertex
100
AcDb2dVertex
 10
49.6796875
 20
155.2333984375
 30
0.0
  0
VERTEX
  5
2D9
330
2D7
100
AcDbEntity
  8
Ma\U+00DFe
 62
   250
420
  1709851
370
    18
100
AcDbVertex
100
AcDb2dVertex
 10
43.5498046875
 20
151.68310546875
 30
0.0
  0
VERTEX
  5
2DA
330
2D7
100
AcDbEntity
  8
Ma\U+00DFe
 62
   250
420
  1709851
370
    18
100
AcDbVertex
100
AcDb2dVertex
 10
49.6796875
 20
148.14306640625
 30
0.0
  0
VERTEX
  5
2DB
330
2D7
100
AcDbEntity
  8
Ma\U+00DFe
 62
   250
420
  1709851
370
    18
100
AcDbVertex
100
AcDb2dVertex
 10
49.6796875
 20
155.2333984375
 30
0.0
  0
SEQEND
  5
2DC
330
2D7
100
AcDbEntity
  8
Ma\U+00DFe
370
    18
  0
POLYLINE
  5
2DD
330
1F
100
AcDbEntity
  8
Ma\U+00DFe
 62
   250
420
  1709851
370
    18
100
AcDb2dPolyline
 66
     1
 10
0.0
 20
0.0
 30
0.0
  0
VERTEX
  5
2DE
330
2DD
100
AcDbEntity
  8
Ma\U+00DFe
 62
   250
420
  1709851
370
    18
100
AcDbVertex
100
AcDb2dVertex
 10
39.6591796875
 20
81.6884765625
 30
0.0
  0
VERTEX
  5
2DF
330
2DD
100
AcDbEntity
  8
Ma\U+00DFe
 62
   250
420
  1709851
370
    18
100
AcDbVertex
100
AcDb2dVertex
 10
59.0400390625
 20
81.6884765625
 30
0.0
  0
SEQEND
  5
2E0
330
2DD
100
AcDbEntity
  8
Ma\U+00DFe
370
    18
  0
POLYLINE
  5
2E1
330
1F
100
AcDbEntity
  8
Ma\U+00DFe
 62
   250
420
  1709851
370
    18
100
AcDb2dPolyline
 66
     1
 10
0.0
 20
0.0
 30
0.0
  0
VERTEX
  5
2E2
330
2E1
100
AcDbEntity
  8
Ma\U+00DFe
 62
   250
420
  1709851
370
    18
100
AcDbVertex
100
AcDb2dVertex
 10
39.6591796875
 20
140.748046875
 30
0.0
  0
VERTEX
  5
2E3
330
2E1
100
AcDbEntity
  8
Ma\U+00DFe
 62
   250
420
  1709851
370
    18
100
AcDbVertex
100
AcDb2dVertex
 10
59.0400390625
 20
140.748046875
 30
0.0
  0
SEQEND
  5
2E4
330
2E1
100
AcDbEntity
  8
Ma\U+00DFe
370
    18
  0
POLYLINE
  5
2E5
330
1F
100
AcDbEntity
  8
Ma\U+00DFe
 62
   250
420
  1709851
370
    18
100
AcDb2dPolyline
 66
     1
 10
0.0
 20
0.0
 30
0.0
  0
VERTEX
  5
2E6
330
2E5
100
AcDbEntity
  8
Ma\U+00DFe
 62
   250
420
  1709851
370
    18
100
AcDbVertex
100
AcDb2dVertex
 10
41.5
 20
69.2275390625
 30
0.0
  0
VERTEX
  5
2E7
330
2E5
100
AcDbEntity
  8
Ma\U+00DFe
 62
   250
420
  1709851
370
    18
100
AcDbVertex
100
AcDb2dVertex
 10
69.830078125
 20
69.2275390625
 30
0.0
  0
SEQEND
  5
2E8
330
2E5
100
AcDbEntity
  8
Ma\U+00DFe
370
    18
  0
POLYLINE
  5
2E9
330
1F
100
AcDbEntity
  8
Ma\U+00DFe
 62
   250
420
  1709851
370
    18
100
AcDb2dPolyline
 66
     1
 10
0.0
 20
0.0
 30
0.0
  0
VERTEX
  5
2EA
330
2E9
100
AcDbEntity
  8
Ma\U+00DFe
 62
   250
420
  1709851
370
    18
100
AcDbVertex
100
AcDb2dVertex
 10
39.6591796875
 20
140.748046875
 30
0.0
  0
VERTEX
  5
2EB
330
2E9
100
AcDbEntity
  8
Ma\U+00DFe
 62
   250
420
  1709851
370
    18
100
AcDbVertex
100
AcDb2dVertex
 10
69.830078125
 20
140.748046875
 30
0.0
  0
SEQEND
  5
2EC
330
2E9
100
AcDbEntity
  8
Ma\U+00DFe
370
    18
  0
POLYLINE
  5
2ED
330
1F
100
AcDbEntity
  8
Ma\U+00DFe
370
     0
100
AcDb2dPolyline
 66
     1
 10
0.0
 20
0.0
 30
0.0
  0
VERTEX
  5
2EE
330
2ED
100
AcDbEntity
  8
Ma\U+00DFe
370
     0
100
AcDbVertex
100
AcDb2dVertex
 10
56.9091796875
 20
134.60791015625
 30
0.0
  0
VERTEX
  5
2EF
330
2ED
100
AcDbEntity
  8
Ma\U+00DFe
370
     0
100
AcDbVertex
100
AcDb2dVertex
 10
53.3701171875
 20
140.748046875
 30
0.0
  0
VERTEX
  5
2F0
330
2ED
100
AcDbEntity
  8
Ma\U+00DFe
370
     0
100
AcDbVertex
100
AcDb2dVertex
 10
49.8193359375
 20
134.60791015625
 30
0.0
  0
VERTEX
  5
2F1
330
2ED
100
AcDbEntity
  8
Ma\U+00DFe
370
     0
100
AcDbVertex
100
AcDb2dVertex
 10
56.9091796875
 20
134.60791015625
 30
0.0
  0
SEQEND
  5
2F2
330
2ED
100
AcDbEntity
  8
Ma\U+00DFe
370
     0
  0
HATCH
  5
2F3
330
1F
100
AcDbEntity
  8
Ma\U+00DFe
 62
   250
420
  1709851
100
AcDbHatch
 10
0.0
 20
0.0
 30
0.0
210
0.0
220
0.0
230
1.0
  2
SOLID
 70
     1
 71
     0
 91
        1
 92
        1
 93
        3
 72
     1
 10
56.9091796875
 20
134.60791015625
 11
53.3701171875
 21
140.748046875
 72
     1
 10
53.3701171875
 20
140.748046875
 11
49.8193359375
 21
134.60791015625
 72
     1
 10
49.8193359375
 20
134.60791015625
 11
56.9091796875
 21
134.60791015625
 97
        0
 75
     0
 76
     1
 98
        0
  0
POLYLINE
  5
2F4
330
1F
100
AcDbEntity
  8
Ma\U+00DFe
370
     0
100
AcDb2dPolyline
 66
     1
 10
0.0
 20
0.0
 30
0.0
  0
VERTEX
  5
2F5
330
2F4
100
AcDbEntity
  8
Ma\U+00DFe
370
     0
100
AcDbVertex
100
AcDb2dVertex
 10
49.8193359375
 20
87.828125
 30
0.0
  0
VERTEX
  5
2F6
330
2F4
100
AcDbEntity
  8
Ma\U+00DFe
370
     0
100
AcDbVertex
100
AcDb2dVertex
 10
53.3701171875
 20
81.6884765625
 30
0.0
  0
VERTEX
  5
2F7
330
2F4
100
AcDbEntity
  8
Ma\U+00DFe
370
     0
100
AcDbVertex
100
AcDb2dVertex
 10
56.9091796875
 20
87.828125
 30
0.0
  0
VERTEX
  5
2F8
330
2F4
100
AcDbEntity
  8
Ma\U+00DFe
370
     0
100
AcDbVertex
100
AcDb2dVertex
 10
49.8193359375
 20
87.828125
 30
0.0
  0
SEQEND
  5
2F9
330
2F4
100
AcDbEntity
  8
Ma\U+00DFe
370
     0
  0
HATCH
  5
2FA
330
1F
100
AcDbEntity
  8
Ma\U+00DFe
 62
   250
420
  1709851
100
AcDbHatch
 10
0.0
 20
0.0
 30
0.0
210
0.0
220
0.0
230
1.0
  2
SOLID
 70
     1
 71
     0
 91
        1
 92
        1
 93
        3
 72
     1
 10
49.8193359375
 20
87.828125
 11
53.3701171875
 21
81.6884765625
 72
     1
 10
53.3701171875
 20
81.6884765625
 11
56.9091796875
 21
87.828125
 72
     1
 10
56.9091796875
 20
87.828125
 11
49.8193359375
 21
87.828125
 97
        0
 75
     0
 76
     1
 98
        0
  0
POLYLINE
  5
2FB
330
1F
100
AcDbEntity
  8
Ma\U+00DFe
370
     0
100
AcDb2dPolyline
 66
     1
 10
0.0
 20
0.0
 30
0.0
  0
VERTEX
  5
2FC
330
2FB
100
AcDbEntity
  8
Ma\U+00DFe
370
     0
100
AcDbVertex
100
AcDb2dVertex
 10
50.5595703125
 20
103.7783203125
 30
0.0
  0
VERTEX
  5
2FD
330
2FB
100
AcDbEntity
  8
Ma\U+00DFe
370
     0
100
AcDbVertex
100
AcDb2dVertex
 10
56.9091796875
 20
103.7783203125
 30
0.0
  0
VERTEX
  5
2FE
330
2FB
100
AcDbEntity
  8
Ma\U+00DFe
370
     0
100
AcDbVertex
100
AcDb2dVertex
 10
56.9091796875
 20
104.5673828125
 30
0.0
  0
VERTEX
  5
2FF
330
2FB
100
AcDbEntity
  8
Ma\U+00DFe
370
     0
100
AcDbVertex
100
AcDb2dVertex
 10
49.8193359375
 20
104.5673828125
 30
0.0
  0
VERTEX
  5
300
330
2FB
100
AcDbEntity
  8
Ma\U+00DFe
370
     0
100
AcDbVertex
100
AcDb2dVertex
 10
49.8193359375
 20
103.017578125
 30
0.0
  0
VERTEX
  5
301
330
2FB
100
AcDbEntity
  8
Ma\U+00DFe
370
     0
100
AcDbVertex
100
AcDb2dVertex
 10
50.5595703125
 20
102.6083984375
 30
0.0
  0
VERTEX
  5
302
330
2FB
100
AcDbEntity
  8
Ma\U+00DFe
370
     0
100
AcDbVertex
100
AcDb2dVertex
 10
50.5595703125
 20
103.7783203125
 30
0.0
  0
SEQEND
  5
303
330
2FB
100
AcDbEntity
  8
Ma\U+00DFe
370
     0
  0
POLYLINE
  5
304
330
1F
100
AcDbEntity
  8
Ma\U+00DFe
370
     0
100
AcDb2dPolyline
 66
     1
 10
0.0
 20
0.0
 30
0.0
  0
VERTEX
  5
305
330
304
100
AcDbEntity
  8
Ma\U+00DFe
370
     0
100
AcDbVertex
100
AcDb2dVertex
 10
49.7001953125
 20
111.7373046875
 30
0.0
  0
VERTEX
  5
306
330
304
100
AcDbEntity
  8
Ma\U+00DFe
370
     0
100
AcDbVertex
100
AcDb2dVertex
 10
52.9091796875
 20
109.3876953125
 30
0.0
  0
VERTEX
  5
307
330
304
100
AcDbEntity
  8
Ma\U+00DFe
370
     0
100
AcDbVertex
100
AcDb2dVertex
 10
53.7001953125
 20
108.927734375
 30
0.0
  0
VERTEX
  5
308
330
304
100
AcDbEntity
  8
Ma\U+00DFe
370
     0
100
AcDbVertex
100
AcDb2dVertex
 10
54.609375
 20
108.7373046875
 30
0.0
  0
VERTEX
  5
309
330
304
100
AcDbEntity
  8
Ma\U+00DFe
370
     0
100
AcDbVertex
100
AcDb2dVertex
 10
55.5595703125
 20
108.927734375
 30
0.0
  0
VERTEX
  5
30A
330
304
100
AcDbEntity
  8
Ma\U+00DFe
370
     0
100
AcDbVertex
100
AcDb2dVertex
 10
56.330078125
 20
109.4580078125
 30
0.0
  0
VERTEX
  5
30B
330
304
100
AcDbEntity
  8
Ma\U+00DFe
370
     0
100
AcDbVertex
100
AcDb2dVertex
 10
56.83984375
 20
110.2373046875
 30
0.0
  0
VERTEX
  5
30C
330
304
100
AcDbEntity
  8
Ma\U+00DFe
370
     0
100
AcDbVertex
100
AcDb2dVertex
 10
57.029296875
 20
111.177734375
 30
0.0
  0
VERTEX
  5
30D
330
304
100
AcDbEntity
  8
Ma\U+00DFe
370
     0
100
AcDbVertex
100
AcDb2dVertex
 10
56.83984375
 20
112.1181640625
 30
0.0
  0
VERTEX
  5
30E
330
304
100
AcDbEntity
  8
Ma\U+00DFe
370
     0
100
AcDbVertex
100
AcDb2dVertex
 10
56.330078125
 20
112.89794921875
 30
0.0
  0
VERTEX
  5
30F
330
304
100
AcDbEntity
  8
Ma\U+00DFe
370
     0
100
AcDbVertex
100
AcDb2dVertex
 10
55.5595703125
 20
113.427734375
 30
0.0
  0
VERTEX
  5
310
330
304
100
AcDbEntity
  8
Ma\U+00DFe
370
     0
100
AcDbVertex
100
AcDb2dVertex
 10
54.599609375
 20
113.6279296875
 30
0.0
  0
VERTEX
  5
311
330
304
100
AcDbEntity
  8
Ma\U+00DFe
370
     0
100
AcDbVertex
100
AcDb2dVertex
 10
53.689453125
 20
113.44775390625
 30
0.0
  0
VERTEX
  5
312
330
304
100
AcDbEntity
  8
Ma\U+00DFe
370
     0
100
AcDbVertex
100
AcDb2dVertex
 10
52.9501953125
 20
112.9580078125
 30
0.0
  0
VERTEX
  5
313
330
304
100
AcDbEntity
  8
Ma\U+00DFe
370
     0
100
AcDbVertex
100
AcDb2dVertex
 10
52.439453125
 20
112.2275390625
 30
0.0
  0
VERTEX
  5
314
330
304
100
AcDbEntity
  8
Ma\U+00DFe
370
     0
100
AcDbVertex
100
AcDb2dVertex
 10
52.259765625
 20
111.337890625
 30
0.0
  0
VERTEX
  5
315
330
304
100
AcDbEntity
  8
Ma\U+00DFe
370
     0
100
AcDbVertex
100
AcDb2dVertex
 10
52.359375
 20
110.7177734375
 30
0.0
  0
VERTEX
  5
316
330
304
100
AcDbEntity
  8
Ma\U+00DFe
370
     0
100
AcDbVertex
100
AcDb2dVertex
 10
52.33984375
 20
110.6982421875
 30
0.0
  0
VERTEX
  5
317
330
304
100
AcDbEntity
  8
Ma\U+00DFe
370
     0
100
AcDbVertex
100
AcDb2dVertex
 10
50.1396484375
 20
112.328125
 30
0.0
  0
VERTEX
  5
318
330
304
100
AcDbEntity
  8
Ma\U+00DFe
370
     0
100
AcDbVertex
100
AcDb2dVertex
 10
49.7001953125
 20
111.7373046875
 30
0.0
  0
SEQEND
  5
319
330
304
100
AcDbEntity
  8
Ma\U+00DFe
370
     0
  0
POLYLINE
  5
31A
330
1F
100
AcDbEntity
  8
Ma\U+00DFe
370
     0
100
AcDb2dPolyline
 66
     1
 10
0.0
 20
0.0
 30
0.0
  0
VERTEX
  5
31B
330
31A
100
AcDbEntity
  8
Ma\U+00DFe
370
     0
100
AcDbVertex
100
AcDb2dVertex
 10
56.2998046875
 20
111.177734375
 30
0.0
  0
VERTEX
  5
31C
330
31A
100
AcDbEntity
  8
Ma\U+00DFe
370
     0
100
AcDbVertex
100
AcDb2dVertex
 10
56.169921875
 20
110.5380859375
 30
0.0
  0
VERTEX
  5
31D
330
31A
100
AcDbEntity
  8
Ma\U+00DFe
370
     0
100
AcDbVertex
100
AcDb2dVertex
 10
55.8095703125
 20
110.0078125
 30
0.0
  0
VERTEX
  5
31E
330
31A
100
AcDbEntity
  8
Ma\U+00DFe
370
     0
100
AcDbVertex
100
AcDb2dVertex
 10
55.279296875
 20
109.6474609375
 30
0.0
  0
VERTEX
  5
31F
330
31A
100
AcDbEntity
  8
Ma\U+00DFe
370
     0
100
AcDbVertex
100
AcDb2dVertex
 10
54.6298828125
 20
109.5283203125
 30
0.0
  0
VERTEX
  5
320
330
31A
100
AcDbEntity
  8
Ma\U+00DFe
370
     0
100
AcDbVertex
100
AcDb2dVertex
 10
53.9892578125
 20
109.6474609375
 30
0.0
  0
VERTEX
  5
321
330
31A
100
AcDbEntity
  8
Ma\U+00DFe
370
     0
100
AcDbVertex
100
AcDb2dVertex
 10
53.4697265625
 20
110.0078125
 30
0.0
  0
VERTEX
  5
322
330
31A
100
AcDbEntity
  8
Ma\U+00DFe
370
     0
100
AcDbVertex
100
AcDb2dVertex
 10
53.1201171875
 20
110.5380859375
 30
0.0
  0
VERTEX
  5
323
330
31A
100
AcDbEntity
  8
Ma\U+00DFe
370
     0
100
AcDbVertex
100
AcDb2dVertex
 10
52.9892578125
 20
111.177734375
 30
0.0
  0
VERTEX
  5
324
330
31A
100
AcDbEntity
  8
Ma\U+00DFe
370
     0
100
AcDbVertex
100
AcDb2dVertex
 10
53.1201171875
 20
111.8173828125
 30
0.0
  0
VERTEX
  5
325
330
31A
100
AcDbEntity
  8
Ma\U+00DFe
370
     0
100
AcDbVertex
100
AcDb2dVertex
 10
53.4697265625
 20
112.34765625
 30
0.0
  0
VERTEX
  5
326
330
31A
100
AcDbEntity
  8
Ma\U+00DFe
370
     0
100
AcDbVertex
100
AcDb2dVertex
 10
53.9892578125
 20
112.7080078125
 30
0.0
  0
VERTEX
  5
327
330
31A
100
AcDbEntity
  8
Ma\U+00DFe
370
     0
100
AcDbVertex
100
AcDb2dVertex
 10
54.6298828125
 20
112.837890625
 30
0.0
  0
VERTEX
  5
328
330
31A
100
AcDbEntity
  8
Ma\U+00DFe
370
     0
100
AcDbVertex
100
AcDb2dVertex
 10
55.279296875
 20
112.7080078125
 30
0.0
  0
VERTEX
  5
329
330
31A
100
AcDbEntity
  8
Ma\U+00DFe
370
     0
100
AcDbVertex
100
AcDb2dVertex
 10
55.8095703125
 20
112.34765625
 30
0.0
  0
VERTEX
  5
32A
330
31A
100
AcDbEntity
  8
Ma\U+00DFe
370
     0
100
AcDbVertex
100
AcDb2dVertex
 10
56.169921875
 20
111.8173828125
 30
0.0
  0
VERTEX
  5
32B
330
31A
100
AcDbEntity
  8
Ma\U+00DFe
370
     0
100
AcDbVertex
100
AcDb2dVertex
 10
56.2998046875
 20
111.177734375
 30
0.0
  0
SEQEND
  5
32C
330
31A
100
AcDbEntity
  8
Ma\U+00DFe
370
     0
  0
POLYLINE
  5
32D
330
1F
100
AcDbEntity
  8
Ma\U+00DFe
370
     0
100
AcDb2dPolyline
 66
     1
 10
0.0
 20
0.0
 30
0.0
  0
VERTEX
  5
32E
330
32D
100
AcDbEntity
  8
Ma\U+00DFe
370
     0
100
AcDbVertex
100
AcDb2dVertex
 10
50.5595703125
 20
119.8876953125
 30
0.0
  0
VERTEX
  5
32F
330
32D
100
AcDbEntity
  8
Ma\U+00DFe
370
     0
100
AcDbVertex
100
AcDb2dVertex
 10
56.669921875
 20
115.85791015625
 30
0.0
  0
VERTEX
  5
330
330
32D
100
AcDbEntity
  8
Ma\U+00DFe
370
     0
100
AcDbVertex
100
AcDb2dVertex
 10
57.029296875
 20
116.47802734375
 30
0.0
  0
VERTEX
  5
331
330
32D
100
AcDbEntity
  8
Ma\U+00DFe
370
     0
100
AcDbVertex
100
AcDb2dVertex
 10
49.8193359375
 20
121.23779296875
 30
0.0
  0
VERTEX
  5
332
330
32D
100
AcDbEntity
  8
Ma\U+00DFe
370
     0
100
AcDbVertex
100
AcDb2dVertex
 10
49.8193359375
 20
116.0078125
 30
0.0
  0
VERTEX
  5
333
330
32D
100
AcDbEntity
  8
Ma\U+00DFe
370
     0
100
AcDbVertex
100
AcDb2dVertex
 10
50.5595703125
 20
116.0078125
 30
0.0
  0
VERTEX
  5
334
330
32D
100
AcDbEntity
  8
Ma\U+00DFe
370
     0
100
AcDbVertex
100
AcDb2dVertex
 10
50.5595703125
 20
119.8876953125
 30
0.0
  0
SEQEND
  5
335
330
32D
100
AcDbEntity
  8
Ma\U+00DFe
370
     0
  0
HATCH
  5
336
330
1F
100
AcDbEntity
  8
Ma\U+00DFe
 62
   250
420
  1709851
100
AcDbHatch
 10
0.0
 20
0.0
 30
0.0
210
0.0
220
0.0
230
1.0
  2
SOLID
 70
     1
 71
     0
 91
        4
 92
        1
 93
        6
 72
     1
 10
50.5595703125
 20
119.8876953125
 11
56.669921875
 21
115.85791015625
 72
     1
 10
56.669921875
 20
115.85791015625
 11
57.029296875
 21
116.47802734375
 72
     1
 10
57.029296875
 20
116.47802734375
 11
49.8193359375
 21
121.23779296875
 72
     1
 10
49.8193359375
 20
121.23779296875
 11
49.8193359375
 21
116.0078125
 72
     1
 10
49.8193359375
 20
116.0078125
 11
50.5595703125
 21
116.0078125
 72
     1
 10
50.5595703125
 20
116.0078125
 11
50.5595703125
 21
119.8876953125
 97
        0
 92
        1
 93
        6
 72
     1
 10
50.5595703125
 20
103.7783203125
 11
56.9091796875
 21
103.7783203125
 72
     1
 10
56.9091796875
 20
103.7783203125
 11
56.9091796875
 21
104.5673828125
 72
     1
 10
56.9091796875
 20
104.5673828125
 11
49.8193359375
 21
104.5673828125
 72
     1
 10
49.8193359375
 20
104.5673828125
 11
49.8193359375
 21
103.017578125
 72
     1
 10
49.8193359375
 20
103.017578125
 11
50.5595703125
 21
102.6083984375
 72
     1
 10
50.5595703125
 20
102.6083984375
 11
50.5595703125
 21
103.7783203125
 97
        0
 92
        1
 93
       19
 72
     1
 10
49.7001953125
 20
111.7373046875
 11
52.9091796875
 21
109.3876953125
 72
     1
 10
52.9091796875
 20
109.3876953125
 11
53.7001953125
 21
108.927734375
 72
     1
 10
53.7001953125
 20
108.927734375
 11
54.609375
 21
108.7373046875
 72
     1
 10
54.609375
 20
108.7373046875
 11
55.5595703125
 21
108.927734375
 72
     1
 10
55.5595703125
 20
108.927734375
 11
56.330078125
 21
109.4580078125
 72
     1
 10
56.330078125
 20
109.4580078125
 11
56.83984375
 21
110.2373046875
 72
     1
 10
56.83984375
 20
110.2373046875
 11
57.029296875
 21
111.177734375
 72
     1
 10
57.029296875
 20
111.177734375
 11
56.83984375
 21
112.1181640625
 72
     1
 10
56.83984375
 20
112.1181640625
 11
56.330078125
 21
112.89794921875
 72
     1
 10
56.330078125
 20
112.89794921875
 11
55.5595703125
 21
113.427734375
 72
     1
 10
55.5595703125
 20
113.427734375
 11
54.599609375
 21
113.6279296875
 72
     1
 10
54.599609375
 20
113.6279296875
 11
53.689453125
 21
113.44775390625
 72
     1
 10
53.689453125
 20
113.44775390625
 11
52.9501953125
 21
112.9580078125
 72
     1
 10
52.9501953125
 20
112.9580078125
 11
52.439453125
 21
112.2275390625
 72
     1
 10
52.439453125
 20
112.2275390625
 11
52.259765625
 21
111.337890625
 72
     1
 10
52.259765625
 20
111.337890625
 11
52.359375
 21
110.7177734375
 72
     1
 10
52.359375
 20
110.7177734375
 11
52.33984375
 21
110.6982421875
 72
     1
 10
52.33984375
 20
110.6982421875
 11
50.1396484375
 21
112.328125
 72
     1
 10
50.1396484375
 20
112.328125
 11
49.7001953125
 21
111.7373046875
 97
        0
 92
        1
 93
       16
 72
     1
 10
56.2998046875
 20
111.177734375
 11
56.169921875
 21
110.5380859375
 72
     1
 10
56.169921875
 20
110.5380859375
 11
55.8095703125
 21
110.0078125
 72
     1
 10
55.8095703125
 20
110.0078125
 11
55.279296875
 21
109.6474609375
 72
     1
 10
55.279296875
 20
109.6474609375
 11
54.6298828125
 21
109.5283203125
 72
     1
 10
54.6298828125
 20
109.5283203125
 11
53.9892578125
 21
109.6474609375
 72
     1
 10
53.9892578125
 20
109.6474609375
 11
53.4697265625
 21
110.0078125
 72
     1
 10
53.4697265625
 20
110.0078125
 11
53.1201171875
 21
110.5380859375
 72
     1
 10
53.1201171875
 20
110.5380859375
 11
52.9892578125
 21
111.177734375
 72
     1
 10
52.9892578125
 20
111.177734375
 11
53.1201171875
 21
111.8173828125
 72
     1
 10
53.1201171875
 20
111.8173828125
 11
53.4697265625
 21
112.34765625
 72
     1
 10
53.4697265625
 20
112.34765625
 11
53.9892578125
 21
112.7080078125
 72
     1
 10
53.9892578125
 20
112.7080078125
 11
54.6298828125
 21
112.837890625
 72
     1
 10
54.6298828125
 20
112.837890625
 11
55.279296875
 21
112.7080078125
 72
     1
 10
55.279296875
 20
112.7080078125
 11
55.8095703125
 21
112.34765625
 72
     1
 10
55.8095703125
 20
112.34765625
 11
56.169921875
 21
111.8173828125
 72
     1
 10
56.169921875
 20
111.8173828125
 11
56.2998046875
 21
111.177734375
 97
        0
 75
     0
 76
     1
 98
        0
  0
POLYLINE
  5
337
330
1F
100
AcDbEntity
  8
Ma\U+00DFe
 62
   250
420
  1709851
370
    18
100
AcDb2dPolyline
 66
     1
 10
0.0
 20
0.0
 30
0.0
  0
VERTEX
  5
338
330
337
100
AcDbEntity
  8
Ma\U+00DFe
 62
   250
420
  1709851
370
    18
100
AcDbVertex
100
AcDb2dVertex
 10
53.3701171875
 20
87.828125
 30
0.0
  0
VERTEX
  5
339
330
337
100
AcDbEntity
  8
Ma\U+00DFe
 62
   250
420
  1709851
370
    18
100
AcDbVertex
100
AcDb2dVertex
 10
53.3701171875
 20
96.8681640625
 30
0.0
  0
SEQEND
  5
33A
330
337
100
AcDbEntity
  8
Ma\U+00DFe
370
    18
  0
POLYLINE
  5
33B
330
1F
100
AcDbEntity
  8
Ma\U+00DFe
 62
   250
420
  1709851
370
    18
100
AcDb2dPolyline
 66
     1
 10
0.0
 20
0.0
 30
0.0
  0
VERTEX
  5
33C
330
33B
100
AcDbEntity
  8
Ma\U+00DFe
 62
   250
420
  1709851
370
    18
100
AcDbVertex
100
AcDb2dVertex
 10
53.3701171875
 20
125.578125
 30
0.0
  0
VERTEX
  5
33D
330
33B
100
AcDbEntity
  8
Ma\U+00DFe
 62
   250
420
  1709851
370
    18
100
AcDbVertex
100
AcDb2dVertex
 10
53.3701171875
 20
134.60791015625
 30
0.0
  0
SEQEND
  5
33E
330
33B
100
AcDbEntity
  8
Ma\U+00DFe
370
    18
  0
POLYLINE
  5
33F
330
1F
100
AcDbEntity
  8
Ma\U+00DFe
 62
   250
420
  1709851
370
    18
100
AcDb2dPolyline
 66
     1
 10
0.0
 20
0.0
 30
0.0
  0
VERTEX
  5
340
330
33F
100
AcDbEntity
  8
Ma\U+00DFe
 62
   250
420
  1709851
370
    18
100
AcDbVertex
100
AcDb2dVertex
 10
56.9091796875
 20
134.60791015625
 30
0.0
  0
VERTEX
  5
341
330
33F
100
AcDbEntity
  8
Ma\U+00DFe
 62
   250
420
  1709851
370
    18
100
AcDbVertex
100
AcDb2dVertex
 10
53.3701171875
 20
140.748046875
 30
0.0
  0
VERTEX
  5
342
330
33F
100
AcDbEntity
  8
Ma\U+00DFe
 62
   250
420
  1709851
370
    18
100
AcDbVertex
100
AcDb2dVertex
 10
49.8193359375
 20
134.60791015625
 30
0.0
  0
VERTEX
  5
343
330
33F
100
AcDbEntity
  8
Ma\U+00DFe
 62
   250
420
  1709851
370
    18
100
AcDbVertex
100
AcDb2dVertex
 10
56.9091796875
 20
134.60791015625
 30
0.0
  0
SEQEND
  5
344
330
33F
100
AcDbEntity
  8
Ma\U+00DFe
370
    18
  0
POLYLINE
  5
345
330
1F
100
AcDbEntity
  8
Ma\U+00DFe
 62
   250
420
  1709851
370
    18
100
AcDb2dPolyline
 66
     1
 10
0.0
 20
0.0
 30
0.0
  0
VERTEX
  5
346
330
345
100
AcDbEntity
  8
Ma\U+00DFe
 62
   250
420
  1709851
370
    18
100
AcDbVertex
100
AcDb2dVertex
 10
49.8193359375
 20
87.828125
 30
0.0
  0
VERTEX
  5
347
330
345
100
AcDbEntity
  8
Ma\U+00DFe
 62
   250
420
  1709851
370
    18
100
AcDbVertex
100
AcDb2dVertex
 10
53.3701171875
 20
81.6884765625
 30
0.0
  0
VERTEX
  5
348
330
345
100
AcDbEntity
  8
Ma\U+00DFe
 62
   250
420
  1709851
370
    18
100
AcDbVertex
100
AcDb2dVertex
 10
56.9091796875
 20
87.828125
 30
0.0
  0
VERTEX
  5
349
330
345
100
AcDbEntity
  8
Ma\U+00DFe
 62
   250
420
  1709851
370
    18
100
AcDbVertex
100
AcDb2dVertex
 10
49.8193359375
 20
87.828125
 30
0.0
  0
SEQEND
  5
34A
330
345
100
AcDbEntity
  8
Ma\U+00DFe
370
    18
  0
POLYLINE
  5
34B
330
1F
100
AcDbEntity
  8
Ma\U+00DFe
370
     0
100
AcDb2dPolyline
 66
     1
 10
0.0
 20
0.0
 30
0.0
  0
VERTEX
  5
34C
330
34B
100
AcDbEntity
  8
Ma\U+00DFe
370
     0
100
AcDbVertex
100
AcDb2dVertex
 10
67.7001953125
 20
134.60791015625
 30
0.0
  0
VERTEX
  5
34D
330
34B
100
AcDbEntity
  8
Ma\U+00DFe
370
     0
100
AcDbVertex
100
AcDb2dVertex
 10
64.1591796875
 20
140.748046875
 30
0.0
  0
VERTEX
  5
34E
330
34B
100
AcDbEntity
  8
Ma\U+00DFe
370
     0
100
AcDbVertex
100
AcDb2dVertex
 10
60.6201171875
 20
134.60791015625
 30
0.0
  0
VERTEX
  5
34F
330
34B
100
AcDbEntity
  8
Ma\U+00DFe
370
     0
100
AcDbVertex
100
AcDb2dVertex
 10
67.7001953125
 20
134.60791015625
 30
0.0
  0
SEQEND
  5
350
330
34B
100
AcDbEntity
  8
Ma\U+00DFe
370
     0
  0
HATCH
  5
351
330
1F
100
AcDbEntity
  8
Ma\U+00DFe
 62
   250
420
  1709851
100
AcDbHatch
 10
0.0
 20
0.0
 30
0.0
210
0.0
220
0.0
230
1.0
  2
SOLID
 70
     1
 71
     0
 91
        1
 92
        1
 93
        3
 72
     1
 10
67.7001953125
 20
134.60791015625
 11
64.1591796875
 21
140.748046875
 72
     1
 10
64.1591796875
 20
140.748046875
 11
60.6201171875
 21
134.60791015625
 72
     1
 10
60.6201171875
 20
134.60791015625
 11
67.7001953125
 21
134.60791015625
 97
        0
 75
     0
 76
     1
 98
        0
  0
POLYLINE
  5
352
330
1F
100
AcDbEntity
  8
Ma\U+00DFe
370
     0
100
AcDb2dPolyline
 66
     1
 10
0.0
 20
0.0
 30
0.0
  0
VERTEX
  5
353
330
352
100
AcDbEntity
  8
Ma\U+00DFe
370
     0
100
AcDbVertex
100
AcDb2dVertex
 10
60.6201171875
 20
75.3681640625
 30
0.0
  0
VERTEX
  5
354
330
352
100
AcDbEntity
  8
Ma\U+00DFe
370
     0
100
AcDbVertex
100
AcDb2dVertex
 10
64.1591796875
 20
69.2275390625
 30
0.0
  0
VERTEX
  5
355
330
352
100
AcDbEntity
  8
Ma\U+00DFe
370
     0
100
AcDbVertex
100
AcDb2dVertex
 10
67.7001953125
 20
75.3681640625
 30
0.0
  0
VERTEX
  5
356
330
352
100
AcDbEntity
  8
Ma\U+00DFe
370
     0
100
AcDbVertex
100
AcDb2dVertex
 10
60.6201171875
 20
75.3681640625
 30
0.0
  0
SEQEND
  5
357
330
352
100
AcDbEntity
  8
Ma\U+00DFe
370
     0
  0
HATCH
  5
358
330
1F
100
AcDbEntity
  8
Ma\U+00DFe
 62
   250
420
  1709851
100
AcDbHatch
 10
0.0
 20
0.0
 30
0.0
210
0.0
220
0.0
230
1.0
  2
SOLID
 70
     1
 71
     0
 91
        1
 92
        1
 93
        3
 72
     1
 10
60.6201171875
 20
75.3681640625
 11
64.1591796875
 21
69.2275390625
 72
     1
 10
64.1591796875
 20
69.2275390625
 11
67.7001953125
 21
75.3681640625
 72
     1
 10
67.7001953125
 20
75.3681640625
 11
60.6201171875
 21
75.3681640625
 97
        0
 75
     0
 76
     1
 98
        0
  0
POLYLINE
  5
359
330
1F
100
AcDbEntity
  8
Ma\U+00DFe
370
     0
100
AcDb2dPolyline
 66
     1
 10
0.0
 20
0.0
 30
0.0
  0
VERTEX
  5
35A
330
359
100
AcDbEntity
  8
Ma\U+00DFe
370
     0
100
AcDbVertex
100
AcDb2dVertex
 10
66.9697265625
 20
96.8681640625
 30
0.0
  0
VERTEX
  5
35B
330
359
100
AcDbEntity
  8
Ma\U+00DFe
370
     0
100
AcDbVertex
100
AcDb2dVertex
 10
64.080078125
 20
99.328125
 30
0.0
  0
VERTEX
  5
35C
330
359
100
AcDbEntity
  8
Ma\U+00DFe
370
     0
100
AcDbVertex
100
AcDb2dVertex
 10
63.3994140625
 20
99.7275390625
 30
0.0
  0
VERTEX
  5
35D
330
359
100
AcDbEntity
  8
Ma\U+00DFe
370
     0
100
AcDbVertex
100
AcDb2dVertex
 10
62.58984375
 20
99.8583984375
 30
0.0
  0
VERTEX
  5
35E
330
359
100
AcDbEntity
  8
Ma\U+00DFe
370
     0
100
AcDbVertex
100
AcDb2dVertex
 10
61.7392578125
 20
99.66796875
 30
0.0
  0
VERTEX
  5
35F
330
359
100
AcDbEntity
  8
Ma\U+00DFe
370
     0
100
AcDbVertex
100
AcDb2dVertex
 10
61.08984375
 20
99.177734375
 30
0.0
  0
VERTEX
  5
360
330
359
100
AcDbEntity
  8
Ma\U+00DFe
370
     0
100
AcDbVertex
100
AcDb2dVertex
 10
60.6494140625
 20
98.4775390625
 30
0.0
  0
VERTEX
  5
361
330
359
100
AcDbEntity
  8
Ma\U+00DFe
370
     0
100
AcDbVertex
100
AcDb2dVertex
 10
60.4892578125
 20
97.6279296875
 30
0.0
  0
VERTEX
  5
362
330
359
100
AcDbEntity
  8
Ma\U+00DFe
370
     0
100
AcDbVertex
100
AcDb2dVertex
 10
60.6591796875
 20
96.7578125
 30
0.0
  0
VERTEX
  5
363
330
359
100
AcDbEntity
  8
Ma\U+00DFe
370
     0
100
AcDbVertex
100
AcDb2dVertex
 10
61.1201171875
 20
96.0673828125
 30
0.0
  0
VERTEX
  5
364
330
359
100
AcDbEntity
  8
Ma\U+00DFe
370
     0
100
AcDbVertex
100
AcDb2dVertex
 10
61.8193359375
 20
95.6083984375
 30
0.0
  0
VERTEX
  5
365
330
359
100
AcDbEntity
  8
Ma\U+00DFe
370
     0
100
AcDbVertex
100
AcDb2dVertex
 10
62.6796875
 20
95.4384765625
 30
0.0
  0
VERTEX
  5
366
330
359
100
AcDbEntity
  8
Ma\U+00DFe
370
     0
100
AcDbVertex
100
AcDb2dVertex
 10
62.6796875
 20
96.2275390625
 30
0.0
  0
VERTEX
  5
367
330
359
100
AcDbEntity
  8
Ma\U+00DFe
370
     0
100
AcDbVertex
100
AcDb2dVertex
 10
62.109375
 20
96.337890625
 30
0.0
  0
VERTEX
  5
368
330
359
100
AcDbEntity
  8
Ma\U+00DFe
370
     0
100
AcDbVertex
100
AcDb2dVertex
 10
61.6494140625
 20
96.6279296875
 30
0.0
  0
VERTEX
  5
369
330
359
100
AcDbEntity
  8
Ma\U+00DFe
370
     0
100
AcDbVertex
100
AcDb2dVertex
 10
61.33984375
 20
97.078125
 30
0.0
  0
VERTEX
  5
36A
330
359
100
AcDbEntity
  8
Ma\U+00DFe
370
     0
100
AcDbVertex
100
AcDb2dVertex
 10
61.2294921875
 20
97.6572265625
 30
0.0
  0
VERTEX
  5
36B
330
359
100
AcDbEntity
  8
Ma\U+00DFe
370
     0
100
AcDbVertex
100
AcDb2dVertex
 10
61.330078125
 20
98.2080078125
 30
0.0
  0
VERTEX
  5
36C
330
359
100
AcDbEntity
  8
Ma\U+00DFe
370
     0
100
AcDbVertex
100
AcDb2dVertex
 10
61.6201171875
 20
98.6474609375
 30
0.0
  0
VERTEX
  5
36D
330
359
100
AcDbEntity
  8
Ma\U+00DFe
370
     0
100
AcDbVertex
100
AcDb2dVertex
 10
62.0498046875
 20
98.9580078125
 30
0.0
  0
VERTEX
  5
36E
330
359
100
AcDbEntity
  8
Ma\U+00DFe
370
     0
100
AcDbVertex
100
AcDb2dVertex
 10
62.599609375
 20
99.0673828125
 30
0.0
  0
VERTEX
  5
36F
330
359
100
AcDbEntity
  8
Ma\U+00DFe
370
     0
100
AcDbVertex
100
AcDb2dVertex
 10
63.2392578125
 20
98.927734375
 30
0.0
  0
VERTEX
  5
370
330
359
100
AcDbEntity
  8
Ma\U+00DFe
370
     0
100
AcDbVertex
100
AcDb2dVertex
 10
63.779296875
 20
98.587890625
 30
0.0
  0
VERTEX
  5
371
330
359
100
AcDbEntity
  8
Ma\U+00DFe
370
     0
100
AcDbVertex
100
AcDb2dVertex
 10
67.7001953125
 20
95.267578125
 30
0.0
  0
VERTEX
  5
372
330
359
100
AcDbEntity
  8
Ma\U+00DFe
370
     0
100
AcDbVertex
100
AcDb2dVertex
 10
67.7001953125
 20
99.8583984375
 30
0.0
  0
VERTEX
  5
373
330
359
100
AcDbEntity
  8
Ma\U+00DFe
370
     0
100
AcDbVertex
100
AcDb2dVertex
 10
66.9697265625
 20
99.8583984375
 30
0.0
  0
VERTEX
  5
374
330
359
100
AcDbEntity
  8
Ma\U+00DFe
370
     0
100
AcDbVertex
100
AcDb2dVertex
 10
66.9697265625
 20
96.8681640625
 30
0.0
  0
SEQEND
  5
375
330
359
100
AcDbEntity
  8
Ma\U+00DFe
370
     0
  0
POLYLINE
  5
376
330
1F
100
AcDbEntity
  8
Ma\U+00DFe
370
     0
100
AcDb2dPolyline
 66
     1
 10
0.0
 20
0.0
 30
0.0
  0
VERTEX
  5
377
330
376
100
AcDbEntity
  8
Ma\U+00DFe
370
     0
100
AcDbVertex
100
AcDb2dVertex
 10
60.4892578125
 20
104.9873046875
 30
0.0
  0
VERTEX
  5
378
330
376
100
AcDbEntity
  8
Ma\U+00DFe
370
     0
100
AcDbVertex
100
AcDb2dVertex
 10
60.599609375
 20
104.3583984375
 30
0.0
  0
VERTEX
  5
379
330
376
100
AcDbEntity
  8
Ma\U+00DFe
370
     0
100
AcDbVertex
100
AcDb2dVertex
 10
60.8701171875
 20
103.837890625
 30
0.0
  0
VERTEX
  5
37A
330
376
100
AcDbEntity
  8
Ma\U+00DFe
370
     0
100
AcDbVertex
100
AcDb2dVertex
 10
61.7900390625
 20
103.0478515625
 30
0.0
  0
VERTEX
  5
37B
330
376
100
AcDbEntity
  8
Ma\U+00DFe
370
     0
100
AcDbVertex
100
AcDb2dVertex
 10
62.9892578125
 20
102.587890625
 30
0.0
  0
VERTEX
  5
37C
330
376
100
AcDbEntity
  8
Ma\U+00DFe
370
     0
100
AcDbVertex
100
AcDb2dVertex
 10
64.169921875
 20
102.4482421875
 30
0.0
  0
VERTEX
  5
37D
330
376
100
AcDbEntity
  8
Ma\U+00DFe
370
     0
100
AcDbVertex
100
AcDb2dVertex
 10
65.4892578125
 20
102.6181640625
 30
0.0
  0
VERTEX
  5
37E
330
376
100
AcDbEntity
  8
Ma\U+00DFe
370
     0
100
AcDbVertex
100
AcDb2dVertex
 10
66.6591796875
 20
103.1083984375
 30
0.0
  0
VERTEX
  5
37F
330
376
100
AcDbEntity
  8
Ma\U+00DFe
370
     0
100
AcDbVertex
100
AcDb2dVertex
 10
67.509765625
 20
103.9072265625
 30
0.0
  0
VERTEX
  5
380
330
376
100
AcDbEntity
  8
Ma\U+00DFe
370
     0
100
AcDbVertex
100
AcDb2dVertex
 10
67.7294921875
 20
104.4072265625
 30
0.0
  0
VERTEX
  5
381
330
376
100
AcDbEntity
  8
Ma\U+00DFe
370
     0
100
AcDbVertex
100
AcDb2dVertex
 10
67.830078125
 20
104.9873046875
 30
0.0
  0
VERTEX
  5
382
330
376
100
AcDbEntity
  8
Ma\U+00DFe
370
     0
100
AcDbVertex
100
AcDb2dVertex
 10
67.7294921875
 20
105.5478515625
 30
0.0
  0
VERTEX
  5
383
330
376
100
AcDbEntity
  8
Ma\U+00DFe
370
     0
100
AcDbVertex
100
AcDb2dVertex
 10
67.509765625
 20
106.0576171875
 30
0.0
  0
VERTEX
  5
384
330
376
100
AcDbEntity
  8
Ma\U+00DFe
370
     0
100
AcDbVertex
100
AcDb2dVertex
 10
66.6591796875
 20
106.8583984375
 30
0.0
  0
VERTEX
  5
385
330
376
100
AcDbEntity
  8
Ma\U+00DFe
370
     0
100
AcDbVertex
100
AcDb2dVertex
 10
65.4892578125
 20
107.34765625
 30
0.0
  0
VERTEX
  5
386
330
376
100
AcDbEntity
  8
Ma\U+00DFe
370
     0
100
AcDbVertex
100
AcDb2dVertex
 10
64.169921875
 20
107.5283203125
 30
0.0
  0
VERTEX
  5
387
330
376
100
AcDbEntity
  8
Ma\U+00DFe
370
     0
100
AcDbVertex
100
AcDb2dVertex
 10
62.9892578125
 20
107.3779296875
 30
0.0
  0
VERTEX
  5
388
330
376
100
AcDbEntity
  8
Ma\U+00DFe
370
     0
100
AcDbVertex
100
AcDb2dVertex
 10
61.7900390625
 20
106.927734375
 30
0.0
  0
VERTEX
  5
389
330
376
100
AcDbEntity
  8
Ma\U+00DFe
370
     0
100
AcDbVertex
100
AcDb2dVertex
 10
60.8701171875
 20
106.1376953125
 30
0.0
  0
VERTEX
  5
38A
330
376
100
AcDbEntity
  8
Ma\U+00DFe
370
     0
100
AcDbVertex
100
AcDb2dVertex
 10
60.599609375
 20
105.6083984375
 30
0.0
  0
VERTEX
  5
38B
330
376
100
AcDbEntity
  8
Ma\U+00DFe
370
     0
100
AcDbVertex
100
AcDb2dVertex
 10
60.4892578125
 20
104.9873046875
 30
0.0
  0
SEQEND
  5
38C
330
376
100
AcDbEntity
  8
Ma\U+00DFe
370
     0
  0
POLYLINE
  5
38D
330
1F
100
AcDbEntity
  8
Ma\U+00DFe
370
     0
100
AcDb2dPolyline
 66
     1
 10
0.0
 20
0.0
 30
0.0
  0
VERTEX
  5
38E
330
38D
100
AcDbEntity
  8
Ma\U+00DFe
370
     0
100
AcDbVertex
100
AcDb2dVertex
 10
61.2294921875
 20
104.9873046875
 30
0.0
  0
VERTEX
  5
38F
330
38D
100
AcDbEntity
  8
Ma\U+00DFe
370
     0
100
AcDbVertex
100
AcDb2dVertex
 10
61.3193359375
 20
105.4384765625
 30
0.0
  0
VERTEX
  5
390
330
38D
100
AcDbEntity
  8
Ma\U+00DFe
370
     0
100
AcDbVertex
100
AcDb2dVertex
 10
61.5595703125
 20
105.828125
 30
0.0
  0
VERTEX
  5
391
330
38D
100
AcDbEntity
  8
Ma\U+00DFe
370
     0
100
AcDbVertex
100
AcDb2dVertex
 10
62.349609375
 20
106.3681640625
 30
0.0
  0
VERTEX
  5
392
330
38D
100
AcDbEntity
  8
Ma\U+00DFe
370
     0
100
AcDbVertex
100
AcDb2dVertex
 10
63.3193359375
 20
106.6474609375
 30
0.0
  0
VERTEX
  5
393
330
38D
100
AcDbEntity
  8
Ma\U+00DFe
370
     0
100
AcDbVertex
100
AcDb2dVertex
 10
64.2099609375
 20
106.7373046875
 30
0.0
  0
VERTEX
  5
394
330
38D
100
AcDbEntity
  8
Ma\U+00DFe
370
     0
100
AcDbVertex
100
AcDb2dVertex
 10
65.080078125
 20
106.6376953125
 30
0.0
  0
VERTEX
  5
395
330
38D
100
AcDbEntity
  8
Ma\U+00DFe
370
     0
100
AcDbVertex
100
AcDb2dVertex
 10
66.029296875
 20
106.337890625
 30
0.0
  0
VERTEX
  5
396
330
38D
100
AcDbEntity
  8
Ma\U+00DFe
370
     0
100
AcDbVertex
100
AcDb2dVertex
 10
66.7900390625
 20
105.8076171875
 30
0.0
  0
VERTEX
  5
397
330
38D
100
AcDbEntity
  8
Ma\U+00DFe
370
     0
100
AcDbVertex
100
AcDb2dVertex
 10
67.01953125
 20
105.427734375
 30
0.0
  0
VERTEX
  5
398
330
38D
100
AcDbEntity
  8
Ma\U+00DFe
370
     0
100
AcDbVertex
100
AcDb2dVertex
 10
67.08984375
 20
104.9873046875
 30
0.0
  0
VERTEX
  5
399
330
38D
100
AcDbEntity
  8
Ma\U+00DFe
370
     0
100
AcDbVertex
100
AcDb2dVertex
 10
67.01953125
 20
104.5380859375
 30
0.0
  0
VERTEX
  5
39A
330
38D
100
AcDbEntity
  8
Ma\U+00DFe
370
     0
100
AcDbVertex
100
AcDb2dVertex
 10
66.779296875
 20
104.1572265625
 30
0.0
  0
VERTEX
  5
39B
330
38D
100
AcDbEntity
  8
Ma\U+00DFe
370
     0
100
AcDbVertex
100
AcDb2dVertex
 10
66.029296875
 20
103.6279296875
 30
0.0
  0
VERTEX
  5
39C
330
38D
100
AcDbEntity
  8
Ma\U+00DFe
370
     0
100
AcDbVertex
100
AcDb2dVertex
 10
65.080078125
 20
103.337890625
 30
0.0
  0
VERTEX
  5
39D
330
38D
100
AcDbEntity
  8
Ma\U+00DFe
370
     0
100
AcDbVertex
100
AcDb2dVertex
 10
64.2099609375
 20
103.2373046875
 30
0.0
  0
VERTEX
  5
39E
330
38D
100
AcDbEntity
  8
Ma\U+00DFe
370
     0
100
AcDbVertex
100
AcDb2dVertex
 10
63.3193359375
 20
103.3173828125
 30
0.0
  0
VERTEX
  5
39F
330
38D
100
AcDbEntity
  8
Ma\U+00DFe
370
     0
100
AcDbVertex
100
AcDb2dVertex
 10
62.349609375
 20
103.6083984375
 30
0.0
  0
VERTEX
  5
3A0
330
38D
100
AcDbEntity
  8
Ma\U+00DFe
370
     0
100
AcDbVertex
100
AcDb2dVertex
 10
61.5595703125
 20
104.1474609375
 30
0.0
  0
VERTEX
  5
3A1
330
38D
100
AcDbEntity
  8
Ma\U+00DFe
370
     0
100
AcDbVertex
100
AcDb2dVertex
 10
61.3193359375
 20
104.5283203125
 30
0.0
  0
VERTEX
  5
3A2
330
38D
100
AcDbEntity
  8
Ma\U+00DFe
370
     0
100
AcDbVertex
100
AcDb2dVertex
 10
61.2294921875
 20
104.9873046875
 30
0.0
  0
SEQEND
  5
3A3
330
38D
100
AcDbEntity
  8
Ma\U+00DFe
370
     0
  0
POLYLINE
  5
3A4
330
1F
100
AcDbEntity
  8
Ma\U+00DFe
370
     0
100
AcDb2dPolyline
 66
     1
 10
0.0
 20
0.0
 30
0.0
  0
VERTEX
  5
3A5
330
3A4
100
AcDbEntity
  8
Ma\U+00DFe
370
     0
100
AcDbVertex
100
AcDb2dVertex
 10
66.9697265625
 20
111.2880859375
 30
0.0
  0
VERTEX
  5
3A6
330
3A4
100
AcDbEntity
  8
Ma\U+00DFe
370
     0
100
AcDbVertex
100
AcDb2dVertex
 10
64.080078125
 20
113.73779296875
 30
0.0
  0
VERTEX
  5
3A7
330
3A4
100
AcDbEntity
  8
Ma\U+00DFe
370
     0
100
AcDbVertex
100
AcDb2dVertex
 10
63.3994140625
 20
114.1376953125
 30
0.0
  0
VERTEX
  5
3A8
330
3A4
100
AcDbEntity
  8
Ma\U+00DFe
370
     0
100
AcDbVertex
100
AcDb2dVertex
 10
62.58984375
 20
114.27783203125
 30
0.0
  0
VERTEX
  5
3A9
330
3A4
100
AcDbEntity
  8
Ma\U+00DFe
370
     0
100
AcDbVertex
100
AcDb2dVertex
 10
61.7392578125
 20
114.087890625
 30
0.0
  0
VERTEX
  5
3AA
330
3A4
100
AcDbEntity
  8
Ma\U+00DFe
370
     0
100
AcDbVertex
100
AcDb2dVertex
 10
61.08984375
 20
113.59765625
 30
0.0
  0
VERTEX
  5
3AB
330
3A4
100
AcDbEntity
  8
Ma\U+00DFe
370
     0
100
AcDbVertex
100
AcDb2dVertex
 10
60.6494140625
 20
112.8876953125
 30
0.0
  0
VERTEX
  5
3AC
330
3A4
100
AcDbEntity
  8
Ma\U+00DFe
370
     0
100
AcDbVertex
100
AcDb2dVertex
 10
60.4892578125
 20
112.0478515625
 30
0.0
  0
VERTEX
  5
3AD
330
3A4
100
AcDbEntity
  8
Ma\U+00DFe
370
     0
100
AcDbVertex
100
AcDb2dVertex
 10
60.6591796875
 20
111.16796875
 30
0.0
  0
VERTEX
  5
3AE
330
3A4
100
AcDbEntity
  8
Ma\U+00DFe
370
     0
100
AcDbVertex
100
AcDb2dVertex
 10
61.1201171875
 20
110.4873046875
 30
0.0
  0
VERTEX
  5
3AF
330
3A4
100
AcDbEntity
  8
Ma\U+00DFe
370
     0
100
AcDbVertex
100
AcDb2dVertex
 10
61.8193359375
 20
110.0283203125
 30
0.0
  0
VERTEX
  5
3B0
330
3A4
100
AcDbEntity
  8
Ma\U+00DFe
370
     0
100
AcDbVertex
100
AcDb2dVertex
 10
62.6796875
 20
109.8583984375
 30
0.0
  0
VERTEX
  5
3B1
330
3A4
100
AcDbEntity
  8
Ma\U+00DFe
370
     0
100
AcDbVertex
100
AcDb2dVertex
 10
62.6796875
 20
110.6474609375
 30
0.0
  0
VERTEX
  5
3B2
330
3A4
100
AcDbEntity
  8
Ma\U+00DFe
370
     0
100
AcDbVertex
100
AcDb2dVertex
 10
62.109375
 20
110.748046875
 30
0.0
  0
VERTEX
  5
3B3
330
3A4
100
AcDbEntity
  8
Ma\U+00DFe
370
     0
100
AcDbVertex
100
AcDb2dVertex
 10
61.6494140625
 20
111.0380859375
 30
0.0
  0
VERTEX
  5
3B4
330
3A4
100
AcDbEntity
  8
Ma\U+00DFe
370
     0
100
AcDbVertex
100
AcDb2dVertex
 10
61.33984375
 20
111.4873046875
 30
0.0
  0
VERTEX
  5
3B5
330
3A4
100
AcDbEntity
  8
Ma\U+00DFe
370
     0
100
AcDbVertex
100
AcDb2dVertex
 10
61.2294921875
 20
112.078125
 30
0.0
  0
VERTEX
  5
3B6
330
3A4
100
AcDbEntity
  8
Ma\U+00DFe
370
     0
100
AcDbVertex
100
AcDb2dVertex
 10
61.330078125
 20
112.6181640625
 30
0.0
  0
VERTEX
  5
3B7
330
3A4
100
AcDbEntity
  8
Ma\U+00DFe
370
     0
100
AcDbVertex
100
AcDb2dVertex
 10
61.6201171875
 20
113.0576171875
 30
0.0
  0
VERTEX
  5
3B8
330
3A4
100
AcDbEntity
  8
Ma\U+00DFe
370
     0
100
AcDbVertex
100
AcDb2dVertex
 10
62.0498046875
 20
113.3681640625
 30
0.0
  0
VERTEX
  5
3B9
330
3A4
100
AcDbEntity
  8
Ma\U+00DFe
370
     0
100
AcDbVertex
100
AcDb2dVertex
 10
62.599609375
 20
113.48779296875
 30
0.0
  0
VERTEX
  5
3BA
330
3A4
100
AcDbEntity
  8
Ma\U+00DFe
370
     0
100
AcDbVertex
100
AcDb2dVertex
 10
63.2392578125
 20
113.337890625
 30
0.0
  0
VERTEX
  5
3BB
330
3A4
100
AcDbEntity
  8
Ma\U+00DFe
370
     0
100
AcDbVertex
100
AcDb2dVertex
 10
63.779296875
 20
113.0078125
 30
0.0
  0
VERTEX
  5
3BC
330
3A4
100
AcDbEntity
  8
Ma\U+00DFe
370
     0
100
AcDbVertex
100
AcDb2dVertex
 10
67.7001953125
 20
109.6884765625
 30
0.0
  0
VERTEX
  5
3BD
330
3A4
100
AcDbEntity
  8
Ma\U+00DFe
370
     0
100
AcDbVertex
100
AcDb2dVertex
 10
67.7001953125
 20
114.27783203125
 30
0.0
  0
VERTEX
  5
3BE
330
3A4
100
AcDbEntity
  8
Ma\U+00DFe
370
     0
100
AcDbVertex
100
AcDb2dVertex
 10
66.9697265625
 20
114.27783203125
 30
0.0
  0
VERTEX
  5
3BF
330
3A4
100
AcDbEntity
  8
Ma\U+00DFe
370
     0
100
AcDbVertex
100
AcDb2dVertex
 10
66.9697265625
 20
111.2880859375
 30
0.0
  0
SEQEND
  5
3C0
330
3A4
100
AcDbEntity
  8
Ma\U+00DFe
370
     0
  0
HATCH
  5
3C1
330
1F
100
AcDbEntity
  8
Ma\U+00DFe
 62
   250
420
  1709851
100
AcDbHatch
 10
0.0
 20
0.0
 30
0.0
210
0.0
220
0.0
230
1.0
  2
SOLID
 70
     1
 71
     0
 91
        4
 92
        1
 93
       26
 72
     1
 10
66.9697265625
 20
111.2880859375
 11
64.080078125
 21
113.73779296875
 72
     1
 10
64.080078125
 20
113.73779296875
 11
63.3994140625
 21
114.1376953125
 72
     1
 10
63.3994140625
 20
114.1376953125
 11
62.58984375
 21
114.27783203125
 72
     1
 10
62.58984375
 20
114.27783203125
 11
61.7392578125
 21
114.087890625
 72
     1
 10
61.7392578125
 20
114.087890625
 11
61.08984375
 21
113.59765625
 72
     1
 10
61.08984375
 20
113.59765625
 11
60.6494140625
 21
112.8876953125
 72
     1
 10
60.6494140625
 20
112.8876953125
 11
60.4892578125
 21
112.0478515625
 72
     1
 10
60.4892578125
 20
112.0478515625
 11
60.6591796875
 21
111.16796875
 72
     1
 10
60.6591796875
 20
111.16796875
 11
61.1201171875
 21
110.4873046875
 72
     1
 10
61.1201171875
 20
110.4873046875
 11
61.8193359375
 21
110.0283203125
 72
     1
 10
61.8193359375
 20
110.0283203125
 11
62.6796875
 21
109.8583984375
 72
     1
 10
62.6796875
 20
109.8583984375
 11
62.6796875
 21
110.6474609375
 72
     1
 10
62.6796875
 20
110.6474609375
 11
62.109375
 21
110.748046875
 72
     1
 10
62.109375
 20
110.748046875
 11
61.6494140625
 21
111.0380859375
 72
     1
 10
61.6494140625
 20
111.0380859375
 11
61.33984375
 21
111.4873046875
 72
     1
 10
61.33984375
 20
111.4873046875
 11
61.2294921875
 21
112.078125
 72
     1
 10
61.2294921875
 20
112.078125
 11
61.330078125
 21
112.6181640625
 72
     1
 10
61.330078125
 20
112.6181640625
 11
61.6201171875
 21
113.0576171875
 72
     1
 10
61.6201171875
 20
113.0576171875
 11
62.0498046875
 21
113.3681640625
 72
     1
 10
62.0498046875
 20
113.3681640625
 11
62.599609375
 21
113.48779296875
 72
     1
 10
62.599609375
 20
113.48779296875
 11
63.2392578125
 21
113.337890625
 72
     1
 10
63.2392578125
 20
113.337890625
 11
63.779296875
 21
113.0078125
 72
     1
 10
63.779296875
 20
113.0078125
 11
67.7001953125
 21
109.6884765625
 72
     1
 10
67.7001953125
 20
109.6884765625
 11
67.7001953125
 21
114.27783203125
 72
     1
 10
67.7001953125
 20
114.27783203125
 11
66.9697265625
 21
114.27783203125
 72
     1
 10
66.9697265625
 20
114.27783203125
 11
66.9697265625
 21
111.2880859375
 97
        0
 92
        1
 93
       26
 72
     1
 10
66.9697265625
 20
96.8681640625
 11
64.080078125
 21
99.328125
 72
     1
 10
64.080078125
 20
99.328125
 11
63.3994140625
 21
99.7275390625
 72
     1
 10
63.3994140625
 20
99.7275390625
 11
62.58984375
 21
99.8583984375
 72
     1
 10
62.58984375
 20
99.8583984375
 11
61.7392578125
 21
99.66796875
 72
     1
 10
61.7392578125
 20
99.66796875
 11
61.08984375
 21
99.177734375
 72
     1
 10
61.08984375
 20
99.177734375
 11
60.6494140625
 21
98.4775390625
 72
     1
 10
60.6494140625
 20
98.4775390625
 11
60.4892578125
 21
97.6279296875
 72
     1
 10
60.4892578125
 20
97.6279296875
 11
60.6591796875
 21
96.7578125
 72
     1
 10
60.6591796875
 20
96.7578125
 11
61.1201171875
 21
96.0673828125
 72
     1
 10
61.1201171875
 20
96.0673828125
 11
61.8193359375
 21
95.6083984375
 72
     1
 10
61.8193359375
 20
95.6083984375
 11
62.6796875
 21
95.4384765625
 72
     1
 10
62.6796875
 20
95.4384765625
 11
62.6796875
 21
96.2275390625
 72
     1
 10
62.6796875
 20
96.2275390625
 11
62.109375
 21
96.337890625
 72
     1
 10
62.109375
 20
96.337890625
 11
61.6494140625
 21
96.6279296875
 72
     1
 10
61.6494140625
 20
96.6279296875
 11
61.33984375
 21
97.078125
 72
     1
 10
61.33984375
 20
97.078125
 11
61.2294921875
 21
97.6572265625
 72
     1
 10
61.2294921875
 20
97.6572265625
 11
61.330078125
 21
98.2080078125
 72
     1
 10
61.330078125
 20
98.2080078125
 11
61.6201171875
 21
98.6474609375
 72
     1
 10
61.6201171875
 20
98.6474609375
 11
62.0498046875
 21
98.9580078125
 72
     1
 10
62.0498046875
 20
98.9580078125
 11
62.599609375
 21
99.0673828125
 72
     1
 10
62.599609375
 20
99.0673828125
 11
63.2392578125
 21
98.927734375
 72
     1
 10
63.2392578125
 20
98.927734375
 11
63.779296875
 21
98.587890625
 72
     1
 10
63.779296875
 20
98.587890625
 11
67.7001953125
 21
95.267578125
 72
     1
 10
67.7001953125
 20
95.267578125
 11
67.7001953125
 21
99.8583984375
 72
     1
 10
67.7001953125
 20
99.8583984375
 11
66.9697265625
 21
99.8583984375
 72
     1
 10
66.9697265625
 20
99.8583984375
 11
66.9697265625
 21
96.8681640625
 97
        0
 92
        1
 93
       20
 72
     1
 10
60.4892578125
 20
104.9873046875
 11
60.599609375
 21
104.3583984375
 72
     1
 10
60.599609375
 20
104.3583984375
 11
60.8701171875
 21
103.837890625
 72
     1
 10
60.8701171875
 20
103.837890625
 11
61.7900390625
 21
103.0478515625
 72
     1
 10
61.7900390625
 20
103.0478515625
 11
62.9892578125
 21
102.587890625
 72
     1
 10
62.9892578125
 20
102.587890625
 11
64.169921875
 21
102.4482421875
 72
     1
 10
64.169921875
 20
102.4482421875
 11
65.4892578125
 21
102.6181640625
 72
     1
 10
65.4892578125
 20
102.6181640625
 11
66.6591796875
 21
103.1083984375
 72
     1
 10
66.6591796875
 20
103.1083984375
 11
67.509765625
 21
103.9072265625
 72
     1
 10
67.509765625
 20
103.9072265625
 11
67.7294921875
 21
104.4072265625
 72
     1
 10
67.7294921875
 20
104.4072265625
 11
67.830078125
 21
104.9873046875
 72
     1
 10
67.830078125
 20
104.9873046875
 11
67.7294921875
 21
105.5478515625
 72
     1
 10
67.7294921875
 20
105.5478515625
 11
67.509765625
 21
106.0576171875
 72
     1
 10
67.509765625
 20
106.0576171875
 11
66.6591796875
 21
106.8583984375
 72
     1
 10
66.6591796875
 20
106.8583984375
 11
65.4892578125
 21
107.34765625
 72
     1
 10
65.4892578125
 20
107.34765625
 11
64.169921875
 21
107.5283203125
 72
     1
 10
64.169921875
 20
107.5283203125
 11
62.9892578125
 21
107.3779296875
 72
     1
 10
62.9892578125
 20
107.3779296875
 11
61.7900390625
 21
106.927734375
 72
     1
 10
61.7900390625
 20
106.927734375
 11
60.8701171875
 21
106.1376953125
 72
     1
 10
60.8701171875
 20
106.1376953125
 11
60.599609375
 21
105.6083984375
 72
     1
 10
60.599609375
 20
105.6083984375
 11
60.4892578125
 21
104.9873046875
 97
        0
 92
        1
 93
       20
 72
     1
 10
61.2294921875
 20
104.9873046875
 11
61.3193359375
 21
105.4384765625
 72
     1
 10
61.3193359375
 20
105.4384765625
 11
61.5595703125
 21
105.828125
 72
     1
 10
61.5595703125
 20
105.828125
 11
62.349609375
 21
106.3681640625
 72
     1
 10
62.349609375
 20
106.3681640625
 11
63.3193359375
 21
106.6474609375
 72
     1
 10
63.3193359375
 20
106.6474609375
 11
64.2099609375
 21
106.7373046875
 72
     1
 10
64.2099609375
 20
106.7373046875
 11
65.080078125
 21
106.6376953125
 72
     1
 10
65.080078125
 20
106.6376953125
 11
66.029296875
 21
106.337890625
 72
     1
 10
66.029296875
 20
106.337890625
 11
66.7900390625
 21
105.8076171875
 72
     1
 10
66.7900390625
 20
105.8076171875
 11
67.01953125
 21
105.427734375
 72
     1
 10
67.01953125
 20
105.427734375
 11
67.08984375
 21
104.9873046875
 72
     1
 10
67.08984375
 20
104.9873046875
 11
67.01953125
 21
104.5380859375
 72
     1
 10
67.01953125
 20
104.5380859375
 11
66.779296875
 21
104.1572265625
 72
     1
 10
66.779296875
 20
104.1572265625
 11
66.029296875
 21
103.6279296875
 72
     1
 10
66.029296875
 20
103.6279296875
 11
65.080078125
 21
103.337890625
 72
     1
 10
65.080078125
 20
103.337890625
 11
64.2099609375
 21
103.2373046875
 72
     1
 10
64.2099609375
 20
103.2373046875
 11
63.3193359375
 21
103.3173828125
 72
     1
 10
63.3193359375
 20
103.3173828125
 11
62.349609375
 21
103.6083984375
 72
     1
 10
62.349609375
 20
103.6083984375
 11
61.5595703125
 21
104.1474609375
 72
     1
 10
61.5595703125
 20
104.1474609375
 11
61.3193359375
 21
104.5283203125
 72
     1
 10
61.3193359375
 20
104.5283203125
 11
61.2294921875
 21
104.9873046875
 97
        0
 75
     0
 76
     1
 98
        0
  0
POLYLINE
  5
3C2
330
1F
100
AcDbEntity
  8
Ma\U+00DFe
 62
   250
420
  1709851
370
    18
100
AcDb2dPolyline
 66
     1
 10
0.0
 20
0.0
 30
0.0
  0
VERTEX
  5
3C3
330
3C2
100
AcDbEntity
  8
Ma\U+00DFe
 62
   250
420
  1709851
370
    18
100
AcDbVertex
100
AcDb2dVertex
 10
64.1591796875
 20
75.3681640625
 30
0.0
  0
VERTEX
  5
3C4
330
3C2
100
AcDbEntity
  8
Ma\U+00DFe
 62
   250
420
  1709851
370
    18
100
AcDbVertex
100
AcDb2dVertex
 10
64.1591796875
 20
90.6376953125
 30
0.0
  0
SEQEND
  5
3C5
330
3C2
100
AcDbEntity
  8
Ma\U+00DFe
370
    18
  0
POLYLINE
  5
3C6
330
1F
100
AcDbEntity
  8
Ma\U+00DFe
 62
   250
420
  1709851
370
    18
100
AcDb2dPolyline
 66
     1
 10
0.0
 20
0.0
 30
0.0
  0
VERTEX
  5
3C7
330
3C6
100
AcDbEntity
  8
Ma\U+00DFe
 62
   250
420
  1709851
370
    18
100
AcDbVertex
100
AcDb2dVertex
 10
64.1591796875
 20
119.337890625
 30
0.0
  0
VERTEX
  5
3C8
330
3C6
100
AcDbEntity
  8
Ma\U+00DFe
 62
   250
420
  1709851
370
    18
100
AcDbVertex
100
AcDb2dVertex
 10
64.1591796875
 20
134.60791015625
 30
0.0
  0
SEQEND
  5
3C9
330
3C6
100
AcDbEntity
  8
Ma\U+00DFe
370
    18
  0
POLYLINE
  5
3CA
330
1F
100
AcDbEntity
  8
Ma\U+00DFe
 62
   250
420
  1709851
370
    18
100
AcDb2dPolyline
 66
     1
 10
0.0
 20
0.0
 30
0.0
  0
VERTEX
  5
3CB
330
3CA
100
AcDbEntity
  8
Ma\U+00DFe
 62
   250
420
  1709851
370
    18
100
AcDbVertex
100
AcDb2dVertex
 10
67.7001953125
 20
134.60791015625
 30
0.0
  0
VERTEX
  5
3CC
330
3CA
100
AcDbEntity
  8
Ma\U+00DFe
 62
   250
420
  1709851
370
    18
100
AcDbVertex
100
AcDb2dVertex
 10
64.1591796875
 20
140.748046875
 30
0.0
  0
VERTEX
  5
3CD
330
3CA
100
AcDbEntity
  8
Ma\U+00DFe
 62
   250
420
  1709851
370
    18
100
AcDbVertex
100
AcDb2dVertex
 10
60.6201171875
 20
134.60791015625
 30
0.0
  0
VERTEX
  5
3CE
330
3CA
100
AcDbEntity
  8
Ma\U+00DFe
 62
   250
420
  1709851
370
    18
100
AcDbVertex
100
AcDb2dVertex
 10
67.7001953125
 20
134.60791015625
 30
0.0
  0
SEQEND
  5
3CF
330
3CA
100
AcDbEntity
  8
Ma\U+00DFe
370
    18
  0
POLYLINE
  5
3D0
330
1F
100
AcDbEntity
  8
Ma\U+00DFe
 62
   250
420
  1709851
370
    18
100
AcDb2dPolyline
 66
     1
 10
0.0
 20
0.0
 30
0.0
  0
VERTEX
  5
3D1
330
3D0
100
AcDbEntity
  8
Ma\U+00DFe
 62
   250
420
  1709851
370
    18
100
AcDbVertex
100
AcDb2dVertex
 10
60.6201171875
 20
75.3681640625
 30
0.0
  0
VERTEX
  5
3D2
330
3D0
100
AcDbEntity
  8
Ma\U+00DFe
 62
   250
420
  1709851
370
    18
100
AcDbVertex
100
AcDb2dVertex
 10
64.1591796875
 20
69.2275390625
 30
0.0
  0
VERTEX
  5
3D3
330
3D0
100
AcDbEntity
  8
Ma\U+00DFe
 62
   250
420
  1709851
370
    18
100
AcDbVertex
100
AcDb2dVertex
 10
67.7001953125
 20
75.3681640625
 30
0.0
  0
VERTEX
  5
3D4
330
3D0
100
AcDbEntity
  8
Ma\U+00DFe
 62
   250
420
  1709851
370
    18
100
AcDbVertex
100
AcDb2dVertex
 10
60.6201171875
 20
75.3681640625
 30
0.0
  0
SEQEND
  5
3D5
330
3D0
100
AcDbEntity
  8
Ma\U+00DFe
370
    18
  0
INSERT
  5
3D7
330
1F
100
AcDbEntity
  8
Ma\U+00DFe
100
AcDbBlockReference
  2
block 4
 10
0.0
 20
0.0
 30
0.0
  0
ENDSEC
  0
SECTION
  2
OBJECTS
  0
DICTIONARY
  5
C
330
0
100
AcDbDictionary
281
     1
  3
ACAD_GROUP
350
D
  3
ACAD_LAYOUT
350
1A
  3
ACAD_MLINESTYLE
350
17
  3
ACAD_PLOTSETTINGS
350
19
  3
ACAD_PLOTSTYLENAME
350
E
  3
ACAD_TABLESTYLE
350
6CA
  3
ACAD_VISUALSTYLE
350
2A
  0
DICTIONARY
  5
D
102
{ACAD_REACTORS
330
C
102
}
330
C
100
AcDbDictionary
281
     1
  0
DICTIONARY
  5
1A
102
{ACAD_REACTORS
330
C
102
}
330
C
100
AcDbDictionary
281
     1
  3
Layout1
350
1E
  3
Layout2
350
26
  3
Model
350
22
  0
DICTIONARY
  5
17
102
{ACAD_REACTORS
330
C
102
}
330
C
100
AcDbDictionary
281
     1
  3
Standard
350
18
  0
DICTIONARY
  5
19
102
{ACAD_REACTORS
330
C
102
}
330
C
100
AcDbDictionary
281
     1
  0
ACDBDICTIONARYWDFLT
  5
E
102
{ACAD_REACTORS
330
C
102
}
330
C
100
AcDbDictionary
281
     1
  3
Normal
350
F
100
AcDbDictionaryWithDefault
340
F
  0
DICTIONARY
  5
6CA
102
{ACAD_REACTORS
330
C
102
}
330
C
100
AcDbDictionary
281
     1
  0
DICTIONARY
  5
2A
102
{ACAD_REACTORS
330
C
102
}
330
C
100
AcDbDictionary
281
     1
  3
2dWireframe
350
2F
  3
3D Hidden
350
31
  3
3dWireframe
350
30
  3
Basic
350
32
  3
Brighten
350
36
  3
ColorChange
350
3A
  3
Conceptual
350
34
  3
Dim
350
35
  3
Facepattern
350
39
  3
Flat
350
2B
  3
FlatWithEdges
350
2C
  3
Gouraud
350
2D
  3
GouraudWithEdges
350
2E
  3
Linepattern
350
38
  3
Realistic
350
33
  3
Thicken
350
37
  0
LAYOUT
  5
1E
102
{ACAD_REACTORS
330
1A
102
}
330
1A
100
AcDbPlotSettings
  1

  2
none_device
  4

  6

 40
0.0
 41
0.0
 42
0.0
 43
0.0
 44
0.0
 45
0.0
 46
0.0
 47
0.0
 48
0.0
 49
0.0
140
0.0
141
0.0
142
1.0
143
1.0
 70
   688
 72
     0
 73
     0
 74
     5
  7

 75
    16
 76
     0
 77
     2
 78
   300
147
1.0
148
0.0
149
0.0
100
AcDbLayout
  1
Layout1
 70
     1
 71
     1
 10
0.0
 20
0.0
 11
12.0
 21
9.0
 12
0.0
 22
0.0
 32
0.0
 14
1.000000000000000E+20
 24
1.000000000000000E+20
 34
1.000000000000000E+20
 15
-1.000000000000000E+20
 25
-1.000000000000000E+20
 35
-1.000000000000000E+20
146
0.0
 13
0.0
 23
0.0
 33
0.0
 16
1.0
 26
0.0
 36
0.0
 17
0.0
 27
1.0
 37
0.0
 76
     0
330
1B
  0
LAYOUT
  5
26
102
{ACAD_REACTORS
330
1A
102
}
330
1A
100
AcDbPlotSettings
  1

  2
none_device
  4

  6

 40
0.0
 41
0.0
 42
0.0
 43
0.0
 44
0.0
 45
0.0
 46
0.0
 47
0.0
 48
0.0
 49
0.0
140
0.0
141
0.0
142
1.0
143
1.0
 70
   688
 72
     0
 73
     0
 74
     5
  7

 75
    16
 76
     0
 77
     2
 78
   300
147
1.0
148
0.0
149
0.0
100
AcDbLayout
  1
Layout2
 70
     1
 71
     2
 10
0.0
 20
0.0
 11
0.0
 21
0.0
 12
0.0
 22
0.0
 32
0.0
 14
0.0
 24
0.0
 34
0.0
 15
0.0
 25
0.0
 35
0.0
146
0.0
 13
0.0
 23
0.0
 33
0.0
 16
1.0
 26
0.0
 36
0.0
 17
0.0
 27
1.0
 37
0.0
 76
     0
330
23
  0
LAYOUT
  5
22
102
{ACAD_REACTORS
330
1A
102
}
330
1A
100
AcDbPlotSettings
  1

  2
none_device
  4

  6

 40
0.0
 41
0.0
 42
0.0
 43
0.0
 44
0.0
 45
0.0
 46
0.0
 47
0.0
 48
0.0
 49
0.0
140
0.0
141
0.0
142
1.0
143
1.0
 70
  1712
 72
     0
 73
     0
 74
     0
  7

 75
     0
 76
     0
 77
     2
 78
   300
147
1.0
148
0.0
149
0.0
100
AcDbLayout
  1
Model
 70
     1
 71
     0
 10
0.0
 20
0.0
 11
12.0
 21
9.0
 12
0.0
 22
0.0
 32
0.0
 14
1.000000000000000E+20
 24
1.000000000000000E+20
 34
1.000000000000000E+20
 15
-1.000000000000000E+20
 25
-1.000000000000000E+20
 35
-1.000000000000000E+20
146
0.0
 13
0.0
 23
0.0
 33
0.0
 16
1.0
 26
0.0
 36
0.0
 17
0.0
 27
1.0
 37
0.0
 76
     0
330
1F
331
29
  0
MLINESTYLE
  5
18
102
{ACAD_REACTORS
330
17
102
}
330
17
100
AcDbMlineStyle
  2
Standard
 70
     0
  3

 62
   256
 51
90.0
 52
90.0
 71
     2
 49
0.5
 62
   256
  6
BYLAYER
 49
-0.5
 62
   256
  6
BYLAYER
  0
ACDBPLACEHOLDER
  5
F
102
{ACAD_REACTORS
330
E
102
}
330
E
  0
VISUALSTYLE
  5
2F
102
{ACAD_REACTORS
330
2A
102
}
330
2A
100
AcDbVisualStyle
  2
2dWireframe
 70
     4
 71
     0
 72
     2
 73
     0
 90
        0
 40
-0.6
 41
-30.0
 62
     5
 63
     7
421
 16777215
 74
     1
 91
        4
 64
     7
 65
   257
 75
     1
175
     1
 42
1.0
 92
        0
 66
   257
 43
1.0
 76
     1
 77
     6
 78
     2
 67
     7
 79
     5
170
     0
171
     0
290
     0
174
     0
 93
        1
 44
0.0
173
     0
291
     0
 45
0.0
1001
ACAD
1000
AcDbSavedByObjectVersion
1070
     0
  0
VISUALSTYLE
  5
31
102
{ACAD_REACTORS
330
2A
102
}
330
2A
100
AcDbVisualStyle
  2
3D Hidden
 70
     6
 71
     1
 72
     2
 73
     2
 90
        0
 40
-0.6
 41
-30.0
 62
     5
 63
     7
421
 16777215
 74
     2
 91
        2
 64
     7
 65
   257
 75
     2
175
     1
 42
40.0
 92
        0
 66
   257
 43
1.0
 76
     1
 77
     6
 78
     2
 67
     7
 79
     3
170
     0
171
     0
290
     0
174
     0
 93
        1
 44
0.0
173
     0
291
     0
 45
0.0
1001
ACAD
1000
AcDbSavedByObjectVersion
1070
     0
  0
VISUALSTYLE
  5
30
102
{ACAD_REACTORS
330
2A
102
}
330
2A
100
AcDbVisualStyle
  2
3dWireframe
 70
     5
 71
     0
 72
     2
 73
     0
 90
        0
 40
-0.6
 41
-30.0
 62
     5
 63
     7
421
 16777215
 74
     1
 91
        4
 64
     7
 65
   257
 75
     1
175
     1
 42
1.0
 92
        0
 66
   257
 43
1.0
 76
     1
 77
     6
 78
     2
 67
     7
 79
     5
170
     0
171
     0
290
     0
174
     0
 93
        1
 44
0.0
173
     0
291
     0
 45
0.0
1001
ACAD
1000
AcDbSavedByObjectVersion
1070
     0
  0
VISUALSTYLE
  5
32
102
{ACAD_REACTORS
330
2A
102
}
330
2A
100
AcDbVisualStyle
  2
Basic
 70
     7
 71
     1
 72
     0
 73
     1
 90
        0
 40
-0.6
 41
-30.0
 62
     5
 63
     7
421
 16777215
 74
     0
 91
        4
 64
     7
 65
   257
 75
     1
175
     1
 42
1.0
 92
        8
 66
     7
 43
1.0
 76
     1
 77
     6
 78
     2
 67
     7
 79
     5
170
     0
171
     0
290
     0
174
     0
 93
        1
 44
0.0
173
     0
291
     1
 45
0.0
1001
ACAD
1000
AcDbSavedByObjectVersion
1070
     0
  0
VISUALSTYLE
  5
36
102
{ACAD_REACTORS
330
2A
102
}
330
2A
100
AcDbVisualStyle
  2
Brighten
 70
    12
 71
     2
 72
     2
 73
     0
 90
        0
 40
-0.6
 41
-30.0
 62
     5
 63
     7
421
 16777215
 74
     1
 91
        4
 64
     7
 65
   257
 75
     1
175
     1
 42
1.0
 92
        8
 66
     7
 43
1.0
 76
     1
 77
     6
 78
     2
 67
     7
 79
     5
170
     0
171
     0
290
     0
174
     0
 93
        1
 44
50.0
173
     0
291
     1
 45
0.0
1001
ACAD
1000
AcDbSavedByObjectVersion
1070
     0
  0
VISUALSTYLE
  5
3A
102
{ACAD_REACTORS
330
2A
102
}
330
2A
100
AcDbVisualStyle
  2
ColorChange
 70
    16
 71
     2
 72
     2
 73
     3
 90
        0
 40
-0.6
 41
-30.0
 62
     5
 63
     8
421
  8421504
 74
     1
 91
        4
 64
     7
 65
   257
 75
     1
175
     1
 42
1.0
 92
        8
 66
     8
424
  8421504
 43
1.0
 76
     1
 77
     6
 78
     2
 67
     7
 79
     5
170
     0
171
     0
290
     0
174
     0
 93
        1
 44
0.0
173
     0
291
     1
 45
0.0
1001
ACAD
1000
AcDbSavedByObjectVersion
1070
     0
  0
VISUALSTYLE
  5
34
102
{ACAD_REACTORS
330
2A
102
}
330
2A
100
AcDbVisualStyle
  2
Conceptual
 70
     9
 71
     3
 72
     2
 73
     0
 90
        0
 40
-0.6
 41
-30.0
 62
     5
 63
     7
421
 16777215
 74
     2
 91
        2
 64
     7
 65
   257
 75
     1
175
     1
 42
40.0
 92
        8
 66
     7
 43
1.0
 76
     1
 77
     6
 78
     2
 67
     7
 79
     3
170
     0
171
     0
290
     0
174
     0
 93
        1
 44
0.0
173
     0
291
     0
 45
0.0
1001
ACAD
1000
AcDbSavedByObjectVersion
1070
     0
  0
VISUALSTYLE
  5
35
102
{ACAD_REACTORS
330
2A
102
}
330
2A
100
AcDbVisualStyle
  2
Dim
 70
    11
 71
     2
 72
     2
 73
     0
 90
        0
 40
-0.6
 41
-30.0
 62
     5
 63
     7
421
 16777215
 74
     1
 91
        4
 64
     7
 65
   257
 75
     1
175
     1
 42
1.0
 92
        8
 66
     7
 43
1.0
 76
     1
 77
     6
 78
     2
 67
     7
 79
     5
170
     0
171
     0
290
     0
174
     0
 93
        1
 44
-50.0
173
     0
291
     1
 45
0.0
1001
ACAD
1000
AcDbSavedByObjectVersion
1070
     0
  0
VISUALSTYLE
  5
39
102
{ACAD_REACTORS
330
2A
102
}
330
2A
100
AcDbVisualStyle
  2
Facepattern
 70
    15
 71
     2
 72
     2
 73
     0
 90
        0
 40
-0.6
 41
-30.0
 62
     5
 63
     7
421
 16777215
 74
     1
 91
        4
 64
     7
 65
   257
 75
     1
175
     1
 42
1.0
 92
        8
 66
     7
 43
1.0
 76
     1
 77
     6
 78
     2
 67
     7
 79
     5
170
     0
171
     0
290
     0
174
     0
 93
        1
 44
0.0
173
     0
291
     1
 45
0.0
1001
ACAD
1000
AcDbSavedByObjectVersion
1070
     0
  0
VISUALSTYLE
  5
2B
102
{ACAD_REACTORS
330
2A
102
}
330
2A
100
AcDbVisualStyle
  2
Flat
 70
     0
 71
     2
 72
     1
 73
     1
 90
        2
 40
-0.6
 41
30.0
 62
     5
 63
     7
421
 16777215
 74
     0
 91
        4
 64
     7
 65
   257
 75
     1
175
     1
 42
1.0
 92
        8
 66
     7
 43
1.0
 76
     1
 77
     6
 78
     2
 67
     7
 79
     5
170
     0
171
     0
290
     0
174
     0
 93
       13
 44
0.0
173
     0
291
     1
 45
0.0
1001
ACAD
1000
AcDbSavedByObjectVersion
1070
     0
  0
VISUALSTYLE
  5
2C
102
{ACAD_REACTORS
330
2A
102
}
330
2A
100
AcDbVisualStyle
  2
FlatWithEdges
 70
     1
 71
     2
 72
     1
 73
     1
 90
        2
 40
-0.6
 41
30.0
 62
     5
 63
     7
421
 16777215
 74
     1
 91
        4
 64
     7
 65
   257
 75
     1
175
     1
 42
1.0
 92
        0
 66
   257
 43
1.0
 76
     1
 77
     6
 78
     2
 67
     7
 79
     5
170
     0
171
     0
290
     0
174
     0
 93
       13
 44
0.0
173
     0
291
     1
 45
0.0
1001
ACAD
1000
AcDbSavedByObjectVersion
1070
     0
  0
VISUALSTYLE
  5
2D
102
{ACAD_REACTORS
330
2A
102
}
330
2A
100
AcDbVisualStyle
  2
Gouraud
 70
     2
 71
     2
 72
     2
 73
     1
 90
        2
 40
-0.6
 41
30.0
 62
     5
 63
     7
421
 16777215
 74
     0
 91
        4
 64
     7
 65
   257
 75
     1
175
     1
 42
1.0
 92
        0
 66
     7
 43
1.0
 76
     1
 77
     6
 78
     2
 67
     7
 79
     5
170
     0
171
     0
290
     0
174
     0
 93
       13
 44
0.0
173
     0
291
     1
 45
0.0
1001
ACAD
1000
AcDbSavedByObjectVersion
1070
     0
  0
VISUALSTYLE
  5
2E
102
{ACAD_REACTORS
330
2A
102
}
330
2A
100
AcDbVisualStyle
  2
GouraudWithEdges
 70
     3
 71
     2
 72
     2
 73
     1
 90
        2
 40
-0.6
 41
30.0
 62
     5
 63
     7
421
 16777215
 74
     1
 91
        4
 64
     7
 65
   257
 75
     1
175
     1
 42
1.0
 92
        0
 66
   257
 43
1.0
 76
     1
 77
     6
 78
     2
 67
     7
 79
     5
170
     0
171
     0
290
     0
174
     0
 93
       13
 44
0.0
173
     0
291
     1
 45
0.0
1001
ACAD
1000
AcDbSavedByObjectVersion
1070
     0
  0
VISUALSTYLE
  5
38
102
{ACAD_REACTORS
330
2A
102
}
330
2A
100
AcDbVisualStyle
  2
Linepattern
 70
    14
 71
     2
 72
     2
 73
     0
 90
        0
 40
-0.6
 41
-30.0
 62
     5
 63
     7
421
 16777215
 74
     1
 91
        4
 64
     7
 65
   257
 75
     7
175
     7
 42
1.0
 92
        8
 66
     7
 43
1.0
 76
     1
 77
     6
 78
     2
 67
     7
 79
     5
170
     0
171
     0
290
     0
174
     0
 93
        1
 44
0.0
173
     0
291
     1
 45
0.0
1001
ACAD
1000
AcDbSavedByObjectVersion
1070
     0
  0
VISUALSTYLE
  5
33
102
{ACAD_REACTORS
330
2A
102
}
330
2A
100
AcDbVisualStyle
  2
Realistic
 70
     8
 71
     2
 72
     2
 73
     0
 90
        0
 40
-0.6
 41
-30.0
 62
     5
 63
     7
421
 16777215
 74
     1
 91
        0
 64
     7
 65
   257
 75
     1
175
     1
 42
1.0
 92
        8
 66
     8
424
  7895160
 43
1.0
 76
     1
 77
     6
 78
     2
 67
     7
 79
     5
170
     0
171
     0
290
     0
174
     0
 93
       13
 44
0.0
173
     0
291
     0
 45
0.0
1001
ACAD
1000
AcDbSavedByObjectVersion
1070
     0
  0
VISUALSTYLE
  5
37
102
{ACAD_REACTORS
330
2A
102
}
330
2A
100
AcDbVisualStyle
  2
Thicken
 70
    13
 71
     2
 72
     2
 73
     0
 90
        0
 40
-0.6
 41
-30.0
 62
     5
 63
     7
421
 16777215
 74
     1
 91
        4
 64
     7
 65
   257
 75
     1
175
     1
 42
1.0
 92
       12
 66
     7
 43
1.0
 76
     1
 77
     6
 78
     2
 67
     7
 79
     5
170
     0
171
     0
290
     0
174
     0
 93
        1
 44
0.0
173
     0
291
     1
 45
0.0
1001
ACAD
1000
AcDbSavedByObjectVersion
1070
     0
  0
ENDSEC
  0
EOF
