999
Erzeugt mit innoplus bad 
0
SECTION
2
HEADER
9
$ACADVER
1
AC1009
9
$DWGCODEPAGE
3
ISO8859-1
0
ENDSEC
0
SECTION
2
TABLES
0
TABLE
2
LAYER
70
1
0
LAYER
2
0
70
0
62
7
6
CONTINUOUS
0
ENDTAB
0
ENDSEC
0
SECTION
2
ENTITIES
0
LINE
8
0
6
CONTINUOUS
10
-42.564574
20
175.156842
30
0.0
11
-42.564574
21
174.366852
31
0.0
0
LINE
8
0
6
CONTINUOUS
10
-43.065755
20
172.113734
30
0.0
11
-43.065755
21
171.344997
31
0.0
0
LINE
8
0
6
CONTINUOUS
10
-43.065755
20
171.344997
30
0.0
11
-42.113562
21
171.344997
31
0.0
0
LINE
8
0
6
CONTINUOUS
10
-40.259152
20
175.925589
30
0.0
11
-40.259152
21
175.156842
31
0.0
0
LINE
8
0
6
CONTINUOUS
10
-37.898219
20
175.925589
30
0.0
11
-40.259152
21
175.925589
31
0.0
0
LINE
8
0
6
CONTINUOUS
10
-42.564574
20
175.925589
30
0.0
11
-42.564574
21
175.156842
31
0.0
0
LINE
8
0
6
CONTINUOUS
10
-42.113562
20
175.925589
30
0.0
11
-42.564574
21
175.925589
31
0.0
0
LINE
8
0
6
CONTINUOUS
10
-42.564574
20
175.156842
30
0.0
11
-42.113562
21
175.156842
31
0.0
0
LINE
8
0
6
CONTINUOUS
10
-43.065755
20
172.903714
30
0.0
11
-43.065755
21
172.113734
31
0.0
0
LINE
8
0
6
CONTINUOUS
10
-43.065755
20
172.113734
30
0.0
11
-42.113562
21
172.113734
31
0.0
0
LINE
8
0
6
CONTINUOUS
10
-41.762685
20
172.967447
30
0.0
11
-41.762685
21
172.198711
31
0.0
0
LINE
8
0
6
CONTINUOUS
10
-40.259152
20
175.156842
30
0.0
11
-40.259152
21
174.366852
31
0.0
0
LINE
8
0
6
CONTINUOUS
10
-37.898219
20
175.156842
30
0.0
11
-40.259152
21
175.156842
31
0.0
0
LINE
8
0
6
CONTINUOUS
10
-40.259152
20
174.366852
30
0.0
11
-37.898219
21
174.366852
31
0.0
0
LINE
8
0
6
CONTINUOUS
10
-41.762685
20
172.198711
30
0.0
11
-41.762685
21
171.408710
31
0.0
0
LINE
8
0
6
CONTINUOUS
10
-42.113562
20
172.924978
30
0.0
11
-43.065745
21
172.924978
31
0.0
0
LINE
8
0
6
CONTINUOUS
10
-43.065755
20
172.903714
30
0.0
11
-42.113562
21
172.903714
31
0.0
0
LINE
8
0
6
CONTINUOUS
10
-42.113562
20
174.366852
30
0.0
11
-42.564574
21
174.366852
31
0.0
0
LINE
8
0
6
CONTINUOUS
10
-42.564574
20
174.345597
30
0.0
11
-42.113562
21
174.345597
31
0.0
0
LINE
8
0
6
CONTINUOUS
10
-42.564574
20
169.156272
30
0.0
11
-42.564574
21
168.366272
31
0.0
0
LINE
8
0
6
CONTINUOUS
10
-43.065755
20
166.113164
30
0.0
11
-43.065755
21
165.344417
31
0.0
0
LINE
8
0
6
CONTINUOUS
10
-43.065755
20
165.344417
30
0.0
11
-42.113562
21
165.344417
31
0.0
0
LINE
8
0
6
CONTINUOUS
10
-40.259152
20
169.925009
30
0.0
11
-40.259152
21
169.156272
31
0.0
0
LINE
8
0
6
CONTINUOUS
10
-37.898219
20
169.925009
30
0.0
11
-40.259152
21
169.925009
31
0.0
0
LINE
8
0
6
CONTINUOUS
10
-42.564574
20
169.925009
30
0.0
11
-42.564574
21
169.156272
31
0.0
0
LINE
8
0
6
CONTINUOUS
10
-42.113562
20
169.925009
30
0.0
11
-42.564574
21
169.925009
31
0.0
0
LINE
8
0
6
CONTINUOUS
10
-42.564574
20
169.156272
30
0.0
11
-42.113562
21
169.156272
31
0.0
0
LINE
8
0
6
CONTINUOUS
10
-43.065755
20
166.903134
30
0.0
11
-43.065755
21
166.113164
31
0.0
0
LINE
8
0
6
CONTINUOUS
10
-43.065755
20
166.113164
30
0.0
11
-42.113562
21
166.113164
31
0.0
0
LINE
8
0
6
CONTINUOUS
10
-41.762685
20
166.966877
30
0.0
11
-41.762685
21
166.198131
31
0.0
0
LINE
8
0
6
CONTINUOUS
10
-40.259152
20
169.156272
30
0.0
11
-40.259152
21
168.366272
31
0.0
0
LINE
8
0
6
CONTINUOUS
10
-37.898219
20
169.156272
30
0.0
11
-40.259152
21
169.156272
31
0.0
0
LINE
8
0
6
CONTINUOUS
10
-40.259152
20
168.366272
30
0.0
11
-37.898219
21
168.366272
31
0.0
0
LINE
8
0
6
CONTINUOUS
10
-41.762685
20
166.198131
30
0.0
11
-41.762685
21
165.408140
31
0.0
0
LINE
8
0
6
CONTINUOUS
10
-42.113562
20
166.924408
30
0.0
11
-43.065745
21
166.924408
31
0.0
0
LINE
8
0
6
CONTINUOUS
10
-43.065755
20
166.903134
30
0.0
11
-42.113562
21
166.903134
31
0.0
0
LINE
8
0
6
CONTINUOUS
10
-42.113562
20
168.366272
30
0.0
11
-42.564574
21
168.366272
31
0.0
0
LINE
8
0
6
CONTINUOUS
10
-42.564574
20
168.345017
30
0.0
11
-42.113562
21
168.345017
31
0.0
0
LINE
8
0
6
CONTINUOUS
10
-42.564574
20
163.155692
30
0.0
11
-42.564574
21
162.365702
31
0.0
0
LINE
8
0
6
CONTINUOUS
10
-43.065755
20
160.112584
30
0.0
11
-43.065755
21
159.343857
31
0.0
0
LINE
8
0
6
CONTINUOUS
10
-43.065755
20
159.343857
30
0.0
11
-42.113562
21
159.343857
31
0.0
0
LINE
8
0
6
CONTINUOUS
10
-40.259152
20
163.924439
30
0.0
11
-40.259152
21
163.155692
31
0.0
0
LINE
8
0
6
CONTINUOUS
10
-37.898219
20
163.924439
30
0.0
11
-40.259152
21
163.924439
31
0.0
0
LINE
8
0
6
CONTINUOUS
10
-42.564574
20
163.924439
30
0.0
11
-42.564574
21
163.155692
31
0.0
0
LINE
8
0
6
CONTINUOUS
10
-42.113562
20
163.924439
30
0.0
11
-42.564574
21
163.924439
31
0.0
0
LINE
8
0
6
CONTINUOUS
10
-42.564574
20
163.155692
30
0.0
11
-42.113562
21
163.155692
31
0.0
0
LINE
8
0
6
CONTINUOUS
10
-43.065755
20
160.902564
30
0.0
11
-43.065755
21
160.112584
31
0.0
0
LINE
8
0
6
CONTINUOUS
10
-43.065755
20
160.112584
30
0.0
11
-42.113562
21
160.112584
31
0.0
0
LINE
8
0
6
CONTINUOUS
10
-41.762685
20
160.966297
30
0.0
11
-41.762685
21
160.197561
31
0.0
0
LINE
8
0
6
CONTINUOUS
10
-40.259152
20
163.155692
30
0.0
11
-40.259152
21
162.365702
31
0.0
0
LINE
8
0
6
CONTINUOUS
10
-37.898219
20
163.155692
30
0.0
11
-40.259152
21
163.155692
31
0.0
0
LINE
8
0
6
CONTINUOUS
10
-40.259152
20
162.365702
30
0.0
11
-37.898219
21
162.365702
31
0.0
0
LINE
8
0
6
CONTINUOUS
10
-41.762685
20
160.197561
30
0.0
11
-41.762685
21
159.407570
31
0.0
0
LINE
8
0
6
CONTINUOUS
10
-42.113562
20
160.923828
30
0.0
11
-43.065745
21
160.923828
31
0.0
0
LINE
8
0
6
CONTINUOUS
10
-43.065755
20
160.902564
30
0.0
11
-42.113562
21
160.902564
31
0.0
0
LINE
8
0
6
CONTINUOUS
10
-42.113562
20
162.365702
30
0.0
11
-42.564574
21
162.365702
31
0.0
0
LINE
8
0
6
CONTINUOUS
10
-42.564574
20
162.344447
30
0.0
11
-42.113562
21
162.344447
31
0.0
0
LINE
8
0
6
CONTINUOUS
10
-42.564574
20
157.155122
30
0.0
11
-42.564574
21
156.365132
31
0.0
0
LINE
8
0
6
CONTINUOUS
10
-43.065755
20
154.112023
30
0.0
11
-43.065755
21
153.343277
31
0.0
0
LINE
8
0
6
CONTINUOUS
10
-43.065755
20
153.343277
30
0.0
11
-42.113562
21
153.343277
31
0.0
0
LINE
8
0
6
CONTINUOUS
10
-40.259152
20
157.923869
30
0.0
11
-40.259152
21
157.155122
31
0.0
0
LINE
8
0
6
CONTINUOUS
10
-37.898219
20
157.923869
30
0.0
11
-40.259152
21
157.923869
31
0.0
0
LINE
8
0
6
CONTINUOUS
10
-42.564574
20
157.923869
30
0.0
11
-42.564574
21
157.155122
31
0.0
0
LINE
8
0
6
CONTINUOUS
10
-42.113562
20
157.923869
30
0.0
11
-42.564574
21
157.923869
31
0.0
0
LINE
8
0
6
CONTINUOUS
10
-42.564574
20
157.155122
30
0.0
11
-42.113562
21
157.155122
31
0.0
0
LINE
8
0
6
CONTINUOUS
10
-43.065755
20
154.901994
30
0.0
11
-43.065755
21
154.112023
31
0.0
0
LINE
8
0
6
CONTINUOUS
10
-43.065755
20
154.112023
30
0.0
11
-42.113562
21
154.112023
31
0.0
0
LINE
8
0
6
CONTINUOUS
10
-41.762685
20
154.965737
30
0.0
11
-41.762685
21
154.196991
31
0.0
0
LINE
8
0
6
CONTINUOUS
10
-40.259152
20
157.155122
30
0.0
11
-40.259152
21
156.365132
31
0.0
0
LINE
8
0
6
CONTINUOUS
10
-37.898219
20
157.155122
30
0.0
11
-40.259152
21
157.155122
31
0.0
0
LINE
8
0
6
CONTINUOUS
10
-40.259152
20
156.365132
30
0.0
11
-37.898219
21
156.365132
31
0.0
0
LINE
8
0
6
CONTINUOUS
10
-41.762685
20
154.196991
30
0.0
11
-41.762685
21
153.407000
31
0.0
0
LINE
8
0
6
CONTINUOUS
10
-42.113562
20
154.923268
30
0.0
11
-43.065745
21
154.923268
31
0.0
0
LINE
8
0
6
CONTINUOUS
10
-43.065755
20
154.901994
30
0.0
11
-42.113562
21
154.901994
31
0.0
0
LINE
8
0
6
CONTINUOUS
10
-42.113562
20
156.365132
30
0.0
11
-42.564574
21
156.365132
31
0.0
0
LINE
8
0
6
CONTINUOUS
10
-42.564574
20
156.343877
30
0.0
11
-42.113562
21
156.343877
31
0.0
0
LINE
8
0
6
CONTINUOUS
10
-42.564574
20
151.154552
30
0.0
11
-42.564574
21
150.364562
31
0.0
0
LINE
8
0
6
CONTINUOUS
10
-43.065755
20
148.111443
30
0.0
11
-43.065755
21
147.342707
31
0.0
0
LINE
8
0
6
CONTINUOUS
10
-43.065755
20
147.342707
30
0.0
11
-42.113562
21
147.342707
31
0.0
0
LINE
8
0
6
CONTINUOUS
10
-40.259152
20
151.923288
30
0.0
11
-40.259152
21
151.154552
31
0.0
0
LINE
8
0
6
CONTINUOUS
10
-37.898219
20
151.923288
30
0.0
11
-40.259152
21
151.923288
31
0.0
0
LINE
8
0
6
CONTINUOUS
10
-42.564574
20
151.923288
30
0.0
11
-42.564574
21
151.154552
31
0.0
0
LINE
8
0
6
CONTINUOUS
10
-42.113562
20
151.923288
30
0.0
11
-42.564574
21
151.923288
31
0.0
0
LINE
8
0
6
CONTINUOUS
10
-42.564574
20
151.154552
30
0.0
11
-42.113562
21
151.154552
31
0.0
0
LINE
8
0
6
CONTINUOUS
10
-43.065755
20
148.901424
30
0.0
11
-43.065755
21
148.111443
31
0.0
0
LINE
8
0
6
CONTINUOUS
10
-43.065755
20
148.111443
30
0.0
11
-42.113562
21
148.111443
31
0.0
0
LINE
8
0
6
CONTINUOUS
10
-41.762685
20
148.965157
30
0.0
11
-41.762685
21
148.196411
31
0.0
0
LINE
8
0
6
CONTINUOUS
10
-40.259152
20
151.154552
30
0.0
11
-40.259152
21
150.364562
31
0.0
0
LINE
8
0
6
CONTINUOUS
10
-37.898219
20
151.154552
30
0.0
11
-40.259152
21
151.154552
31
0.0
0
LINE
8
0
6
CONTINUOUS
10
-40.259152
20
150.364562
30
0.0
11
-37.898219
21
150.364562
31
0.0
0
LINE
8
0
6
CONTINUOUS
10
-41.762685
20
148.196411
30
0.0
11
-41.762685
21
147.406420
31
0.0
0
LINE
8
0
6
CONTINUOUS
10
-42.113562
20
148.922688
30
0.0
11
-43.065745
21
148.922688
31
0.0
0
LINE
8
0
6
CONTINUOUS
10
-43.065755
20
148.901424
30
0.0
11
-42.113562
21
148.901424
31
0.0
0
LINE
8
0
6
CONTINUOUS
10
-42.113562
20
150.364562
30
0.0
11
-42.564574
21
150.364562
31
0.0
0
LINE
8
0
6
CONTINUOUS
10
-42.564574
20
150.343307
30
0.0
11
-42.113562
21
150.343307
31
0.0
0
LINE
8
0
6
CONTINUOUS
10
-42.564574
20
145.153982
30
0.0
11
-42.564574
21
144.363992
31
0.0
0
LINE
8
0
6
CONTINUOUS
10
-43.065755
20
142.110883
30
0.0
11
-43.065755
21
141.342137
31
0.0
0
LINE
8
0
6
CONTINUOUS
10
-43.065755
20
141.342137
30
0.0
11
-42.113562
21
141.342137
31
0.0
0
LINE
8
0
6
CONTINUOUS
10
-40.259152
20
145.922728
30
0.0
11
-40.259152
21
145.153982
31
0.0
0
LINE
8
0
6
CONTINUOUS
10
-37.898219
20
145.922728
30
0.0
11
-40.259152
21
145.922728
31
0.0
0
LINE
8
0
6
CONTINUOUS
10
-42.564574
20
145.922728
30
0.0
11
-42.564574
21
145.153982
31
0.0
0
LINE
8
0
6
CONTINUOUS
10
-42.113562
20
145.922728
30
0.0
11
-42.564574
21
145.922728
31
0.0
0
LINE
8
0
6
CONTINUOUS
10
-42.564574
20
145.153982
30
0.0
11
-42.113562
21
145.153982
31
0.0
0
LINE
8
0
6
CONTINUOUS
10
-43.065755
20
142.900854
30
0.0
11
-43.065755
21
142.110883
31
0.0
0
LINE
8
0
6
CONTINUOUS
10
-43.065755
20
142.110883
30
0.0
11
-42.113562
21
142.110883
31
0.0
0
LINE
8
0
6
CONTINUOUS
10
-41.762685
20
142.964587
30
0.0
11
-41.762685
21
142.195851
31
0.0
0
LINE
8
0
6
CONTINUOUS
10
-40.259152
20
145.153982
30
0.0
11
-40.259152
21
144.363992
31
0.0
0
LINE
8
0
6
CONTINUOUS
10
-37.898219
20
145.153982
30
0.0
11
-40.259152
21
145.153982
31
0.0
0
LINE
8
0
6
CONTINUOUS
10
-40.259152
20
144.363992
30
0.0
11
-37.898219
21
144.363992
31
0.0
0
LINE
8
0
6
CONTINUOUS
10
-41.762685
20
142.195851
30
0.0
11
-41.762685
21
141.405860
31
0.0
0
LINE
8
0
6
CONTINUOUS
10
-42.113562
20
142.922128
30
0.0
11
-43.065745
21
142.922128
31
0.0
0
LINE
8
0
6
CONTINUOUS
10
-43.065755
20
142.900854
30
0.0
11
-42.113562
21
142.900854
31
0.0
0
LINE
8
0
6
CONTINUOUS
10
-42.113562
20
144.363992
30
0.0
11
-42.564574
21
144.363992
31
0.0
0
LINE
8
0
6
CONTINUOUS
10
-42.564574
20
144.342737
30
0.0
11
-42.113562
21
144.342737
31
0.0
0
LINE
8
0
6
CONTINUOUS
10
-42.564574
20
139.153412
30
0.0
11
-42.564574
21
138.363422
31
0.0
0
LINE
8
0
6
CONTINUOUS
10
-43.065755
20
136.110303
30
0.0
11
-43.065755
21
135.341557
31
0.0
0
LINE
8
0
6
CONTINUOUS
10
-43.065755
20
135.341557
30
0.0
11
-42.113562
21
135.341557
31
0.0
0
LINE
8
0
6
CONTINUOUS
10
-40.259152
20
139.922148
30
0.0
11
-40.259152
21
139.153412
31
0.0
0
LINE
8
0
6
CONTINUOUS
10
-37.898219
20
139.922148
30
0.0
11
-40.259152
21
139.922148
31
0.0
0
LINE
8
0
6
CONTINUOUS
10
-42.564574
20
139.922148
30
0.0
11
-42.564574
21
139.153412
31
0.0
0
LINE
8
0
6
CONTINUOUS
10
-42.113562
20
139.922148
30
0.0
11
-42.564574
21
139.922148
31
0.0
0
LINE
8
0
6
CONTINUOUS
10
-42.564574
20
139.153412
30
0.0
11
-42.113562
21
139.153412
31
0.0
0
LINE
8
0
6
CONTINUOUS
10
-43.065755
20
136.900274
30
0.0
11
-43.065755
21
136.110303
31
0.0
0
LINE
8
0
6
CONTINUOUS
10
-43.065755
20
136.110303
30
0.0
11
-42.113562
21
136.110303
31
0.0
0
LINE
8
0
6
CONTINUOUS
10
-41.762685
20
136.964017
30
0.0
11
-41.762685
21
136.195271
31
0.0
0
LINE
8
0
6
CONTINUOUS
10
-40.259152
20
139.153412
30
0.0
11
-40.259152
21
138.363422
31
0.0
0
LINE
8
0
6
CONTINUOUS
10
-37.898219
20
139.153412
30
0.0
11
-40.259152
21
139.153412
31
0.0
0
LINE
8
0
6
CONTINUOUS
10
-40.259152
20
138.363422
30
0.0
11
-37.898219
21
138.363422
31
0.0
0
LINE
8
0
6
CONTINUOUS
10
-41.762685
20
136.195271
30
0.0
11
-41.762685
21
135.405280
31
0.0
0
LINE
8
0
6
CONTINUOUS
10
-42.113562
20
136.921548
30
0.0
11
-43.065745
21
136.921548
31
0.0
0
LINE
8
0
6
CONTINUOUS
10
-43.065755
20
136.900274
30
0.0
11
-42.113562
21
136.900274
31
0.0
0
LINE
8
0
6
CONTINUOUS
10
-42.113562
20
138.363422
30
0.0
11
-42.564574
21
138.363422
31
0.0
0
LINE
8
0
6
CONTINUOUS
10
-42.564574
20
138.342167
30
0.0
11
-42.113562
21
138.342167
31
0.0
0
LINE
8
0
6
CONTINUOUS
10
-42.564574
20
133.152832
30
0.0
11
-42.564574
21
132.362842
31
0.0
0
LINE
8
0
6
CONTINUOUS
10
-43.065755
20
130.109723
30
0.0
11
-43.065755
21
129.340987
31
0.0
0
LINE
8
0
6
CONTINUOUS
10
-43.065755
20
129.340987
30
0.0
11
-42.113562
21
129.340987
31
0.0
0
LINE
8
0
6
CONTINUOUS
10
-40.259152
20
133.921578
30
0.0
11
-40.259152
21
133.152832
31
0.0
0
LINE
8
0
6
CONTINUOUS
10
-37.898219
20
133.921578
30
0.0
11
-40.259152
21
133.921578
31
0.0
0
LINE
8
0
6
CONTINUOUS
10
-42.564574
20
133.921578
30
0.0
11
-42.564574
21
133.152832
31
0.0
0
LINE
8
0
6
CONTINUOUS
10
-42.113562
20
133.921578
30
0.0
11
-42.564574
21
133.921578
31
0.0
0
LINE
8
0
6
CONTINUOUS
10
-42.564574
20
133.152832
30
0.0
11
-42.113562
21
133.152832
31
0.0
0
LINE
8
0
6
CONTINUOUS
10
-43.065755
20
130.899704
30
0.0
11
-43.065755
21
130.109723
31
0.0
0
LINE
8
0
6
CONTINUOUS
10
-43.065755
20
130.109723
30
0.0
11
-42.113562
21
130.109723
31
0.0
0
LINE
8
0
6
CONTINUOUS
10
-41.762685
20
130.963437
30
0.0
11
-41.762685
21
130.194701
31
0.0
0
LINE
8
0
6
CONTINUOUS
10
-40.259152
20
133.152832
30
0.0
11
-40.259152
21
132.362842
31
0.0
0
LINE
8
0
6
CONTINUOUS
10
-37.898219
20
133.152832
30
0.0
11
-40.259152
21
133.152832
31
0.0
0
LINE
8
0
6
CONTINUOUS
10
-40.259152
20
132.362842
30
0.0
11
-37.898219
21
132.362842
31
0.0
0
LINE
8
0
6
CONTINUOUS
10
-41.762685
20
130.194701
30
0.0
11
-41.762685
21
129.404710
31
0.0
0
LINE
8
0
6
CONTINUOUS
10
-42.113562
20
130.920978
30
0.0
11
-43.065745
21
130.920978
31
0.0
0
LINE
8
0
6
CONTINUOUS
10
-43.065755
20
130.899704
30
0.0
11
-42.113562
21
130.899704
31
0.0
0
LINE
8
0
6
CONTINUOUS
10
-42.113562
20
132.362842
30
0.0
11
-42.564574
21
132.362842
31
0.0
0
LINE
8
0
6
CONTINUOUS
10
-42.564574
20
132.341587
30
0.0
11
-42.113562
21
132.341587
31
0.0
0
LINE
8
0
6
CONTINUOUS
10
-42.564574
20
127.152262
30
0.0
11
-42.564574
21
126.362262
31
0.0
0
LINE
8
0
6
CONTINUOUS
10
-43.065755
20
124.109153
30
0.0
11
-43.065755
21
123.340407
31
0.0
0
LINE
8
0
6
CONTINUOUS
10
-43.065755
20
123.340407
30
0.0
11
-42.113562
21
123.340407
31
0.0
0
LINE
8
0
6
CONTINUOUS
10
-40.259152
20
127.920998
30
0.0
11
-40.259152
21
127.152262
31
0.0
0
LINE
8
0
6
CONTINUOUS
10
-37.898219
20
127.920998
30
0.0
11
-40.259152
21
127.920998
31
0.0
0
LINE
8
0
6
CONTINUOUS
10
-42.564574
20
127.920998
30
0.0
11
-42.564574
21
127.152262
31
0.0
0
LINE
8
0
6
CONTINUOUS
10
-42.113562
20
127.920998
30
0.0
11
-42.564574
21
127.920998
31
0.0
0
LINE
8
0
6
CONTINUOUS
10
-42.564574
20
127.152262
30
0.0
11
-42.113562
21
127.152262
31
0.0
0
LINE
8
0
6
CONTINUOUS
10
-43.065755
20
124.899124
30
0.0
11
-43.065755
21
124.109153
31
0.0
0
LINE
8
0
6
CONTINUOUS
10
-43.065755
20
124.109153
30
0.0
11
-42.113562
21
124.109153
31
0.0
0
LINE
8
0
6
CONTINUOUS
10
-41.762685
20
124.962867
30
0.0
11
-41.762685
21
124.194121
31
0.0
0
LINE
8
0
6
CONTINUOUS
10
-40.259152
20
127.152262
30
0.0
11
-40.259152
21
126.362262
31
0.0
0
LINE
8
0
6
CONTINUOUS
10
-37.898219
20
127.152262
30
0.0
11
-40.259152
21
127.152262
31
0.0
0
LINE
8
0
6
CONTINUOUS
10
-40.259152
20
126.362262
30
0.0
11
-37.898219
21
126.362262
31
0.0
0
LINE
8
0
6
CONTINUOUS
10
-41.762685
20
124.194121
30
0.0
11
-41.762685
21
123.404130
31
0.0
0
LINE
8
0
6
CONTINUOUS
10
-42.113562
20
124.920398
30
0.0
11
-43.065745
21
124.920398
31
0.0
0
LINE
8
0
6
CONTINUOUS
10
-43.065755
20
124.899124
30
0.0
11
-42.113562
21
124.899124
31
0.0
0
LINE
8
0
6
CONTINUOUS
10
-42.113562
20
126.362262
30
0.0
11
-42.564574
21
126.362262
31
0.0
0
LINE
8
0
6
CONTINUOUS
10
-42.564574
20
126.341017
30
0.0
11
-42.113562
21
126.341017
31
0.0
0
LINE
8
0
6
CONTINUOUS
10
-42.564574
20
121.151692
30
0.0
11
-42.564574
21
120.361702
31
0.0
0
LINE
8
0
6
CONTINUOUS
10
-43.065755
20
118.108583
30
0.0
11
-43.065755
21
117.339847
31
0.0
0
LINE
8
0
6
CONTINUOUS
10
-43.065755
20
117.339847
30
0.0
11
-42.113562
21
117.339847
31
0.0
0
LINE
8
0
6
CONTINUOUS
10
-40.259152
20
121.920438
30
0.0
11
-40.259152
21
121.151692
31
0.0
0
LINE
8
0
6
CONTINUOUS
10
-37.898219
20
121.920438
30
0.0
11
-40.259152
21
121.920438
31
0.0
0
LINE
8
0
6
CONTINUOUS
10
-42.564574
20
121.920438
30
0.0
11
-42.564574
21
121.151692
31
0.0
0
LINE
8
0
6
CONTINUOUS
10
-42.113562
20
121.920438
30
0.0
11
-42.564574
21
121.920438
31
0.0
0
LINE
8
0
6
CONTINUOUS
10
-42.564574
20
121.151692
30
0.0
11
-42.113562
21
121.151692
31
0.0
0
LINE
8
0
6
CONTINUOUS
10
-43.065755
20
118.898564
30
0.0
11
-43.065755
21
118.108583
31
0.0
0
LINE
8
0
6
CONTINUOUS
10
-43.065755
20
118.108583
30
0.0
11
-42.113562
21
118.108583
31
0.0
0
LINE
8
0
6
CONTINUOUS
10
-41.762685
20
118.962297
30
0.0
11
-41.762685
21
118.193561
31
0.0
0
LINE
8
0
6
CONTINUOUS
10
-40.259152
20
121.151692
30
0.0
11
-40.259152
21
120.361702
31
0.0
0
LINE
8
0
6
CONTINUOUS
10
-37.898219
20
121.151692
30
0.0
11
-40.259152
21
121.151692
31
0.0
0
LINE
8
0
6
CONTINUOUS
10
-40.259152
20
120.361702
30
0.0
11
-37.898219
21
120.361702
31
0.0
0
LINE
8
0
6
CONTINUOUS
10
-41.762685
20
118.193561
30
0.0
11
-41.762685
21
117.403560
31
0.0
0
LINE
8
0
6
CONTINUOUS
10
-42.113562
20
118.919828
30
0.0
11
-43.065745
21
118.919828
31
0.0
0
LINE
8
0
6
CONTINUOUS
10
-43.065755
20
118.898564
30
0.0
11
-42.113562
21
118.898564
31
0.0
0
LINE
8
0
6
CONTINUOUS
10
-42.113562
20
120.361702
30
0.0
11
-42.564574
21
120.361702
31
0.0
0
LINE
8
0
6
CONTINUOUS
10
-42.564574
20
120.340447
30
0.0
11
-42.113562
21
120.340447
31
0.0
0
LINE
8
0
6
CONTINUOUS
10
-42.564574
20
115.151132
30
0.0
11
-42.564574
21
114.361131
31
0.0
0
LINE
8
0
6
CONTINUOUS
10
-43.065755
20
112.108023
30
0.0
11
-43.065755
21
111.339277
31
0.0
0
LINE
8
0
6
CONTINUOUS
10
-43.065755
20
111.339277
30
0.0
11
-42.113562
21
111.339277
31
0.0
0
LINE
8
0
6
CONTINUOUS
10
-40.259152
20
115.919868
30
0.0
11
-40.259152
21
115.151132
31
0.0
0
LINE
8
0
6
CONTINUOUS
10
-37.898219
20
115.919868
30
0.0
11
-40.259152
21
115.919868
31
0.0
0
LINE
8
0
6
CONTINUOUS
10
-42.564574
20
115.919868
30
0.0
11
-42.564574
21
115.151132
31
0.0
0
LINE
8
0
6
CONTINUOUS
10
-42.113562
20
115.919868
30
0.0
11
-42.564574
21
115.919868
31
0.0
0
LINE
8
0
6
CONTINUOUS
10
-42.564574
20
115.151132
30
0.0
11
-42.113562
21
115.151132
31
0.0
0
LINE
8
0
6
CONTINUOUS
10
-43.065755
20
112.897994
30
0.0
11
-43.065755
21
112.108023
31
0.0
0
LINE
8
0
6
CONTINUOUS
10
-43.065755
20
112.108023
30
0.0
11
-42.113562
21
112.108023
31
0.0
0
LINE
8
0
6
CONTINUOUS
10
-41.762685
20
112.961737
30
0.0
11
-41.762685
21
112.192991
31
0.0
0
LINE
8
0
6
CONTINUOUS
10
-40.259152
20
115.151132
30
0.0
11
-40.259152
21
114.361131
31
0.0
0
LINE
8
0
6
CONTINUOUS
10
-37.898219
20
115.151132
30
0.0
11
-40.259152
21
115.151132
31
0.0
0
LINE
8
0
6
CONTINUOUS
10
-40.259152
20
114.361131
30
0.0
11
-37.898219
21
114.361131
31
0.0
0
LINE
8
0
6
CONTINUOUS
10
-41.762685
20
112.192991
30
0.0
11
-41.762685
21
111.403000
31
0.0
0
LINE
8
0
6
CONTINUOUS
10
-42.113562
20
112.919268
30
0.0
11
-43.065745
21
112.919268
31
0.0
0
LINE
8
0
6
CONTINUOUS
10
-43.065755
20
112.897994
30
0.0
11
-42.113562
21
112.897994
31
0.0
0
LINE
8
0
6
CONTINUOUS
10
-42.113562
20
114.361131
30
0.0
11
-42.564574
21
114.361131
31
0.0
0
LINE
8
0
6
CONTINUOUS
10
-42.564574
20
114.339887
30
0.0
11
-42.113562
21
114.339887
31
0.0
0
LINE
8
0
6
CONTINUOUS
10
-42.564574
20
109.150552
30
0.0
11
-42.564574
21
108.360561
31
0.0
0
LINE
8
0
6
CONTINUOUS
10
-40.259152
20
109.919298
30
0.0
11
-40.259152
21
109.150552
31
0.0
0
LINE
8
0
6
CONTINUOUS
10
-37.898219
20
109.919298
30
0.0
11
-40.259152
21
109.919298
31
0.0
0
LINE
8
0
6
CONTINUOUS
10
-42.564574
20
109.919298
30
0.0
11
-42.564574
21
109.150552
31
0.0
0
LINE
8
0
6
CONTINUOUS
10
-42.113562
20
109.919298
30
0.0
11
-42.564574
21
109.919298
31
0.0
0
LINE
8
0
6
CONTINUOUS
10
-42.564574
20
109.150552
30
0.0
11
-42.113562
21
109.150552
31
0.0
0
LINE
8
0
6
CONTINUOUS
10
-40.259152
20
109.150552
30
0.0
11
-40.259152
21
108.360561
31
0.0
0
LINE
8
0
6
CONTINUOUS
10
-37.898219
20
109.150552
30
0.0
11
-40.259152
21
109.150552
31
0.0
0
LINE
8
0
6
CONTINUOUS
10
-40.259152
20
108.360561
30
0.0
11
-37.898219
21
108.360561
31
0.0
0
LINE
8
0
6
CONTINUOUS
10
-42.113562
20
108.360561
30
0.0
11
-42.564574
21
108.360561
31
0.0
0
LINE
8
0
6
CONTINUOUS
10
-42.564574
20
108.339307
30
0.0
11
-42.113562
21
108.339307
31
0.0
0
LINE
8
0
6
CONTINUOUS
10
3.395992
20
443.764695
30
0.0
11
3.395992
21
442.840057
31
0.0
0
LINE
8
0
6
CONTINUOUS
10
28.455038
20
442.840057
30
0.0
11
28.455038
21
443.764695
31
0.0
0
LINE
8
0
6
CONTINUOUS
10
8.560842
20
444.014725
30
0.0
11
5.788920
21
444.014725
31
0.0
0
LINE
8
0
6
CONTINUOUS
10
3.395992
20
444.014725
30
0.0
11
3.395992
21
443.764695
31
0.0
0
LINE
8
0
6
CONTINUOUS
10
4.009237
20
444.014725
30
0.0
11
3.395992
21
444.014725
31
0.0
0
LINE
8
0
6
CONTINUOUS
10
27.841793
20
444.014725
30
0.0
11
26.062120
21
444.014725
31
0.0
0
LINE
8
0
6
CONTINUOUS
10
15.925515
20
444.014725
30
0.0
11
12.053682
21
444.014725
31
0.0
0
LINE
8
0
6
CONTINUOUS
10
5.788920
20
444.014725
30
0.0
11
4.009237
21
444.014725
31
0.0
0
LINE
8
0
6
CONTINUOUS
10
23.290188
20
444.014725
30
0.0
11
19.797358
21
444.014725
31
0.0
0
LINE
8
0
6
CONTINUOUS
10
19.797358
20
444.014725
30
0.0
11
15.925515
21
444.014725
31
0.0
0
LINE
8
0
6
CONTINUOUS
10
26.062120
20
444.014725
30
0.0
11
23.290188
21
444.014725
31
0.0
0
LINE
8
0
6
CONTINUOUS
10
28.455038
20
444.014725
30
0.0
11
27.841793
21
444.014725
31
0.0
0
LINE
8
0
6
CONTINUOUS
10
28.455038
20
443.764695
30
0.0
11
28.455038
21
444.014725
31
0.0
0
LINE
8
0
6
CONTINUOUS
10
12.053682
20
444.014725
30
0.0
11
8.560842
21
444.014725
31
0.0
0
LINE
8
0
6
CONTINUOUS
10
5.788920
20
442.589986
30
0.0
11
8.560842
21
442.589986
31
0.0
0
LINE
8
0
6
CONTINUOUS
10
3.395992
20
442.840057
30
0.0
11
3.395992
21
442.589986
31
0.0
0
LINE
8
0
6
CONTINUOUS
10
3.395992
20
442.589986
30
0.0
11
4.009237
21
442.589986
31
0.0
0
LINE
8
0
6
CONTINUOUS
10
26.062120
20
442.589986
30
0.0
11
27.841793
21
442.589986
31
0.0
0
LINE
8
0
6
CONTINUOUS
10
12.053682
20
442.589986
30
0.0
11
15.925515
21
442.589986
31
0.0
0
LINE
8
0
6
CONTINUOUS
10
4.009237
20
442.589986
30
0.0
11
5.788920
21
442.589986
31
0.0
0
LINE
8
0
6
CONTINUOUS
10
19.797358
20
442.589986
30
0.0
11
23.290188
21
442.589986
31
0.0
0
LINE
8
0
6
CONTINUOUS
10
15.925515
20
442.589986
30
0.0
11
19.797358
21
442.589986
31
0.0
0
LINE
8
0
6
CONTINUOUS
10
23.290188
20
442.589986
30
0.0
11
26.062120
21
442.589986
31
0.0
0
LINE
8
0
6
CONTINUOUS
10
28.455038
20
442.589986
30
0.0
11
28.455038
21
442.840057
31
0.0
0
LINE
8
0
6
CONTINUOUS
10
27.841793
20
442.589986
30
0.0
11
28.455038
21
442.589986
31
0.0
0
LINE
8
0
6
CONTINUOUS
10
8.560842
20
442.589986
30
0.0
11
12.053682
21
442.589986
31
0.0
0
LINE
8
0
6
CONTINUOUS
10
26.062120
20
442.533094
30
0.0
11
23.290188
21
442.533094
31
0.0
0
LINE
8
0
6
CONTINUOUS
10
28.455038
20
442.533094
30
0.0
11
27.841793
21
442.533094
31
0.0
0
LINE
8
0
6
CONTINUOUS
10
28.455038
20
442.306568
30
0.0
11
28.455038
21
442.533094
31
0.0
0
LINE
8
0
6
CONTINUOUS
10
15.925515
20
442.533094
30
0.0
11
12.053682
21
442.533094
31
0.0
0
LINE
8
0
6
CONTINUOUS
10
12.053682
20
442.533094
30
0.0
11
8.560842
21
442.533094
31
0.0
0
LINE
8
0
6
CONTINUOUS
10
5.788920
20
442.533094
30
0.0
11
4.009237
21
442.533094
31
0.0
0
LINE
8
0
6
CONTINUOUS
10
23.290188
20
442.533094
30
0.0
11
19.797358
21
442.533094
31
0.0
0
LINE
8
0
6
CONTINUOUS
10
27.841793
20
442.533094
30
0.0
11
26.062120
21
442.533094
31
0.0
0
LINE
8
0
6
CONTINUOUS
10
4.009237
20
442.533094
30
0.0
11
3.395992
21
442.533094
31
0.0
0
LINE
8
0
6
CONTINUOUS
10
3.395992
20
442.533094
30
0.0
11
3.395992
21
442.306568
31
0.0
0
LINE
8
0
6
CONTINUOUS
10
8.560842
20
442.533094
30
0.0
11
5.788920
21
442.533094
31
0.0
0
LINE
8
0
6
CONTINUOUS
10
19.797358
20
442.533094
30
0.0
11
15.925515
21
442.533094
31
0.0
0
LINE
8
0
6
CONTINUOUS
10
47.998809
20
470.568924
30
0.0
11
29.241271
21
470.568924
31
0.0
0
LINE
8
0
6
CONTINUOUS
10
3.395992
20
490.999828
30
0.0
11
3.395992
21
459.027958
31
0.0
0
LINE
8
0
6
CONTINUOUS
10
28.455038
20
471.530500
30
0.0
11
28.455038
21
490.999828
31
0.0
0
LINE
8
0
6
CONTINUOUS
10
3.395992
20
459.027958
30
0.0
11
3.395992
21
451.809200
31
0.0
0
LINE
8
0
6
CONTINUOUS
10
3.395992
20
451.809200
30
0.0
11
3.395992
21
444.590403
31
0.0
0
LINE
8
0
6
CONTINUOUS
10
8.560842
20
491.499920
30
0.0
11
5.788920
21
491.499920
31
0.0
0
LINE
8
0
6
CONTINUOUS
10
3.395992
20
491.499920
30
0.0
11
3.395992
21
490.999828
31
0.0
0
LINE
8
0
6
CONTINUOUS
10
4.009237
20
491.499920
30
0.0
11
3.395992
21
491.499920
31
0.0
0
LINE
8
0
6
CONTINUOUS
10
27.841813
20
491.499920
30
0.0
11
26.062120
21
491.499920
31
0.0
0
LINE
8
0
6
CONTINUOUS
10
15.925515
20
491.499920
30
0.0
11
12.053682
21
491.499920
31
0.0
0
LINE
8
0
6
CONTINUOUS
10
5.788920
20
491.499920
30
0.0
11
4.009237
21
491.499920
31
0.0
0
LINE
8
0
6
CONTINUOUS
10
23.290188
20
491.499920
30
0.0
11
19.797358
21
491.499920
31
0.0
0
LINE
8
0
6
CONTINUOUS
10
19.797358
20
491.499920
30
0.0
11
15.925515
21
491.499920
31
0.0
0
LINE
8
0
6
CONTINUOUS
10
26.062120
20
491.499920
30
0.0
11
23.290188
21
491.499920
31
0.0
0
LINE
8
0
6
CONTINUOUS
10
28.455038
20
490.999828
30
0.0
11
28.455038
21
491.499920
31
0.0
0
LINE
8
0
6
CONTINUOUS
10
28.455038
20
491.499920
30
0.0
11
27.841813
21
491.499920
31
0.0
0
LINE
8
0
6
CONTINUOUS
10
12.053682
20
491.499920
30
0.0
11
8.560842
21
491.499920
31
0.0
0
LINE
8
0
6
CONTINUOUS
10
48.500000
20
444.090311
30
0.0
11
48.500000
21
444.590403
31
0.0
0
LINE
8
0
6
CONTINUOUS
10
47.998809
20
444.090311
30
0.0
11
48.500000
21
444.090311
31
0.0
0
LINE
8
0
6
CONTINUOUS
10
48.500000
20
465.415217
30
0.0
11
48.500000
21
468.181169
31
0.0
0
LINE
8
0
6
CONTINUOUS
10
48.500000
20
458.066382
30
0.0
11
48.500000
21
461.929898
31
0.0
0
LINE
8
0
6
CONTINUOUS
10
48.500000
20
468.181169
30
0.0
11
48.500000
21
469.957000
31
0.0
0
LINE
8
0
6
CONTINUOUS
10
48.500000
20
461.929898
30
0.0
11
48.500000
21
465.415217
31
0.0
0
LINE
8
0
6
CONTINUOUS
10
48.500000
20
470.568924
30
0.0
11
47.998809
21
470.568924
31
0.0
0
LINE
8
0
6
CONTINUOUS
10
48.500000
20
469.957000
30
0.0
11
48.500000
21
470.568924
31
0.0
0
LINE
8
0
6
CONTINUOUS
10
12.053682
20
444.090311
30
0.0
11
15.925515
21
444.090311
31
0.0
0
LINE
8
0
6
CONTINUOUS
10
5.788920
20
444.090311
30
0.0
11
8.560842
21
444.090311
31
0.0
0
LINE
8
0
6
CONTINUOUS
10
8.560842
20
444.090311
30
0.0
11
12.053682
21
444.090311
31
0.0
0
LINE
8
0
6
CONTINUOUS
10
3.395992
20
444.090311
30
0.0
11
4.009237
21
444.090311
31
0.0
0
LINE
8
0
6
CONTINUOUS
10
3.395992
20
444.590403
30
0.0
11
3.395992
21
444.090311
31
0.0
0
LINE
8
0
6
CONTINUOUS
10
4.009237
20
444.090311
30
0.0
11
5.788920
21
444.090311
31
0.0
0
LINE
8
0
6
CONTINUOUS
10
16.711748
20
444.090311
30
0.0
11
47.998809
21
444.090311
31
0.0
0
LINE
8
0
6
CONTINUOUS
10
48.500000
20
444.590403
30
0.0
11
48.500000
21
458.066382
31
0.0
0
LINE
8
0
6
CONTINUOUS
10
15.925515
20
444.090311
30
0.0
11
16.711748
21
444.090311
31
0.0
0
LINE
8
0
6
CONTINUOUS
10
29.241271
20
470.568924
30
0.0
11
28.455038
21
470.568924
31
0.0
0
LINE
8
0
6
CONTINUOUS
10
19.797358
20
461.929898
30
0.0
11
23.290188
21
465.415217
31
0.0
0
LINE
8
0
6
CONTINUOUS
10
23.290188
20
465.415217
30
0.0
11
26.062120
21
468.181169
31
0.0
0
LINE
8
0
6
CONTINUOUS
10
26.062120
20
468.181169
30
0.0
11
27.841793
21
469.957000
31
0.0
0
LINE
8
0
6
CONTINUOUS
10
27.841793
20
469.957000
30
0.0
11
28.455038
21
470.568924
31
0.0
0
LINE
8
0
6
CONTINUOUS
10
28.455038
20
470.568924
30
0.0
11
28.455038
21
471.530500
31
0.0
0
LINE
8
0
6
CONTINUOUS
10
28.455038
20
24.025015
30
0.0
11
28.455038
21
442.306568
31
0.0
0
LINE
8
0
6
CONTINUOUS
10
3.395992
20
442.306568
30
0.0
11
3.395992
21
24.025015
31
0.0
0
LINE
8
0
6
CONTINUOUS
10
3.395992
20
-442.840057
30
0.0
11
3.395992
21
-443.764695
31
0.0
0
LINE
8
0
6
CONTINUOUS
10
28.455038
20
-443.764695
30
0.0
11
28.455038
21
-442.840057
31
0.0
0
LINE
8
0
6
CONTINUOUS
10
5.788920
20
-444.014725
30
0.0
11
8.560842
21
-444.014725
31
0.0
0
LINE
8
0
6
CONTINUOUS
10
3.395992
20
-444.014725
30
0.0
11
4.009237
21
-444.014725
31
0.0
0
LINE
8
0
6
CONTINUOUS
10
3.395992
20
-443.764695
30
0.0
11
3.395992
21
-444.014725
31
0.0
0
LINE
8
0
6
CONTINUOUS
10
26.062120
20
-444.014725
30
0.0
11
27.841793
21
-444.014725
31
0.0
0
LINE
8
0
6
CONTINUOUS
10
12.053682
20
-444.014725
30
0.0
11
15.925515
21
-444.014725
31
0.0
0
LINE
8
0
6
CONTINUOUS
10
4.009237
20
-444.014725
30
0.0
11
5.788920
21
-444.014725
31
0.0
0
LINE
8
0
6
CONTINUOUS
10
19.797358
20
-444.014725
30
0.0
11
23.290188
21
-444.014725
31
0.0
0
LINE
8
0
6
CONTINUOUS
10
15.925515
20
-444.014725
30
0.0
11
19.797358
21
-444.014725
31
0.0
0
LINE
8
0
6
CONTINUOUS
10
23.290188
20
-444.014725
30
0.0
11
26.062120
21
-444.014725
31
0.0
0
LINE
8
0
6
CONTINUOUS
10
28.455038
20
-444.014725
30
0.0
11
28.455038
21
-443.764695
31
0.0
0
LINE
8
0
6
CONTINUOUS
10
27.841793
20
-444.014725
30
0.0
11
28.455038
21
-444.014725
31
0.0
0
LINE
8
0
6
CONTINUOUS
10
8.560842
20
-444.014725
30
0.0
11
12.053682
21
-444.014725
31
0.0
0
LINE
8
0
6
CONTINUOUS
10
8.560842
20
-442.589986
30
0.0
11
5.788920
21
-442.589986
31
0.0
0
LINE
8
0
6
CONTINUOUS
10
4.009237
20
-442.589986
30
0.0
11
3.395992
21
-442.589986
31
0.0
0
LINE
8
0
6
CONTINUOUS
10
3.395992
20
-442.589986
30
0.0
11
3.395992
21
-442.840057
31
0.0
0
LINE
8
0
6
CONTINUOUS
10
27.841793
20
-442.589986
30
0.0
11
26.062120
21
-442.589986
31
0.0
0
LINE
8
0
6
CONTINUOUS
10
15.925515
20
-442.589986
30
0.0
11
12.053682
21
-442.589986
31
0.0
0
LINE
8
0
6
CONTINUOUS
10
5.788920
20
-442.589986
30
0.0
11
4.009237
21
-442.589986
31
0.0
0
LINE
8
0
6
CONTINUOUS
10
23.290188
20
-442.589986
30
0.0
11
19.797358
21
-442.589986
31
0.0
0
LINE
8
0
6
CONTINUOUS
10
19.797358
20
-442.589986
30
0.0
11
15.925515
21
-442.589986
31
0.0
0
LINE
8
0
6
CONTINUOUS
10
26.062120
20
-442.589986
30
0.0
11
23.290188
21
-442.589986
31
0.0
0
LINE
8
0
6
CONTINUOUS
10
28.455038
20
-442.589986
30
0.0
11
27.841793
21
-442.589986
31
0.0
0
LINE
8
0
6
CONTINUOUS
10
28.455038
20
-442.840057
30
0.0
11
28.455038
21
-442.589986
31
0.0
0
LINE
8
0
6
CONTINUOUS
10
12.053682
20
-442.589986
30
0.0
11
8.560842
21
-442.589986
31
0.0
0
LINE
8
0
6
CONTINUOUS
10
23.290188
20
-442.533094
30
0.0
11
26.062120
21
-442.533094
31
0.0
0
LINE
8
0
6
CONTINUOUS
10
28.455038
20
-442.533094
30
0.0
11
28.455038
21
-442.306568
31
0.0
0
LINE
8
0
6
CONTINUOUS
10
27.841793
20
-442.533094
30
0.0
11
28.455038
21
-442.533094
31
0.0
0
LINE
8
0
6
CONTINUOUS
10
12.053682
20
-442.533094
30
0.0
11
15.925515
21
-442.533094
31
0.0
0
LINE
8
0
6
CONTINUOUS
10
8.560842
20
-442.533094
30
0.0
11
12.053682
21
-442.533094
31
0.0
0
LINE
8
0
6
CONTINUOUS
10
4.009237
20
-442.533094
30
0.0
11
5.788920
21
-442.533094
31
0.0
0
LINE
8
0
6
CONTINUOUS
10
19.797358
20
-442.533094
30
0.0
11
23.290188
21
-442.533094
31
0.0
0
LINE
8
0
6
CONTINUOUS
10
26.062120
20
-442.533094
30
0.0
11
27.841793
21
-442.533094
31
0.0
0
LINE
8
0
6
CONTINUOUS
10
3.395992
20
-442.306568
30
0.0
11
3.395992
21
-442.533094
31
0.0
0
LINE
8
0
6
CONTINUOUS
10
3.395992
20
-442.533094
30
0.0
11
4.009237
21
-442.533094
31
0.0
0
LINE
8
0
6
CONTINUOUS
10
5.788920
20
-442.533094
30
0.0
11
8.560842
21
-442.533094
31
0.0
0
LINE
8
0
6
CONTINUOUS
10
15.925515
20
-442.533094
30
0.0
11
19.797358
21
-442.533094
31
0.0
0
LINE
8
0
6
CONTINUOUS
10
29.241271
20
-470.568964
30
0.0
11
47.998809
21
-470.568964
31
0.0
0
LINE
8
0
6
CONTINUOUS
10
3.395992
20
-459.027918
30
0.0
11
3.395992
21
-490.999828
31
0.0
0
LINE
8
0
6
CONTINUOUS
10
28.455038
20
-490.999828
30
0.0
11
28.455038
21
-471.530460
31
0.0
0
LINE
8
0
6
CONTINUOUS
10
3.395992
20
-451.809160
30
0.0
11
3.395992
21
-459.027918
31
0.0
0
LINE
8
0
6
CONTINUOUS
10
3.395992
20
-444.590403
30
0.0
11
3.395992
21
-451.809160
31
0.0
0
LINE
8
0
6
CONTINUOUS
10
5.788920
20
-491.499890
30
0.0
11
8.560842
21
-491.499890
31
0.0
0
LINE
8
0
6
CONTINUOUS
10
3.395992
20
-491.499890
30
0.0
11
4.009237
21
-491.499890
31
0.0
0
LINE
8
0
6
CONTINUOUS
10
3.395992
20
-490.999828
30
0.0
11
3.395992
21
-491.499890
31
0.0
0
LINE
8
0
6
CONTINUOUS
10
26.062120
20
-491.499890
30
0.0
11
27.841813
21
-491.499890
31
0.0
0
LINE
8
0
6
CONTINUOUS
10
12.053682
20
-491.499890
30
0.0
11
15.925515
21
-491.499890
31
0.0
0
LINE
8
0
6
CONTINUOUS
10
4.009237
20
-491.499890
30
0.0
11
5.788920
21
-491.499890
31
0.0
0
LINE
8
0
6
CONTINUOUS
10
19.797358
20
-491.499890
30
0.0
11
23.290188
21
-491.499890
31
0.0
0
LINE
8
0
6
CONTINUOUS
10
15.925515
20
-491.499890
30
0.0
11
19.797358
21
-491.499890
31
0.0
0
LINE
8
0
6
CONTINUOUS
10
23.290188
20
-491.499890
30
0.0
11
26.062120
21
-491.499890
31
0.0
0
LINE
8
0
6
CONTINUOUS
10
27.841813
20
-491.499890
30
0.0
11
28.455038
21
-491.499890
31
0.0
0
LINE
8
0
6
CONTINUOUS
10
28.455038
20
-491.499890
30
0.0
11
28.455038
21
-490.999828
31
0.0
0
LINE
8
0
6
CONTINUOUS
10
8.560842
20
-491.499890
30
0.0
11
12.053682
21
-491.499890
31
0.0
0
LINE
8
0
6
CONTINUOUS
10
48.500000
20
-444.090311
30
0.0
11
47.998809
21
-444.090311
31
0.0
0
LINE
8
0
6
CONTINUOUS
10
48.500000
20
-444.590403
30
0.0
11
48.500000
21
-444.090311
31
0.0
0
LINE
8
0
6
CONTINUOUS
10
48.500000
20
-468.181169
30
0.0
11
48.500000
21
-465.415177
31
0.0
0
LINE
8
0
6
CONTINUOUS
10
48.500000
20
-461.929898
30
0.0
11
48.500000
21
-458.066422
31
0.0
0
LINE
8
0
6
CONTINUOUS
10
48.500000
20
-469.956960
30
0.0
11
48.500000
21
-468.181169
31
0.0
0
LINE
8
0
6
CONTINUOUS
10
48.500000
20
-465.415177
30
0.0
11
48.500000
21
-461.929898
31
0.0
0
LINE
8
0
6
CONTINUOUS
10
48.500000
20
-470.568964
30
0.0
11
48.500000
21
-469.956960
31
0.0
0
LINE
8
0
6
CONTINUOUS
10
47.998809
20
-470.568964
30
0.0
11
48.500000
21
-470.568964
31
0.0
0
LINE
8
0
6
CONTINUOUS
10
15.925515
20
-444.090311
30
0.0
11
12.053682
21
-444.090311
31
0.0
0
LINE
8
0
6
CONTINUOUS
10
8.560842
20
-444.090311
30
0.0
11
5.788920
21
-444.090311
31
0.0
0
LINE
8
0
6
CONTINUOUS
10
12.053682
20
-444.090311
30
0.0
11
8.560842
21
-444.090311
31
0.0
0
LINE
8
0
6
CONTINUOUS
10
3.395992
20
-444.090311
30
0.0
11
3.395992
21
-444.590403
31
0.0
0
LINE
8
0
6
CONTINUOUS
10
4.009237
20
-444.090311
30
0.0
11
3.395992
21
-444.090311
31
0.0
0
LINE
8
0
6
CONTINUOUS
10
5.788920
20
-444.090311
30
0.0
11
4.009237
21
-444.090311
31
0.0
0
LINE
8
0
6
CONTINUOUS
10
47.998809
20
-444.090311
30
0.0
11
16.711748
21
-444.090311
31
0.0
0
LINE
8
0
6
CONTINUOUS
10
48.500000
20
-458.066422
30
0.0
11
48.500000
21
-444.590403
31
0.0
0
LINE
8
0
6
CONTINUOUS
10
16.711748
20
-444.090311
30
0.0
11
15.925515
21
-444.090311
31
0.0
0
LINE
8
0
6
CONTINUOUS
10
28.455038
20
-470.568964
30
0.0
11
29.241271
21
-470.568964
31
0.0
0
LINE
8
0
6
CONTINUOUS
10
23.290188
20
-465.415177
30
0.0
11
19.797358
21
-461.929898
31
0.0
0
LINE
8
0
6
CONTINUOUS
10
26.062120
20
-468.181169
30
0.0
11
23.290188
21
-465.415177
31
0.0
0
LINE
8
0
6
CONTINUOUS
10
27.841793
20
-469.956960
30
0.0
11
26.062120
21
-468.181169
31
0.0
0
LINE
8
0
6
CONTINUOUS
10
28.455038
20
-471.530460
30
0.0
11
28.455038
21
-470.568964
31
0.0
0
LINE
8
0
6
CONTINUOUS
10
28.455038
20
-470.568964
30
0.0
11
27.841793
21
-469.956960
31
0.0
0
LINE
8
0
6
CONTINUOUS
10
28.455038
20
-442.306568
30
0.0
11
28.455038
21
-24.025015
31
0.0
0
LINE
8
0
6
CONTINUOUS
10
3.395992
20
-24.025015
30
0.0
11
3.395992
21
-442.306568
31
0.0
0
LINE
8
0
6
CONTINUOUS
10
-47.857195
20
212.904557
30
0.0
11
-46.129945
21
209.630581
31
0.0
0
LINE
8
0
6
CONTINUOUS
10
-18.077165
20
208.651852
30
0.0
11
-18.077165
21
212.927962
31
0.0
0
LINE
8
0
6
CONTINUOUS
10
-18.077165
20
200.099584
30
0.0
11
-18.077165
21
204.375713
31
0.0
0
LINE
8
0
6
CONTINUOUS
10
-18.077165
20
204.375713
30
0.0
11
-18.077165
21
208.651852
31
0.0
0
LINE
8
0
6
CONTINUOUS
10
-18.077165
20
212.927962
30
0.0
11
-18.077165
21
214.366764
31
0.0
0
LINE
8
0
6
CONTINUOUS
10
-18.077165
20
195.823464
30
0.0
11
-18.077165
21
200.099584
31
0.0
0
LINE
8
0
6
CONTINUOUS
10
-18.077165
20
214.366764
30
0.0
11
-18.077165
21
215.078859
31
0.0
0
LINE
8
0
6
CONTINUOUS
10
-47.848645
20
215.395914
30
0.0
11
-48.288331
21
215.395914
31
0.0
0
LINE
8
0
6
CONTINUOUS
10
-18.441634
20
215.395914
30
0.0
11
-19.491858
21
215.395914
31
0.0
0
LINE
8
0
6
CONTINUOUS
10
-28.978101
20
215.395914
30
0.0
11
-32.385500
21
215.395914
31
0.0
0
LINE
8
0
6
CONTINUOUS
10
-46.783816
20
215.395914
30
0.0
11
-47.848645
21
215.395914
31
0.0
0
LINE
8
0
6
CONTINUOUS
10
-44.261483
20
215.395914
30
0.0
11
-46.783816
21
215.395914
31
0.0
0
LINE
8
0
6
CONTINUOUS
10
-35.637161
20
215.395914
30
0.0
11
-38.673837
21
215.395914
31
0.0
0
LINE
8
0
6
CONTINUOUS
10
-41.532372
20
215.395914
30
0.0
11
-44.261483
21
215.395914
31
0.0
0
LINE
8
0
6
CONTINUOUS
10
-18.077165
20
215.395914
30
0.0
11
-18.441634
21
215.395914
31
0.0
0
LINE
8
0
6
CONTINUOUS
10
-18.077165
20
215.078859
30
0.0
11
-18.077165
21
215.395914
31
0.0
0
LINE
8
0
6
CONTINUOUS
10
-19.491858
20
215.395914
30
0.0
11
-21.210067
21
215.395914
31
0.0
0
LINE
8
0
6
CONTINUOUS
10
-32.385500
20
215.395914
30
0.0
11
-35.637161
21
215.395914
31
0.0
0
LINE
8
0
6
CONTINUOUS
10
-23.453724
20
215.395914
30
0.0
11
-26.096070
21
215.395914
31
0.0
0
LINE
8
0
6
CONTINUOUS
10
-38.673837
20
215.395914
30
0.0
11
-41.532372
21
215.395914
31
0.0
0
LINE
8
0
6
CONTINUOUS
10
-21.210067
20
215.395914
30
0.0
11
-23.453724
21
215.395914
31
0.0
0
LINE
8
0
6
CONTINUOUS
10
-26.096070
20
215.395914
30
0.0
11
-28.978101
21
215.395914
31
0.0
0
LINE
8
0
6
CONTINUOUS
10
-20.124369
20
215.395914
30
0.0
11
-21.021423
21
215.395914
31
0.0
0
LINE
8
0
6
CONTINUOUS
10
-29.140243
20
215.395914
30
0.0
11
-32.110161
21
215.395914
31
0.0
0
LINE
8
0
6
CONTINUOUS
10
-45.557126
20
215.395914
30
0.0
11
-46.378411
21
215.395914
31
0.0
0
LINE
8
0
6
CONTINUOUS
10
-43.167164
20
215.395914
30
0.0
11
-45.557126
21
215.395914
31
0.0
0
LINE
8
0
6
CONTINUOUS
10
-34.992543
20
215.395914
30
0.0
11
-37.812898
21
215.395914
31
0.0
0
LINE
8
0
6
CONTINUOUS
10
-40.550900
20
215.395914
30
0.0
11
-43.167164
21
215.395914
31
0.0
0
LINE
8
0
6
CONTINUOUS
10
-19.811913
20
215.395914
30
0.0
11
-20.124369
21
215.395914
31
0.0
0
LINE
8
0
6
CONTINUOUS
10
-21.021423
20
215.395914
30
0.0
11
-22.488610
21
215.395914
31
0.0
0
LINE
8
0
6
CONTINUOUS
10
-32.110161
20
215.395914
30
0.0
11
-34.992543
21
215.395914
31
0.0
0
LINE
8
0
6
CONTINUOUS
10
-24.411320
20
215.395914
30
0.0
11
-26.674232
21
215.395914
31
0.0
0
LINE
8
0
6
CONTINUOUS
10
-37.812898
20
215.395914
30
0.0
11
-40.550900
21
215.395914
31
0.0
0
LINE
8
0
6
CONTINUOUS
10
-22.488610
20
215.395914
30
0.0
11
-24.411320
21
215.395914
31
0.0
0
LINE
8
0
6
CONTINUOUS
10
-26.674232
20
215.395914
30
0.0
11
-29.140243
21
215.395914
31
0.0
0
LINE
8
0
6
CONTINUOUS
10
-46.378411
20
215.395914
30
0.0
11
-46.554055
21
215.395914
31
0.0
0
LINE
8
0
6
CONTINUOUS
10
-46.129945
20
209.630581
30
0.0
11
-44.511582
21
206.033250
31
0.0
0
LINE
8
0
6
CONTINUOUS
10
-44.511582
20
206.033250
30
0.0
11
-43.147959
21
201.829995
31
0.0
0
LINE
8
0
6
CONTINUOUS
10
-43.147959
20
201.829995
30
0.0
11
-42.290168
21
196.898953
31
0.0
0
LINE
8
0
6
CONTINUOUS
10
-48.500000
20
214.247680
30
0.0
11
-47.857195
21
212.904557
31
0.0
0
LINE
8
0
6
CONTINUOUS
10
-48.500000
20
215.395914
30
0.0
11
-48.500000
21
215.078859
31
0.0
0
LINE
8
0
6
CONTINUOUS
10
-48.288331
20
215.395914
30
0.0
11
-48.500000
21
215.395914
31
0.0
0
LINE
8
0
6
CONTINUOUS
10
-46.554055
20
215.395914
30
0.0
11
-46.622366
21
215.395914
31
0.0
0
LINE
8
0
6
CONTINUOUS
10
-48.500000
20
214.247680
30
0.0
11
-48.288311
21
214.237928
31
0.0
0
LINE
8
0
6
CONTINUOUS
10
-48.500000
20
215.078859
30
0.0
11
-48.500000
21
214.247680
31
0.0
0
LINE
8
0
6
CONTINUOUS
10
-18.077165
20
191.351505
30
0.0
11
-18.077165
21
195.823464
31
0.0
0
LINE
8
0
6
CONTINUOUS
10
-42.290168
20
196.898953
30
0.0
11
-42.117782
21
191.377910
31
0.0
0
LINE
8
0
6
CONTINUOUS
10
-34.269419
20
191.035541
30
0.0
11
-31.679767
21
191.035541
31
0.0
0
LINE
8
0
6
CONTINUOUS
10
-26.143341
20
191.035541
30
0.0
11
-23.517935
21
191.035541
31
0.0
0
LINE
8
0
6
CONTINUOUS
10
-31.679767
20
191.035541
30
0.0
11
-29.013685
21
191.035541
31
0.0
0
LINE
8
0
6
CONTINUOUS
10
-40.271712
20
191.035541
30
0.0
11
-38.681745
21
191.035541
31
0.0
0
LINE
8
0
6
CONTINUOUS
10
-41.913300
20
191.035541
30
0.0
11
-41.860245
21
191.035541
31
0.0
0
LINE
8
0
6
CONTINUOUS
10
-42.113441
20
191.239002
30
0.0
11
-41.913300
21
191.035541
31
0.0
0
LINE
8
0
6
CONTINUOUS
10
-23.517935
20
191.035541
30
0.0
11
-21.298746
21
191.035541
31
0.0
0
LINE
8
0
6
CONTINUOUS
10
-41.743780
20
191.035541
30
0.0
11
-41.381697
21
191.035541
31
0.0
0
LINE
8
0
6
CONTINUOUS
10
-38.681745
20
191.035541
30
0.0
11
-36.641287
21
191.035541
31
0.0
0
LINE
8
0
6
CONTINUOUS
10
-36.641287
20
191.035541
30
0.0
11
-34.269419
21
191.035541
31
0.0
0
LINE
8
0
6
CONTINUOUS
10
-18.284283
20
191.035541
30
0.0
11
-18.077165
21
191.239002
31
0.0
0
LINE
8
0
6
CONTINUOUS
10
-18.617969
20
191.035541
30
0.0
11
-18.284283
21
191.035541
31
0.0
0
LINE
8
0
6
CONTINUOUS
10
-41.860245
20
191.035541
30
0.0
11
-41.743780
21
191.035541
31
0.0
0
LINE
8
0
6
CONTINUOUS
10
-19.618216
20
191.035541
30
0.0
11
-18.617969
21
191.035541
31
0.0
0
LINE
8
0
6
CONTINUOUS
10
-41.381697
20
191.035541
30
0.0
11
-40.271712
21
191.035541
31
0.0
0
LINE
8
0
6
CONTINUOUS
10
-21.298746
20
191.035541
30
0.0
11
-19.618216
21
191.035541
31
0.0
0
LINE
8
0
6
CONTINUOUS
10
-29.013685
20
191.035541
30
0.0
11
-26.143341
21
191.035541
31
0.0
0
LINE
8
0
6
CONTINUOUS
10
-41.871110
20
190.818296
30
0.0
11
-41.871110
21
190.558684
31
0.0
0
LINE
8
0
6
CONTINUOUS
10
-35.978135
20
190.558684
30
0.0
11
-35.978135
21
190.818296
31
0.0
0
LINE
8
0
6
CONTINUOUS
10
-40.299648
20
190.818296
30
0.0
11
-40.299648
21
190.558684
31
0.0
0
LINE
8
0
6
CONTINUOUS
10
-18.299288
20
190.558684
30
0.0
11
-18.299288
21
190.818296
31
0.0
0
LINE
8
0
6
CONTINUOUS
10
-30.085199
20
190.818296
30
0.0
11
-30.085199
21
190.558684
31
0.0
0
LINE
8
0
6
CONTINUOUS
10
-19.870741
20
190.558684
30
0.0
11
-19.870741
21
190.818296
31
0.0
0
LINE
8
0
6
CONTINUOUS
10
-24.192224
20
190.818296
30
0.0
11
-24.192224
21
190.558684
31
0.0
0
LINE
8
0
6
CONTINUOUS
10
-42.113441
20
191.239002
30
0.0
11
-42.053641
21
191.239002
31
0.0
0
LINE
8
0
6
CONTINUOUS
10
-42.117782
20
191.377910
30
0.0
11
-42.113441
21
191.239002
31
0.0
0
LINE
8
0
6
CONTINUOUS
10
-21.217274
20
191.239002
30
0.0
11
-19.495076
21
191.239002
31
0.0
0
LINE
8
0
6
CONTINUOUS
10
-31.690051
20
191.239002
30
0.0
11
-29.005666
21
191.239002
31
0.0
0
LINE
8
0
6
CONTINUOUS
10
-41.927042
20
191.239002
30
0.0
11
-41.538878
21
191.239002
31
0.0
0
LINE
8
0
6
CONTINUOUS
10
-18.442476
20
191.239002
30
0.0
11
-18.077165
21
191.239002
31
0.0
0
LINE
8
0
6
CONTINUOUS
10
-18.077165
20
191.239002
30
0.0
11
-18.077165
21
191.351505
31
0.0
0
LINE
8
0
6
CONTINUOUS
10
-40.383184
20
191.239002
30
0.0
11
-38.760000
21
191.239002
31
0.0
0
LINE
8
0
6
CONTINUOUS
10
-19.495076
20
191.239002
30
0.0
11
-18.442476
21
191.239002
31
0.0
0
LINE
8
0
6
CONTINUOUS
10
-23.466043
20
191.239002
30
0.0
11
-21.217274
21
191.239002
31
0.0
0
LINE
8
0
6
CONTINUOUS
10
-34.299038
20
191.239002
30
0.0
11
-31.690051
21
191.239002
31
0.0
0
LINE
8
0
6
CONTINUOUS
10
-38.760000
20
191.239002
30
0.0
11
-36.692709
21
191.239002
31
0.0
0
LINE
8
0
6
CONTINUOUS
10
-42.053641
20
191.239002
30
0.0
11
-41.927042
21
191.239002
31
0.0
0
LINE
8
0
6
CONTINUOUS
10
-26.115165
20
191.239002
30
0.0
11
-23.466043
21
191.239002
31
0.0
0
LINE
8
0
6
CONTINUOUS
10
-41.538878
20
191.239002
30
0.0
11
-40.383184
21
191.239002
31
0.0
0
LINE
8
0
6
CONTINUOUS
10
-36.692709
20
191.239002
30
0.0
11
-34.299038
21
191.239002
31
0.0
0
LINE
8
0
6
CONTINUOUS
10
-29.005666
20
191.239002
30
0.0
11
-26.115165
21
191.239002
31
0.0
0
LINE
8
0
6
CONTINUOUS
10
-36.099361
20
189.538506
30
0.0
11
-36.099361
21
20.417531
31
0.0
0
LINE
8
0
6
CONTINUOUS
10
-30.085199
20
189.538506
30
0.0
11
-30.085199
21
20.417531
31
0.0
0
LINE
8
0
6
CONTINUOUS
10
-18.056847
20
20.417531
30
0.0
11
-18.056847
21
189.538506
31
0.0
0
LINE
8
0
6
CONTINUOUS
10
-42.113562
20
189.538506
30
0.0
11
-42.113562
21
175.925589
31
0.0
0
LINE
8
0
6
CONTINUOUS
10
-42.113562
20
174.345597
30
0.0
11
-42.113562
21
172.924978
31
0.0
0
LINE
8
0
6
CONTINUOUS
10
-42.113562
20
171.344997
30
0.0
11
-42.113562
21
169.925009
31
0.0
0
LINE
8
0
6
CONTINUOUS
10
-42.113562
20
168.345017
30
0.0
11
-42.113562
21
166.924408
31
0.0
0
LINE
8
0
6
CONTINUOUS
10
-42.113562
20
165.344417
30
0.0
11
-42.113562
21
163.924439
31
0.0
0
LINE
8
0
6
CONTINUOUS
10
-42.113562
20
162.344447
30
0.0
11
-42.113562
21
160.923828
31
0.0
0
LINE
8
0
6
CONTINUOUS
10
-42.113562
20
159.343857
30
0.0
11
-42.113562
21
157.923869
31
0.0
0
LINE
8
0
6
CONTINUOUS
10
-42.113562
20
156.343877
30
0.0
11
-42.113562
21
154.923268
31
0.0
0
LINE
8
0
6
CONTINUOUS
10
-42.113562
20
153.343277
30
0.0
11
-42.113562
21
151.923288
31
0.0
0
LINE
8
0
6
CONTINUOUS
10
-42.113562
20
150.343307
30
0.0
11
-42.113562
21
148.922688
31
0.0
0
LINE
8
0
6
CONTINUOUS
10
-42.113562
20
147.342707
30
0.0
11
-42.113562
21
145.922728
31
0.0
0
LINE
8
0
6
CONTINUOUS
10
-42.113562
20
144.342737
30
0.0
11
-42.113562
21
142.922128
31
0.0
0
LINE
8
0
6
CONTINUOUS
10
-42.113562
20
141.342137
30
0.0
11
-42.113562
21
139.922148
31
0.0
0
LINE
8
0
6
CONTINUOUS
10
-42.113562
20
138.342167
30
0.0
11
-42.113562
21
136.921548
31
0.0
0
LINE
8
0
6
CONTINUOUS
10
-42.113562
20
135.341557
30
0.0
11
-42.113562
21
133.921578
31
0.0
0
LINE
8
0
6
CONTINUOUS
10
-42.113562
20
132.341587
30
0.0
11
-42.113562
21
130.920978
31
0.0
0
LINE
8
0
6
CONTINUOUS
10
-42.113562
20
129.340987
30
0.0
11
-42.113562
21
127.920998
31
0.0
0
LINE
8
0
6
CONTINUOUS
10
-42.113562
20
126.341017
30
0.0
11
-42.113562
21
124.920398
31
0.0
0
LINE
8
0
6
CONTINUOUS
10
-42.113562
20
123.340407
30
0.0
11
-42.113562
21
121.920438
31
0.0
0
LINE
8
0
6
CONTINUOUS
10
-42.113562
20
120.340447
30
0.0
11
-42.113562
21
118.919828
31
0.0
0
LINE
8
0
6
CONTINUOUS
10
-42.113562
20
117.339847
30
0.0
11
-42.113562
21
115.919868
31
0.0
0
LINE
8
0
6
CONTINUOUS
10
-42.113562
20
114.339887
30
0.0
11
-42.113562
21
112.919268
31
0.0
0
LINE
8
0
6
CONTINUOUS
10
-42.113562
20
111.339277
30
0.0
11
-42.113562
21
109.919298
31
0.0
0
LINE
8
0
6
CONTINUOUS
10
-42.113562
20
108.339307
30
0.0
11
-42.113562
21
20.417531
31
0.0
0
LINE
8
0
6
CONTINUOUS
10
-40.509773
20
20.417531
30
0.0
11
-40.509773
21
189.538506
31
0.0
0
LINE
8
0
6
CONTINUOUS
10
-24.071008
20
189.538506
30
0.0
11
-24.071008
21
20.417531
31
0.0
0
LINE
8
0
6
CONTINUOUS
10
-19.660626
20
20.417531
30
0.0
11
-19.660626
21
189.538506
31
0.0
0
LINE
8
0
6
CONTINUOUS
10
-33.966685
20
-82.216726
30
0.0
11
-33.966685
21
-22.038481
31
0.0
0
LINE
8
0
6
CONTINUOUS
10
-26.203693
20
-82.216726
30
0.0
11
-26.203693
21
-22.038481
31
0.0
0
LINE
8
0
6
CONTINUOUS
10
-30.085199
20
-22.038471
30
0.0
11
-30.085199
21
-82.216726
31
0.0
0
LINE
8
0
6
CONTINUOUS
10
-22.324593
20
-82.216726
30
0.0
11
-22.324593
21
-22.038481
31
0.0
0
LINE
8
0
6
CONTINUOUS
10
-23.359652
20
-22.038481
30
0.0
11
-23.359652
21
-82.216726
31
0.0
0
LINE
8
0
6
CONTINUOUS
10
-36.810747
20
-82.216726
30
0.0
11
-36.810747
21
-22.038481
31
0.0
0
LINE
8
0
6
CONTINUOUS
10
-37.845816
20
-22.038480
30
0.0
11
-37.845816
21
-82.216726
31
0.0
0
LINE
8
0
6
CONTINUOUS
10
-18.603796
20
-111.828116
30
0.0
11
-18.603796
21
-82.544443
31
0.0
0
LINE
8
0
6
CONTINUOUS
10
-41.566603
20
-82.544443
30
0.0
11
-41.566603
21
-111.828116
31
0.0
0
LINE
8
0
6
CONTINUOUS
10
-41.566603
20
-82.216726
30
0.0
11
-41.566603
21
-82.544443
31
0.0
0
LINE
8
0
6
CONTINUOUS
10
-41.004669
20
-82.216726
30
0.0
11
-41.566603
21
-82.216726
31
0.0
0
LINE
8
0
6
CONTINUOUS
10
-39.373846
20
-82.216726
30
0.0
11
-41.004669
21
-82.216726
31
0.0
0
LINE
8
0
6
CONTINUOUS
10
-36.833791
20
-82.216726
30
0.0
11
-39.373846
21
-82.216726
31
0.0
0
LINE
8
0
6
CONTINUOUS
10
-33.633139
20
-82.216726
30
0.0
11
-36.833791
21
-82.216726
31
0.0
0
LINE
8
0
6
CONTINUOUS
10
-30.085189
20
-82.216726
30
0.0
11
-33.633139
21
-82.216726
31
0.0
0
LINE
8
0
6
CONTINUOUS
10
-26.537239
20
-82.216726
30
0.0
11
-30.085189
21
-82.216726
31
0.0
0
LINE
8
0
6
CONTINUOUS
10
-23.336588
20
-82.216726
30
0.0
11
-26.537239
21
-82.216726
31
0.0
0
LINE
8
0
6
CONTINUOUS
10
-20.796543
20
-82.216726
30
0.0
11
-23.336588
21
-82.216726
31
0.0
0
LINE
8
0
6
CONTINUOUS
10
-19.165740
20
-82.216726
30
0.0
11
-20.796543
21
-82.216726
31
0.0
0
LINE
8
0
6
CONTINUOUS
10
-18.603796
20
-82.544443
30
0.0
11
-18.603796
21
-82.216726
31
0.0
0
LINE
8
0
6
CONTINUOUS
10
-18.603796
20
-82.216726
30
0.0
11
-19.165740
21
-82.216726
31
0.0
0
LINE
8
0
6
CONTINUOUS
10
-41.566603
20
-112.155833
30
0.0
11
-41.004669
21
-112.155833
31
0.0
0
LINE
8
0
6
CONTINUOUS
10
-41.566603
20
-111.828116
30
0.0
11
-41.566603
21
-112.155833
31
0.0
0
LINE
8
0
6
CONTINUOUS
10
-41.004669
20
-112.155833
30
0.0
11
-39.373846
21
-112.155833
31
0.0
0
LINE
8
0
6
CONTINUOUS
10
-39.373846
20
-112.155833
30
0.0
11
-36.833791
21
-112.155833
31
0.0
0
LINE
8
0
6
CONTINUOUS
10
-36.833791
20
-112.155833
30
0.0
11
-33.633139
21
-112.155833
31
0.0
0
LINE
8
0
6
CONTINUOUS
10
-33.633139
20
-112.155833
30
0.0
11
-30.085189
21
-112.155833
31
0.0
0
LINE
8
0
6
CONTINUOUS
10
-30.085189
20
-112.155833
30
0.0
11
-26.537239
21
-112.155833
31
0.0
0
LINE
8
0
6
CONTINUOUS
10
-26.537239
20
-112.155833
30
0.0
11
-23.336588
21
-112.155833
31
0.0
0
LINE
8
0
6
CONTINUOUS
10
-23.336588
20
-112.155833
30
0.0
11
-20.796543
21
-112.155833
31
0.0
0
LINE
8
0
6
CONTINUOUS
10
-20.796543
20
-112.155833
30
0.0
11
-19.165740
21
-112.155833
31
0.0
0
LINE
8
0
6
CONTINUOUS
10
-18.603796
20
-112.155833
30
0.0
11
-18.603796
21
-111.828116
31
0.0
0
LINE
8
0
6
CONTINUOUS
10
-19.165740
20
-112.155833
30
0.0
11
-18.603796
21
-112.155833
31
0.0
0
LINE
8
0
6
CONTINUOUS
10
-16.090293
20
20.129383
30
0.0
11
-18.652631
21
20.129383
31
0.0
0
LINE
8
0
6
CONTINUOUS
10
-18.652631
20
20.129383
30
0.0
11
-21.991919
21
20.129383
31
0.0
0
LINE
8
0
6
CONTINUOUS
10
-42.823234
20
19.456086
30
0.0
11
-42.823174
21
-21.338799
31
0.0
0
LINE
8
0
6
CONTINUOUS
10
-42.823184
20
-22.038461
30
0.0
11
-42.589062
21
-22.038471
31
0.0
0
LINE
8
0
6
CONTINUOUS
10
-42.823174
20
-21.338799
30
0.0
11
-42.823184
21
-22.038461
31
0.0
0
LINE
8
0
6
CONTINUOUS
10
-17.589115
20
20.129383
30
0.0
11
-18.013856
21
20.129383
31
0.0
0
LINE
8
0
6
CONTINUOUS
10
-18.013856
20
20.129383
30
0.0
11
-19.259100
21
20.129383
31
0.0
0
LINE
8
0
6
CONTINUOUS
10
-38.115291
20
-22.038481
30
0.0
11
-34.226678
21
-22.038481
31
0.0
0
LINE
8
0
6
CONTINUOUS
10
-21.991919
20
20.129383
30
0.0
11
-25.880602
21
20.129383
31
0.0
0
LINE
8
0
6
CONTINUOUS
10
-42.823234
20
20.129393
30
0.0
11
-42.823234
21
19.456086
31
0.0
0
LINE
8
0
6
CONTINUOUS
10
-42.589112
20
20.129393
30
0.0
11
-42.823234
21
20.129393
31
0.0
0
LINE
8
0
6
CONTINUOUS
10
-30.053645
20
20.129383
30
0.0
11
-34.226648
21
20.129383
31
0.0
0
LINE
8
0
6
CONTINUOUS
10
-14.479488
20
20.129383
30
0.0
11
-16.090293
21
20.129383
31
0.0
0
LINE
8
0
6
CONTINUOUS
10
-13.930083
20
-22.038481
30
0.0
11
-13.930073
21
-21.278666
31
0.0
0
LINE
8
0
6
CONTINUOUS
10
-14.479518
20
-22.038481
30
0.0
11
-13.930083
21
-22.038481
31
0.0
0
LINE
8
0
6
CONTINUOUS
10
-34.226648
20
20.129383
30
0.0
11
-38.115251
21
20.129383
31
0.0
0
LINE
8
0
6
CONTINUOUS
10
-34.226678
20
-22.038481
30
0.0
11
-30.053655
21
-22.038471
31
0.0
0
LINE
8
0
6
CONTINUOUS
10
-41.454509
20
-22.038481
30
0.0
11
-38.115291
21
-22.038481
31
0.0
0
LINE
8
0
6
CONTINUOUS
10
-16.090323
20
-22.038481
30
0.0
11
-14.479518
21
-22.038481
31
0.0
0
LINE
8
0
6
CONTINUOUS
10
-18.652651
20
-22.038481
30
0.0
11
-16.090323
21
-22.038481
31
0.0
0
LINE
8
0
6
CONTINUOUS
10
-21.991949
20
-22.038481
30
0.0
11
-18.652651
21
-22.038481
31
0.0
0
LINE
8
0
6
CONTINUOUS
10
-25.880642
20
-22.038481
30
0.0
11
-21.991949
21
-22.038481
31
0.0
0
LINE
8
0
6
CONTINUOUS
10
-30.053655
20
-22.038471
30
0.0
11
-25.880642
21
-22.038481
31
0.0
0
LINE
8
0
6
CONTINUOUS
10
-25.880602
20
20.129383
30
0.0
11
-30.053645
21
20.129383
31
0.0
0
LINE
8
0
6
CONTINUOUS
10
-42.589062
20
-22.038471
30
0.0
11
-41.454509
21
-22.038481
31
0.0
0
LINE
8
0
6
CONTINUOUS
10
-38.115251
20
20.129383
30
0.0
11
-41.454489
21
20.129383
31
0.0
0
LINE
8
0
6
CONTINUOUS
10
-41.454489
20
20.129383
30
0.0
11
-42.589112
21
20.129393
31
0.0
0
LINE
8
0
6
CONTINUOUS
10
-13.930073
20
-21.278666
30
0.0
11
-13.930067
21
-13.257696
31
0.0
0
LINE
8
0
6
CONTINUOUS
10
-13.930048
20
13.463652
30
0.0
11
-13.930043
21
19.456096
31
0.0
0
LINE
8
0
6
CONTINUOUS
10
-13.930053
20
20.129383
30
0.0
11
-14.479488
21
20.129383
31
0.0
0
LINE
8
0
6
CONTINUOUS
10
-13.930043
20
19.456096
30
0.0
11
-13.930053
21
20.129383
31
0.0
0
LINE
8
0
6
CONTINUOUS
10
-42.589112
20
20.129393
30
0.0
11
-42.823234
21
20.129393
31
0.0
0
LINE
8
0
6
CONTINUOUS
10
-0.136893
20
13.463630
30
0.0
11
-4.377986
21
13.463637
31
0.0
0
LINE
8
0
6
CONTINUOUS
10
-0.136893
20
12.446661
30
0.0
11
-4.377966
21
12.446661
31
0.0
0
LINE
8
0
6
CONTINUOUS
10
-4.377996
20
-13.257696
30
0.0
11
-0.136893
21
-13.257696
31
0.0
0
LINE
8
0
6
CONTINUOUS
10
-0.136893
20
-12.240686
30
0.0
11
-4.377966
21
-12.240679
31
0.0
0
LINE
8
0
6
CONTINUOUS
10
-5.489314
20
-9.344440
30
0.0
11
-17.589129
21
-9.344440
31
0.0
0
LINE
8
0
6
CONTINUOUS
10
-13.930067
20
-13.257696
30
0.0
11
-5.489385
21
-13.257696
31
0.0
0
LINE
8
0
6
CONTINUOUS
10
-5.489334
20
-12.240679
30
0.0
11
-13.930067
21
-12.240665
31
0.0
0
LINE
8
0
6
CONTINUOUS
10
-5.489365
20
13.463637
30
0.0
11
-13.930048
21
13.463652
31
0.0
0
LINE
8
0
6
CONTINUOUS
10
-5.489334
20
12.446661
30
0.0
11
-13.930048
21
12.446661
31
0.0
0
LINE
8
0
6
CONTINUOUS
10
-5.489385
20
-13.257696
30
0.0
11
-5.211530
21
-13.257696
31
0.0
0
LINE
8
0
6
CONTINUOUS
10
-5.211530
20
-13.257696
30
0.0
11
-4.933695
21
-12.703213
31
0.0
0
LINE
8
0
6
CONTINUOUS
10
-5.211500
20
-12.240679
30
0.0
11
-5.211530
21
-13.257696
31
0.0
0
LINE
8
0
6
CONTINUOUS
10
-4.933695
20
-12.703213
30
0.0
11
-4.655851
21
-13.257696
31
0.0
0
LINE
8
0
6
CONTINUOUS
10
-4.933625
20
-11.728405
30
0.0
11
-4.933695
21
-12.703213
31
0.0
0
LINE
8
0
6
CONTINUOUS
10
-4.655851
20
-13.257696
30
0.0
11
-4.377996
21
-13.257696
31
0.0
0
LINE
8
0
6
CONTINUOUS
10
-4.655800
20
-12.240679
30
0.0
11
-4.655851
21
-13.257696
31
0.0
0
LINE
8
0
6
CONTINUOUS
10
-5.489334
20
-12.240679
30
0.0
11
-5.211500
21
-12.240679
31
0.0
0
LINE
8
0
6
CONTINUOUS
10
-5.211460
20
-9.344440
30
0.0
11
-5.211500
21
-12.240679
31
0.0
0
LINE
8
0
6
CONTINUOUS
10
-4.933555
20
-8.952380
30
0.0
11
-4.933625
21
-11.728405
31
0.0
0
LINE
8
0
6
CONTINUOUS
10
-4.655800
20
-12.240679
30
0.0
11
-4.377966
21
-12.240679
31
0.0
0
LINE
8
0
6
CONTINUOUS
10
-4.655780
20
-9.344440
30
0.0
11
-4.655800
21
-12.240679
31
0.0
0
LINE
8
0
6
CONTINUOUS
10
-5.211440
20
-5.009929
30
0.0
11
-5.211460
21
-9.344440
31
0.0
0
LINE
8
0
6
CONTINUOUS
10
-4.933515
20
-4.797755
30
0.0
11
-4.933555
21
-8.952380
31
0.0
0
LINE
8
0
6
CONTINUOUS
10
-4.655760
20
-5.009929
30
0.0
11
-4.655780
21
-9.344440
31
0.0
0
LINE
8
0
6
CONTINUOUS
10
-5.211430
20
0.103001
30
0.0
11
-5.211440
21
-5.009929
31
0.0
0
LINE
8
0
6
CONTINUOUS
10
-4.933495
20
0.103001
30
0.0
11
-4.933515
21
-4.797755
31
0.0
0
LINE
8
0
6
CONTINUOUS
10
-4.655750
20
0.103001
30
0.0
11
-4.655760
21
-5.009929
31
0.0
0
LINE
8
0
6
CONTINUOUS
10
-5.211440
20
5.215910
30
0.0
11
-5.211430
21
0.103001
31
0.0
0
LINE
8
0
6
CONTINUOUS
10
-4.933505
20
5.003717
30
0.0
11
-4.933495
21
0.103001
31
0.0
0
LINE
8
0
6
CONTINUOUS
10
-4.655750
20
5.215910
30
0.0
11
-4.655750
21
0.103001
31
0.0
0
LINE
8
0
6
CONTINUOUS
10
-5.211470
20
9.550422
30
0.0
11
-5.211440
21
5.215910
31
0.0
0
LINE
8
0
6
CONTINUOUS
10
-4.933555
20
9.158342
30
0.0
11
-4.933505
21
5.003717
31
0.0
0
LINE
8
0
6
CONTINUOUS
10
-4.655780
20
9.550422
30
0.0
11
-4.655750
21
5.215910
31
0.0
0
LINE
8
0
6
CONTINUOUS
10
-5.211500
20
12.446661
30
0.0
11
-5.211470
21
9.550422
31
0.0
0
LINE
8
0
6
CONTINUOUS
10
-4.933625
20
11.934376
30
0.0
11
-4.933555
21
9.158342
31
0.0
0
LINE
8
0
6
CONTINUOUS
10
-4.655800
20
12.446661
30
0.0
11
-4.655780
21
9.550422
31
0.0
0
LINE
8
0
6
CONTINUOUS
10
-5.211520
20
13.463637
30
0.0
11
-5.489365
21
13.463637
31
0.0
0
LINE
8
0
6
CONTINUOUS
10
-5.489334
20
12.446661
30
0.0
11
-5.211500
21
12.446661
31
0.0
0
LINE
8
0
6
CONTINUOUS
10
-4.933665
20
12.909155
30
0.0
11
-5.211520
21
13.463637
31
0.0
0
LINE
8
0
6
CONTINUOUS
10
-5.211520
20
13.463637
30
0.0
11
-5.211500
21
12.446661
31
0.0
0
LINE
8
0
6
CONTINUOUS
10
-4.655830
20
13.463637
30
0.0
11
-4.933665
21
12.909155
31
0.0
0
LINE
8
0
6
CONTINUOUS
10
-4.933665
20
12.909155
30
0.0
11
-4.933625
21
11.934376
31
0.0
0
LINE
8
0
6
CONTINUOUS
10
-4.377986
20
13.463637
30
0.0
11
-4.655830
21
13.463637
31
0.0
0
LINE
8
0
6
CONTINUOUS
10
-4.655800
20
12.446661
30
0.0
11
-4.377966
21
12.446661
31
0.0
0
LINE
8
0
6
CONTINUOUS
10
-4.655830
20
13.463637
30
0.0
11
-4.655800
21
12.446661
31
0.0
0
LINE
8
0
6
CONTINUOUS
10
-0.136893
20
22.743834
30
0.0
11
-0.136893
21
13.463630
31
0.0
0
LINE
8
0
6
CONTINUOUS
10
-0.136893
20
-13.257696
30
0.0
11
-0.136893
21
-22.743834
31
0.0
0
LINE
8
0
6
CONTINUOUS
10
31.987913
20
-22.743834
30
0.0
11
31.987913
21
22.743834
31
0.0
0
LINE
8
0
6
CONTINUOUS
10
31.987913
20
-24.025015
30
0.0
11
31.987913
21
-22.743834
31
0.0
0
LINE
8
0
6
CONTINUOUS
10
31.440603
20
-24.025015
30
0.0
11
31.987913
21
-24.025015
31
0.0
0
LINE
8
0
6
CONTINUOUS
10
31.987913
20
24.025015
30
0.0
11
31.440603
21
24.025015
31
0.0
0
LINE
8
0
6
CONTINUOUS
10
31.987913
20
22.743834
30
0.0
11
31.987913
21
24.025015
31
0.0
0
LINE
8
0
6
CONTINUOUS
10
29.835972
20
-24.025015
30
0.0
11
31.440603
21
-24.025015
31
0.0
0
LINE
8
0
6
CONTINUOUS
10
31.440603
20
24.025015
30
0.0
11
29.835972
21
24.025015
31
0.0
0
LINE
8
0
6
CONTINUOUS
10
27.283357
20
-24.025015
30
0.0
11
29.835972
21
-24.025015
31
0.0
0
LINE
8
0
6
CONTINUOUS
10
29.835972
20
24.025015
30
0.0
11
27.283357
21
24.025015
31
0.0
0
LINE
8
0
6
CONTINUOUS
10
23.956719
20
-24.025015
30
0.0
11
27.283357
21
-24.025015
31
0.0
0
LINE
8
0
6
CONTINUOUS
10
27.283357
20
24.025015
30
0.0
11
23.956719
21
24.025015
31
0.0
0
LINE
8
0
6
CONTINUOUS
10
20.082771
20
-24.025015
30
0.0
11
23.956719
21
-24.025015
31
0.0
0
LINE
8
0
6
CONTINUOUS
10
23.956719
20
24.025015
30
0.0
11
20.082771
21
24.025015
31
0.0
0
LINE
8
0
6
CONTINUOUS
10
15.925525
20
-24.025025
30
0.0
11
20.082771
21
-24.025015
31
0.0
0
LINE
8
0
6
CONTINUOUS
10
20.082771
20
24.025015
30
0.0
11
15.925525
21
24.025015
31
0.0
0
LINE
8
0
6
CONTINUOUS
10
11.768269
20
-24.025015
30
0.0
11
15.925525
21
-24.025025
31
0.0
0
LINE
8
0
6
CONTINUOUS
10
15.925525
20
24.025015
30
0.0
11
11.768269
21
24.025015
31
0.0
0
LINE
8
0
6
CONTINUOUS
10
7.894321
20
-24.025015
30
0.0
11
11.768269
21
-24.025015
31
0.0
0
LINE
8
0
6
CONTINUOUS
10
11.768269
20
24.025015
30
0.0
11
7.894321
21
24.025015
31
0.0
0
LINE
8
0
6
CONTINUOUS
10
4.567693
20
-24.025015
30
0.0
11
7.894321
21
-24.025015
31
0.0
0
LINE
8
0
6
CONTINUOUS
10
7.894321
20
24.025015
30
0.0
11
4.567693
21
24.025015
31
0.0
0
LINE
8
0
6
CONTINUOUS
10
2.015078
20
-24.025015
30
0.0
11
4.567693
21
-24.025015
31
0.0
0
LINE
8
0
6
CONTINUOUS
10
4.567693
20
24.025015
30
0.0
11
2.015078
21
24.025015
31
0.0
0
LINE
8
0
6
CONTINUOUS
10
0.410427
20
-24.025015
30
0.0
11
2.015078
21
-24.025015
31
0.0
0
LINE
8
0
6
CONTINUOUS
10
2.015078
20
24.025015
30
0.0
11
0.410427
21
24.025015
31
0.0
0
LINE
8
0
6
CONTINUOUS
10
-0.136893
20
-24.025015
30
0.0
11
0.410427
21
-24.025015
31
0.0
0
LINE
8
0
6
CONTINUOUS
10
-0.136893
20
-22.743834
30
0.0
11
-0.136893
21
-24.025015
31
0.0
0
LINE
8
0
6
CONTINUOUS
10
-0.136893
20
24.025015
30
0.0
11
-0.136893
21
22.743834
31
0.0
0
LINE
8
0
6
CONTINUOUS
10
0.410427
20
24.025015
30
0.0
11
-0.136893
21
24.025015
31
0.0
0
LINE
8
0
6
CONTINUOUS
10
-35.546498
20
189.738707
30
0.0
11
-35.546498
21
190.437989
31
0.0
0
LINE
8
0
6
CONTINUOUS
10
-30.085199
20
190.437989
30
0.0
11
-30.085199
21
189.738707
31
0.0
0
LINE
8
0
6
CONTINUOUS
10
-39.550994
20
189.738707
30
0.0
11
-39.550994
21
190.437989
31
0.0
0
LINE
8
0
6
CONTINUOUS
10
-41.007365
20
190.437989
30
0.0
11
-41.007365
21
189.738707
31
0.0
0
LINE
8
0
6
CONTINUOUS
10
-24.623871
20
190.437989
30
0.0
11
-24.623871
21
189.738707
31
0.0
0
LINE
8
0
6
CONTINUOUS
10
-19.163054
20
189.738707
30
0.0
11
-19.163054
21
190.437989
31
0.0
0
LINE
8
0
6
CONTINUOUS
10
-20.619395
20
190.437989
30
0.0
11
-20.619395
21
189.738707
31
0.0
0
LINE
8
0
6
CONTINUOUS
10
15.925515
20
491.500000
30
0.0
11
3.903418
21
491.499920
31
0.0
0
LINE
8
0
6
CONTINUOUS
10
27.947613
20
491.499920
30
0.0
11
15.925515
21
491.500000
31
0.0
0
LINE
8
0
6
CONTINUOUS
10
-30.085199
20
190.437989
30
0.0
11
-24.192224
21
190.437989
31
0.0
0
LINE
8
0
6
CONTINUOUS
10
-40.299648
20
190.437989
30
0.0
11
-35.978135
21
190.437989
31
0.0
0
LINE
8
0
6
CONTINUOUS
10
-24.192224
20
190.437989
30
0.0
11
-19.870741
21
190.437989
31
0.0
0
LINE
8
0
6
CONTINUOUS
10
-24.192224
20
190.558684
30
0.0
11
-24.192224
21
190.437989
31
0.0
0
LINE
8
0
6
CONTINUOUS
10
-30.085199
20
190.437989
30
0.0
11
-30.085199
21
190.558684
31
0.0
0
LINE
8
0
6
CONTINUOUS
10
-35.978135
20
190.437989
30
0.0
11
-30.085199
21
190.437989
31
0.0
0
LINE
8
0
6
CONTINUOUS
10
-35.978135
20
190.558684
30
0.0
11
-35.978135
21
190.437989
31
0.0
0
LINE
8
0
6
CONTINUOUS
10
-41.871110
20
190.558684
30
0.0
11
-41.871110
21
190.437989
31
0.0
0
LINE
8
0
6
CONTINUOUS
10
-40.299648
20
190.437989
30
0.0
11
-40.299648
21
190.558684
31
0.0
0
LINE
8
0
6
CONTINUOUS
10
-41.871110
20
190.437989
30
0.0
11
-40.299648
21
190.437989
31
0.0
0
LINE
8
0
6
CONTINUOUS
10
-18.299288
20
190.437989
30
0.0
11
-18.299288
21
190.558684
31
0.0
0
LINE
8
0
6
CONTINUOUS
10
-19.870741
20
190.437989
30
0.0
11
-18.299288
21
190.437989
31
0.0
0
LINE
8
0
6
CONTINUOUS
10
-19.870741
20
190.558684
30
0.0
11
-19.870741
21
190.437989
31
0.0
0
LINE
8
0
6
CONTINUOUS
10
-18.056847
20
189.538506
30
0.0
11
-18.056847
21
190.038598
31
0.0
0
LINE
8
0
6
CONTINUOUS
10
-18.056847
20
190.038598
30
0.0
11
-19.660626
21
190.038598
31
0.0
0
LINE
8
0
6
CONTINUOUS
10
-36.099361
20
190.038598
30
0.0
11
-40.509773
21
190.038598
31
0.0
0
LINE
8
0
6
CONTINUOUS
10
-36.099361
20
190.038598
30
0.0
11
-36.099361
21
189.538506
31
0.0
0
LINE
8
0
6
CONTINUOUS
10
-30.085199
20
190.038598
30
0.0
11
-36.099361
21
190.038598
31
0.0
0
LINE
8
0
6
CONTINUOUS
10
-42.113562
20
190.038598
30
0.0
11
-42.113562
21
189.538506
31
0.0
0
LINE
8
0
6
CONTINUOUS
10
-40.509773
20
190.038598
30
0.0
11
-42.113562
21
190.038598
31
0.0
0
LINE
8
0
6
CONTINUOUS
10
-40.509773
20
189.538506
30
0.0
11
-40.509773
21
190.038598
31
0.0
0
LINE
8
0
6
CONTINUOUS
10
-30.085199
20
190.038598
30
0.0
11
-30.085199
21
189.538506
31
0.0
0
LINE
8
0
6
CONTINUOUS
10
-24.071008
20
190.038598
30
0.0
11
-30.085199
21
190.038598
31
0.0
0
LINE
8
0
6
CONTINUOUS
10
-19.660626
20
189.538506
30
0.0
11
-19.660626
21
190.038598
31
0.0
0
LINE
8
0
6
CONTINUOUS
10
-24.071008
20
190.038598
30
0.0
11
-24.071008
21
189.538506
31
0.0
0
LINE
8
0
6
CONTINUOUS
10
-19.660626
20
190.038598
30
0.0
11
-24.071008
21
190.038598
31
0.0
0
LINE
8
0
6
CONTINUOUS
10
-35.978135
20
190.938991
30
0.0
11
-40.299648
21
190.938991
31
0.0
0
LINE
8
0
6
CONTINUOUS
10
-18.299288
20
190.818296
30
0.0
11
-18.299288
21
190.938991
31
0.0
0
LINE
8
0
6
CONTINUOUS
10
-18.299288
20
190.938991
30
0.0
11
-19.870741
21
190.938991
31
0.0
0
LINE
8
0
6
CONTINUOUS
10
-19.870741
20
190.818296
30
0.0
11
-19.870741
21
190.938991
31
0.0
0
LINE
8
0
6
CONTINUOUS
10
-19.870741
20
190.938991
30
0.0
11
-24.192224
21
190.938991
31
0.0
0
LINE
8
0
6
CONTINUOUS
10
-35.978135
20
190.938991
30
0.0
11
-35.978135
21
190.818296
31
0.0
0
LINE
8
0
6
CONTINUOUS
10
-30.085199
20
190.938991
30
0.0
11
-35.978135
21
190.938991
31
0.0
0
LINE
8
0
6
CONTINUOUS
10
-30.085199
20
190.938991
30
0.0
11
-30.085199
21
190.818296
31
0.0
0
LINE
8
0
6
CONTINUOUS
10
-24.192224
20
190.938991
30
0.0
11
-30.085199
21
190.938991
31
0.0
0
LINE
8
0
6
CONTINUOUS
10
-24.192224
20
190.818296
30
0.0
11
-24.192224
21
190.938991
31
0.0
0
LINE
8
0
6
CONTINUOUS
10
-41.871110
20
190.938991
30
0.0
11
-41.871110
21
190.818296
31
0.0
0
LINE
8
0
6
CONTINUOUS
10
-40.299648
20
190.938991
30
0.0
11
-41.871110
21
190.938991
31
0.0
0
LINE
8
0
6
CONTINUOUS
10
-40.299648
20
190.818296
30
0.0
11
-40.299648
21
190.938991
31
0.0
0
LINE
8
0
6
CONTINUOUS
10
-40.509773
20
20.204058
30
0.0
11
-36.099361
21
20.204058
31
0.0
0
LINE
8
0
6
CONTINUOUS
10
-36.099361
20
20.204058
30
0.0
11
-30.085199
21
20.204058
31
0.0
0
LINE
8
0
6
CONTINUOUS
10
-36.099361
20
20.417531
30
0.0
11
-36.099361
21
20.204058
31
0.0
0
LINE
8
0
6
CONTINUOUS
10
-18.056847
20
20.204058
30
0.0
11
-18.056847
21
20.417531
31
0.0
0
LINE
8
0
6
CONTINUOUS
10
-19.660626
20
20.204058
30
0.0
11
-18.056847
21
20.204058
31
0.0
0
LINE
8
0
6
CONTINUOUS
10
-30.085199
20
20.417531
30
0.0
11
-30.085199
21
20.204058
31
0.0
0
LINE
8
0
6
CONTINUOUS
10
-30.085199
20
20.204058
30
0.0
11
-24.071008
21
20.204058
31
0.0
0
LINE
8
0
6
CONTINUOUS
10
-42.113562
20
20.417531
30
0.0
11
-42.113562
21
20.204058
31
0.0
0
LINE
8
0
6
CONTINUOUS
10
-40.509773
20
20.204058
30
0.0
11
-40.509773
21
20.417531
31
0.0
0
LINE
8
0
6
CONTINUOUS
10
-42.113562
20
20.204058
30
0.0
11
-40.509773
21
20.204058
31
0.0
0
LINE
8
0
6
CONTINUOUS
10
-19.660626
20
20.204058
30
0.0
11
-19.660626
21
20.417531
31
0.0
0
LINE
8
0
6
CONTINUOUS
10
-24.071008
20
20.204058
30
0.0
11
-19.660626
21
20.204058
31
0.0
0
LINE
8
0
6
CONTINUOUS
10
-24.071008
20
20.417531
30
0.0
11
-24.071008
21
20.204058
31
0.0
0
ENDSEC
0
EOF
