999
Erzeugt mit innoplus bad 
0
SECTION
2
HEADER
9
$ACADVER
1
AC1009
9
$DWGCODEPAGE
3
ISO8859-1
0
ENDSEC
0
SECTION
2
TABLES
0
TABLE
2
LAYER
70
1
0
LAYER
2
0
70
0
62
7
6
CONTINUOUS
0
ENDTAB
0
ENDSEC
0
SECTION
2
ENTITIES
0
LINE
8
0
6
CONTINUOUS
10
-5.984539
20
19.427460
30
0.0
11
-5.984539
21
-19.504015
31
0.0
0
LINE
8
0
6
CONTINUOUS
10
-0.000234
20
19.427460
30
0.0
11
-0.000234
21
-19.504015
31
0.0
0
LINE
8
0
6
CONTINUOUS
10
5.984080
20
-19.504015
30
0.0
11
5.984080
21
19.427460
31
0.0
0
LINE
8
0
6
CONTINUOUS
10
1.146987
20
175.114354
30
0.0
11
1.577358
21
175.904334
31
0.0
0
LINE
8
0
6
CONTINUOUS
10
-8.128675
20
175.114344
30
0.0
11
-7.698324
21
175.904334
31
0.0
0
LINE
8
0
6
CONTINUOUS
10
-7.661640
20
174.345617
30
0.0
11
-8.128675
21
175.114344
31
0.0
0
LINE
8
0
6
CONTINUOUS
10
6.333384
20
175.114354
30
0.0
11
6.763755
21
175.904334
31
0.0
0
LINE
8
0
6
CONTINUOUS
10
1.146987
20
169.113784
30
0.0
11
1.577358
21
169.903754
31
0.0
0
LINE
8
0
6
CONTINUOUS
10
-8.128675
20
169.113764
30
0.0
11
-7.698324
21
169.903754
31
0.0
0
LINE
8
0
6
CONTINUOUS
10
-7.661640
20
168.345037
30
0.0
11
-8.128675
21
169.113764
31
0.0
0
LINE
8
0
6
CONTINUOUS
10
6.333384
20
169.113784
30
0.0
11
6.763755
21
169.903754
31
0.0
0
LINE
8
0
6
CONTINUOUS
10
1.146987
20
163.113204
30
0.0
11
1.577358
21
163.903184
31
0.0
0
LINE
8
0
6
CONTINUOUS
10
-8.128675
20
163.113184
30
0.0
11
-7.698324
21
163.903184
31
0.0
0
LINE
8
0
6
CONTINUOUS
10
-7.661640
20
162.344467
30
0.0
11
-8.128675
21
163.113184
31
0.0
0
LINE
8
0
6
CONTINUOUS
10
6.333384
20
163.113204
30
0.0
11
6.763755
21
163.903184
31
0.0
0
LINE
8
0
6
CONTINUOUS
10
1.146987
20
157.112644
30
0.0
11
1.577358
21
157.902614
31
0.0
0
LINE
8
0
6
CONTINUOUS
10
-8.128675
20
157.112624
30
0.0
11
-7.698324
21
157.902614
31
0.0
0
LINE
8
0
6
CONTINUOUS
10
-7.661640
20
156.343897
30
0.0
11
-8.128675
21
157.112624
31
0.0
0
LINE
8
0
6
CONTINUOUS
10
6.333384
20
157.112644
30
0.0
11
6.763755
21
157.902614
31
0.0
0
LINE
8
0
6
CONTINUOUS
10
1.146987
20
151.112064
30
0.0
11
1.577358
21
151.902044
31
0.0
0
LINE
8
0
6
CONTINUOUS
10
-8.128675
20
151.112044
30
0.0
11
-7.698324
21
151.902044
31
0.0
0
LINE
8
0
6
CONTINUOUS
10
-7.661640
20
150.343327
30
0.0
11
-8.128675
21
151.112044
31
0.0
0
LINE
8
0
6
CONTINUOUS
10
6.333384
20
151.112064
30
0.0
11
6.763755
21
151.902044
31
0.0
0
LINE
8
0
6
CONTINUOUS
10
1.146987
20
145.111504
30
0.0
11
1.577358
21
145.901474
31
0.0
0
LINE
8
0
6
CONTINUOUS
10
-8.128675
20
145.111484
30
0.0
11
-7.698324
21
145.901474
31
0.0
0
LINE
8
0
6
CONTINUOUS
10
-7.661640
20
144.342757
30
0.0
11
-8.128675
21
145.111484
31
0.0
0
LINE
8
0
6
CONTINUOUS
10
6.333384
20
145.111504
30
0.0
11
6.763755
21
145.901474
31
0.0
0
LINE
8
0
6
CONTINUOUS
10
1.146987
20
139.110924
30
0.0
11
1.577358
21
139.900904
31
0.0
0
LINE
8
0
6
CONTINUOUS
10
-8.128675
20
139.110904
30
0.0
11
-7.698324
21
139.900904
31
0.0
0
LINE
8
0
6
CONTINUOUS
10
-7.661640
20
138.342187
30
0.0
11
-8.128675
21
139.110904
31
0.0
0
LINE
8
0
6
CONTINUOUS
10
6.333384
20
139.110924
30
0.0
11
6.763755
21
139.900904
31
0.0
0
LINE
8
0
6
CONTINUOUS
10
1.146987
20
133.110354
30
0.0
11
1.577358
21
133.900324
31
0.0
0
LINE
8
0
6
CONTINUOUS
10
-8.128675
20
133.110334
30
0.0
11
-7.698324
21
133.900324
31
0.0
0
LINE
8
0
6
CONTINUOUS
10
-7.661640
20
132.341607
30
0.0
11
-8.128675
21
133.110334
31
0.0
0
LINE
8
0
6
CONTINUOUS
10
6.333384
20
133.110354
30
0.0
11
6.763755
21
133.900324
31
0.0
0
LINE
8
0
6
CONTINUOUS
10
1.146987
20
127.109773
30
0.0
11
1.577358
21
127.899744
31
0.0
0
LINE
8
0
6
CONTINUOUS
10
-8.128675
20
127.109753
30
0.0
11
-7.698324
21
127.899744
31
0.0
0
LINE
8
0
6
CONTINUOUS
10
-7.661640
20
126.341037
30
0.0
11
-8.128675
21
127.109753
31
0.0
0
LINE
8
0
6
CONTINUOUS
10
6.333384
20
127.109773
30
0.0
11
6.763755
21
127.899744
31
0.0
0
LINE
8
0
6
CONTINUOUS
10
1.146987
20
121.109213
30
0.0
11
1.577358
21
121.899184
31
0.0
0
LINE
8
0
6
CONTINUOUS
10
-8.128675
20
121.109193
30
0.0
11
-7.698324
21
121.899184
31
0.0
0
LINE
8
0
6
CONTINUOUS
10
-7.661640
20
120.340467
30
0.0
11
-8.128675
21
121.109193
31
0.0
0
LINE
8
0
6
CONTINUOUS
10
6.333384
20
121.109213
30
0.0
11
6.763755
21
121.899184
31
0.0
0
LINE
8
0
6
CONTINUOUS
10
1.146987
20
115.108643
30
0.0
11
1.577358
21
115.898614
31
0.0
0
LINE
8
0
6
CONTINUOUS
10
-8.128675
20
115.108623
30
0.0
11
-7.698324
21
115.898614
31
0.0
0
LINE
8
0
6
CONTINUOUS
10
-7.661640
20
114.339897
30
0.0
11
-8.128675
21
115.108623
31
0.0
0
LINE
8
0
6
CONTINUOUS
10
6.333384
20
115.108643
30
0.0
11
6.763755
21
115.898614
31
0.0
0
LINE
8
0
6
CONTINUOUS
10
-6.764254
20
168.366272
30
0.0
11
-6.333902
21
169.156252
31
0.0
0
LINE
8
0
6
CONTINUOUS
10
-7.661640
20
168.345037
30
0.0
11
-6.764254
21
168.366272
31
0.0
0
LINE
8
0
6
CONTINUOUS
10
-8.128675
20
169.113764
30
0.0
11
-7.661640
21
168.345037
31
0.0
0
LINE
8
0
6
CONTINUOUS
10
4.270285
20
172.946193
30
0.0
11
3.839924
21
172.156222
31
0.0
0
LINE
8
0
6
CONTINUOUS
10
5.167671
20
172.967447
30
0.0
11
4.270285
21
172.946193
31
0.0
0
LINE
8
0
6
CONTINUOUS
10
5.634716
20
172.198711
30
0.0
11
5.167671
21
172.967447
31
0.0
0
LINE
8
0
6
CONTINUOUS
10
2.511408
20
174.366852
30
0.0
11
2.941779
21
175.156842
31
0.0
0
LINE
8
0
6
CONTINUOUS
10
1.614022
20
174.345597
30
0.0
11
2.511408
21
174.366852
31
0.0
0
LINE
8
0
6
CONTINUOUS
10
1.146987
20
175.114354
30
0.0
11
1.614022
21
174.345597
31
0.0
0
LINE
8
0
6
CONTINUOUS
10
-0.467279
20
171.366252
30
0.0
11
0.430107
21
171.344997
31
0.0
0
LINE
8
0
6
CONTINUOUS
10
-0.897651
20
172.156202
30
0.0
11
-0.467279
21
171.366252
31
0.0
0
LINE
8
0
6
CONTINUOUS
10
0.430107
20
171.344997
30
0.0
11
0.897142
21
172.113734
31
0.0
0
LINE
8
0
6
CONTINUOUS
10
6.333384
20
175.114354
30
0.0
11
6.800419
21
174.345597
31
0.0
0
LINE
8
0
6
CONTINUOUS
10
7.697815
20
174.366852
30
0.0
11
8.128176
21
175.156842
31
0.0
0
LINE
8
0
6
CONTINUOUS
10
6.800419
20
174.345597
30
0.0
11
7.697815
21
174.366852
31
0.0
0
LINE
8
0
6
CONTINUOUS
10
2.941779
20
175.156842
30
0.0
11
2.474744
21
175.925589
31
0.0
0
LINE
8
0
6
CONTINUOUS
10
1.577358
20
175.904334
30
0.0
11
1.146987
21
175.114354
31
0.0
0
LINE
8
0
6
CONTINUOUS
10
2.474744
20
175.925589
30
0.0
11
1.577358
21
175.904334
31
0.0
0
LINE
8
0
6
CONTINUOUS
10
-6.333902
20
175.156822
30
0.0
11
-6.800937
21
175.925569
31
0.0
0
LINE
8
0
6
CONTINUOUS
10
-7.698324
20
175.904334
30
0.0
11
-8.128675
21
175.114344
31
0.0
0
LINE
8
0
6
CONTINUOUS
10
-6.800937
20
175.925569
30
0.0
11
-7.698324
21
175.904334
31
0.0
0
LINE
8
0
6
CONTINUOUS
10
-0.467279
20
165.365672
30
0.0
11
0.430107
21
165.344417
31
0.0
0
LINE
8
0
6
CONTINUOUS
10
-0.897651
20
166.155632
30
0.0
11
-0.467279
21
165.365672
31
0.0
0
LINE
8
0
6
CONTINUOUS
10
0.430107
20
165.344417
30
0.0
11
0.897142
21
166.113164
31
0.0
0
LINE
8
0
6
CONTINUOUS
10
3.839924
20
166.155642
30
0.0
11
4.306959
21
165.386886
31
0.0
0
LINE
8
0
6
CONTINUOUS
10
5.204345
20
165.408140
30
0.0
11
5.634716
21
166.198131
31
0.0
0
LINE
8
0
6
CONTINUOUS
10
4.306959
20
165.386886
30
0.0
11
5.204345
21
165.408140
31
0.0
0
LINE
8
0
6
CONTINUOUS
10
3.839924
20
172.156222
30
0.0
11
4.306959
21
171.387466
31
0.0
0
LINE
8
0
6
CONTINUOUS
10
5.204345
20
171.408710
30
0.0
11
5.634716
21
172.198711
31
0.0
0
LINE
8
0
6
CONTINUOUS
10
4.306959
20
171.387466
30
0.0
11
5.204345
21
171.408710
31
0.0
0
LINE
8
0
6
CONTINUOUS
10
1.146987
20
109.108063
30
0.0
11
1.577358
21
109.898044
31
0.0
0
LINE
8
0
6
CONTINUOUS
10
-2.511917
20
169.903734
30
0.0
11
-2.942288
21
169.113764
31
0.0
0
LINE
8
0
6
CONTINUOUS
10
-1.614530
20
169.924989
30
0.0
11
-2.511917
21
169.903734
31
0.0
0
LINE
8
0
6
CONTINUOUS
10
-1.147495
20
169.156252
30
0.0
11
-1.614530
21
169.924989
31
0.0
0
LINE
8
0
6
CONTINUOUS
10
-5.168190
20
172.924978
30
0.0
11
-5.635225
21
172.156202
31
0.0
0
LINE
8
0
6
CONTINUOUS
10
-4.270803
20
172.903714
30
0.0
11
-5.168190
21
172.924978
31
0.0
0
LINE
8
0
6
CONTINUOUS
10
-3.840432
20
172.113734
30
0.0
11
-4.270803
21
172.903714
31
0.0
0
LINE
8
0
6
CONTINUOUS
10
-6.764254
20
174.366852
30
0.0
11
-6.333902
21
175.156822
31
0.0
0
LINE
8
0
6
CONTINUOUS
10
-7.661640
20
174.345617
30
0.0
11
-6.764254
21
174.366852
31
0.0
0
LINE
8
0
6
CONTINUOUS
10
-8.128675
20
175.114344
30
0.0
11
-7.661640
21
174.345617
31
0.0
0
LINE
8
0
6
CONTINUOUS
10
2.511408
20
168.366272
30
0.0
11
2.941779
21
169.156272
31
0.0
0
LINE
8
0
6
CONTINUOUS
10
1.614022
20
168.345017
30
0.0
11
2.511408
21
168.366272
31
0.0
0
LINE
8
0
6
CONTINUOUS
10
1.146987
20
169.113784
30
0.0
11
1.614022
21
168.345017
31
0.0
0
LINE
8
0
6
CONTINUOUS
10
6.333384
20
169.113784
30
0.0
11
6.800419
21
168.345017
31
0.0
0
LINE
8
0
6
CONTINUOUS
10
7.697815
20
168.366272
30
0.0
11
8.128176
21
169.156272
31
0.0
0
LINE
8
0
6
CONTINUOUS
10
6.800419
20
168.345017
30
0.0
11
7.697815
21
168.366272
31
0.0
0
LINE
8
0
6
CONTINUOUS
10
-2.511917
20
175.904314
30
0.0
11
-2.942288
21
175.114344
31
0.0
0
LINE
8
0
6
CONTINUOUS
10
-1.614530
20
175.925569
30
0.0
11
-2.511917
21
175.904314
31
0.0
0
LINE
8
0
6
CONTINUOUS
10
-1.147495
20
175.156822
30
0.0
11
-1.614530
21
175.925569
31
0.0
0
LINE
8
0
6
CONTINUOUS
10
-8.128675
20
109.108053
30
0.0
11
-7.698324
21
109.898044
31
0.0
0
LINE
8
0
6
CONTINUOUS
10
-7.661640
20
108.339327
30
0.0
11
-8.128675
21
109.108053
31
0.0
0
LINE
8
0
6
CONTINUOUS
10
-0.430616
20
172.924978
30
0.0
11
-0.897651
21
172.156202
31
0.0
0
LINE
8
0
6
CONTINUOUS
10
0.466771
20
172.903714
30
0.0
11
-0.430616
21
172.924978
31
0.0
0
LINE
8
0
6
CONTINUOUS
10
0.897142
20
172.113734
30
0.0
11
0.466771
21
172.903714
31
0.0
0
LINE
8
0
6
CONTINUOUS
10
6.763755
20
169.903754
30
0.0
11
6.333384
21
169.113784
31
0.0
0
LINE
8
0
6
CONTINUOUS
10
7.661141
20
169.925009
30
0.0
11
6.763755
21
169.903754
31
0.0
0
LINE
8
0
6
CONTINUOUS
10
8.128176
20
169.156272
30
0.0
11
7.661141
21
169.925009
31
0.0
0
LINE
8
0
6
CONTINUOUS
10
-5.635225
20
172.156202
30
0.0
11
-5.204854
21
171.366252
31
0.0
0
LINE
8
0
6
CONTINUOUS
10
-4.307467
20
171.344997
30
0.0
11
-3.840432
21
172.113734
31
0.0
0
LINE
8
0
6
CONTINUOUS
10
-5.204854
20
171.366252
30
0.0
11
-4.307467
21
171.344997
31
0.0
0
LINE
8
0
6
CONTINUOUS
10
2.941779
20
169.156272
30
0.0
11
2.474744
21
169.925009
31
0.0
0
LINE
8
0
6
CONTINUOUS
10
1.577358
20
169.903754
30
0.0
11
1.146987
21
169.113784
31
0.0
0
LINE
8
0
6
CONTINUOUS
10
2.474744
20
169.925009
30
0.0
11
1.577358
21
169.903754
31
0.0
0
LINE
8
0
6
CONTINUOUS
10
-2.942288
20
169.113764
30
0.0
11
-2.475243
21
168.345007
31
0.0
0
LINE
8
0
6
CONTINUOUS
10
-1.577857
20
168.366252
30
0.0
11
-1.147495
21
169.156252
31
0.0
0
LINE
8
0
6
CONTINUOUS
10
-2.475243
20
168.345007
30
0.0
11
-1.577857
21
168.366252
31
0.0
0
LINE
8
0
6
CONTINUOUS
10
6.763755
20
175.904334
30
0.0
11
6.333384
21
175.114354
31
0.0
0
LINE
8
0
6
CONTINUOUS
10
7.661141
20
175.925589
30
0.0
11
6.763755
21
175.904334
31
0.0
0
LINE
8
0
6
CONTINUOUS
10
8.128176
20
175.156842
30
0.0
11
7.661141
21
175.925589
31
0.0
0
LINE
8
0
6
CONTINUOUS
10
6.333384
20
109.108063
30
0.0
11
6.763755
21
109.898044
31
0.0
0
LINE
8
0
6
CONTINUOUS
10
-5.168190
20
166.924408
30
0.0
11
-5.635225
21
166.155632
31
0.0
0
LINE
8
0
6
CONTINUOUS
10
-4.270803
20
166.903134
30
0.0
11
-5.168190
21
166.924408
31
0.0
0
LINE
8
0
6
CONTINUOUS
10
-3.840432
20
166.113164
30
0.0
11
-4.270803
21
166.903134
31
0.0
0
LINE
8
0
6
CONTINUOUS
10
-5.635225
20
166.155632
30
0.0
11
-5.204854
21
165.365672
31
0.0
0
LINE
8
0
6
CONTINUOUS
10
-4.307467
20
165.344417
30
0.0
11
-3.840432
21
166.113164
31
0.0
0
LINE
8
0
6
CONTINUOUS
10
-5.204854
20
165.365672
30
0.0
11
-4.307467
21
165.344417
31
0.0
0
LINE
8
0
6
CONTINUOUS
10
-6.333902
20
169.156252
30
0.0
11
-6.800937
21
169.924989
31
0.0
0
LINE
8
0
6
CONTINUOUS
10
-7.698324
20
169.903754
30
0.0
11
-8.128675
21
169.113764
31
0.0
0
LINE
8
0
6
CONTINUOUS
10
-6.800937
20
169.924989
30
0.0
11
-7.698324
21
169.903754
31
0.0
0
LINE
8
0
6
CONTINUOUS
10
-0.430616
20
166.924408
30
0.0
11
-0.897651
21
166.155632
31
0.0
0
LINE
8
0
6
CONTINUOUS
10
0.466771
20
166.903134
30
0.0
11
-0.430616
21
166.924408
31
0.0
0
LINE
8
0
6
CONTINUOUS
10
0.897142
20
166.113164
30
0.0
11
0.466771
21
166.903134
31
0.0
0
LINE
8
0
6
CONTINUOUS
10
-2.942288
20
175.114344
30
0.0
11
-2.475243
21
174.345577
31
0.0
0
LINE
8
0
6
CONTINUOUS
10
-1.577857
20
174.366832
30
0.0
11
-1.147495
21
175.156822
31
0.0
0
LINE
8
0
6
CONTINUOUS
10
-2.475243
20
174.345577
30
0.0
11
-1.577857
21
174.366832
31
0.0
0
LINE
8
0
6
CONTINUOUS
10
4.270285
20
166.945623
30
0.0
11
3.839924
21
166.155642
31
0.0
0
LINE
8
0
6
CONTINUOUS
10
5.167671
20
166.966877
30
0.0
11
4.270285
21
166.945623
31
0.0
0
LINE
8
0
6
CONTINUOUS
10
5.634716
20
166.198131
30
0.0
11
5.167671
21
166.966877
31
0.0
0
LINE
8
0
6
CONTINUOUS
10
2.941779
20
163.155692
30
0.0
11
2.474744
21
163.924439
31
0.0
0
LINE
8
0
6
CONTINUOUS
10
1.577358
20
163.903184
30
0.0
11
1.146987
21
163.113204
31
0.0
0
LINE
8
0
6
CONTINUOUS
10
2.474744
20
163.924439
30
0.0
11
1.577358
21
163.903184
31
0.0
0
LINE
8
0
6
CONTINUOUS
10
6.333384
20
163.113204
30
0.0
11
6.800419
21
162.344447
31
0.0
0
LINE
8
0
6
CONTINUOUS
10
7.697815
20
162.365702
30
0.0
11
8.128176
21
163.155692
31
0.0
0
LINE
8
0
6
CONTINUOUS
10
6.800419
20
162.344447
30
0.0
11
7.697815
21
162.365702
31
0.0
0
LINE
8
0
6
CONTINUOUS
10
-0.467279
20
159.365102
30
0.0
11
0.430107
21
159.343857
31
0.0
0
LINE
8
0
6
CONTINUOUS
10
-0.897651
20
160.155052
30
0.0
11
-0.467279
21
159.365102
31
0.0
0
LINE
8
0
6
CONTINUOUS
10
0.430107
20
159.343857
30
0.0
11
0.897142
21
160.112584
31
0.0
0
LINE
8
0
6
CONTINUOUS
10
-5.635225
20
160.155052
30
0.0
11
-5.204854
21
159.365102
31
0.0
0
LINE
8
0
6
CONTINUOUS
10
-4.307467
20
159.343857
30
0.0
11
-3.840432
21
160.112584
31
0.0
0
LINE
8
0
6
CONTINUOUS
10
-5.204854
20
159.365102
30
0.0
11
-4.307467
21
159.343857
31
0.0
0
LINE
8
0
6
CONTINUOUS
10
-6.333902
20
163.155672
30
0.0
11
-6.800937
21
163.924419
31
0.0
0
LINE
8
0
6
CONTINUOUS
10
-7.698324
20
163.903184
30
0.0
11
-8.128675
21
163.113184
31
0.0
0
LINE
8
0
6
CONTINUOUS
10
-6.800937
20
163.924419
30
0.0
11
-7.698324
21
163.903184
31
0.0
0
LINE
8
0
6
CONTINUOUS
10
3.839924
20
160.155072
30
0.0
11
4.306959
21
159.386316
31
0.0
0
LINE
8
0
6
CONTINUOUS
10
5.204345
20
159.407570
30
0.0
11
5.634716
21
160.197561
31
0.0
0
LINE
8
0
6
CONTINUOUS
10
4.306959
20
159.386316
30
0.0
11
5.204345
21
159.407570
31
0.0
0
LINE
8
0
6
CONTINUOUS
10
-2.942288
20
163.113184
30
0.0
11
-2.475243
21
162.344427
31
0.0
0
LINE
8
0
6
CONTINUOUS
10
-1.577857
20
162.365682
30
0.0
11
-1.147495
21
163.155672
31
0.0
0
LINE
8
0
6
CONTINUOUS
10
-2.475243
20
162.344427
30
0.0
11
-1.577857
21
162.365682
31
0.0
0
LINE
8
0
6
CONTINUOUS
10
-6.764254
20
162.365702
30
0.0
11
-6.333902
21
163.155672
31
0.0
0
LINE
8
0
6
CONTINUOUS
10
-7.661640
20
162.344467
30
0.0
11
-6.764254
21
162.365702
31
0.0
0
LINE
8
0
6
CONTINUOUS
10
-8.128675
20
163.113184
30
0.0
11
-7.661640
21
162.344467
31
0.0
0
LINE
8
0
6
CONTINUOUS
10
-2.511917
20
163.903164
30
0.0
11
-2.942288
21
163.113184
31
0.0
0
LINE
8
0
6
CONTINUOUS
10
-1.614530
20
163.924419
30
0.0
11
-2.511917
21
163.903164
31
0.0
0
LINE
8
0
6
CONTINUOUS
10
-1.147495
20
163.155672
30
0.0
11
-1.614530
21
163.924419
31
0.0
0
LINE
8
0
6
CONTINUOUS
10
2.511408
20
162.365702
30
0.0
11
2.941779
21
163.155692
31
0.0
0
LINE
8
0
6
CONTINUOUS
10
1.614022
20
162.344447
30
0.0
11
2.511408
21
162.365702
31
0.0
0
LINE
8
0
6
CONTINUOUS
10
1.146987
20
163.113204
30
0.0
11
1.614022
21
162.344447
31
0.0
0
LINE
8
0
6
CONTINUOUS
10
6.763755
20
163.903184
30
0.0
11
6.333384
21
163.113204
31
0.0
0
LINE
8
0
6
CONTINUOUS
10
7.661141
20
163.924439
30
0.0
11
6.763755
21
163.903184
31
0.0
0
LINE
8
0
6
CONTINUOUS
10
8.128176
20
163.155692
30
0.0
11
7.661141
21
163.924439
31
0.0
0
LINE
8
0
6
CONTINUOUS
10
-5.168190
20
160.923828
30
0.0
11
-5.635225
21
160.155052
31
0.0
0
LINE
8
0
6
CONTINUOUS
10
-4.270803
20
160.902564
30
0.0
11
-5.168190
21
160.923828
31
0.0
0
LINE
8
0
6
CONTINUOUS
10
-3.840432
20
160.112584
30
0.0
11
-4.270803
21
160.902564
31
0.0
0
LINE
8
0
6
CONTINUOUS
10
-0.430616
20
160.923828
30
0.0
11
-0.897651
21
160.155052
31
0.0
0
LINE
8
0
6
CONTINUOUS
10
0.466771
20
160.902564
30
0.0
11
-0.430616
21
160.923828
31
0.0
0
LINE
8
0
6
CONTINUOUS
10
0.897142
20
160.112584
30
0.0
11
0.466771
21
160.902564
31
0.0
0
LINE
8
0
6
CONTINUOUS
10
4.270285
20
160.945043
30
0.0
11
3.839924
21
160.155072
31
0.0
0
LINE
8
0
6
CONTINUOUS
10
5.167671
20
160.966297
30
0.0
11
4.270285
21
160.945043
31
0.0
0
LINE
8
0
6
CONTINUOUS
10
5.634716
20
160.197561
30
0.0
11
5.167671
21
160.966297
31
0.0
0
LINE
8
0
6
CONTINUOUS
10
2.941779
20
157.155122
30
0.0
11
2.474744
21
157.923869
31
0.0
0
LINE
8
0
6
CONTINUOUS
10
1.577358
20
157.902614
30
0.0
11
1.146987
21
157.112644
31
0.0
0
LINE
8
0
6
CONTINUOUS
10
2.474744
20
157.923869
30
0.0
11
1.577358
21
157.902614
31
0.0
0
LINE
8
0
6
CONTINUOUS
10
6.333384
20
157.112644
30
0.0
11
6.800419
21
156.343877
31
0.0
0
LINE
8
0
6
CONTINUOUS
10
7.697815
20
156.365132
30
0.0
11
8.128176
21
157.155122
31
0.0
0
LINE
8
0
6
CONTINUOUS
10
6.800419
20
156.343877
30
0.0
11
7.697815
21
156.365132
31
0.0
0
LINE
8
0
6
CONTINUOUS
10
-0.467279
20
153.364532
30
0.0
11
0.430107
21
153.343277
31
0.0
0
LINE
8
0
6
CONTINUOUS
10
-0.897651
20
154.154482
30
0.0
11
-0.467279
21
153.364532
31
0.0
0
LINE
8
0
6
CONTINUOUS
10
0.430107
20
153.343277
30
0.0
11
0.897142
21
154.112023
31
0.0
0
LINE
8
0
6
CONTINUOUS
10
-5.635225
20
154.154482
30
0.0
11
-5.204854
21
153.364532
31
0.0
0
LINE
8
0
6
CONTINUOUS
10
-4.307467
20
153.343277
30
0.0
11
-3.840432
21
154.112023
31
0.0
0
LINE
8
0
6
CONTINUOUS
10
-5.204854
20
153.364532
30
0.0
11
-4.307467
21
153.343277
31
0.0
0
LINE
8
0
6
CONTINUOUS
10
-6.333902
20
157.155112
30
0.0
11
-6.800937
21
157.923849
31
0.0
0
LINE
8
0
6
CONTINUOUS
10
-7.698324
20
157.902614
30
0.0
11
-8.128675
21
157.112624
31
0.0
0
LINE
8
0
6
CONTINUOUS
10
-6.800937
20
157.923849
30
0.0
11
-7.698324
21
157.902614
31
0.0
0
LINE
8
0
6
CONTINUOUS
10
3.839924
20
154.154502
30
0.0
11
4.306959
21
153.385746
31
0.0
0
LINE
8
0
6
CONTINUOUS
10
5.204345
20
153.407000
30
0.0
11
5.634716
21
154.196991
31
0.0
0
LINE
8
0
6
CONTINUOUS
10
4.306959
20
153.385746
30
0.0
11
5.204345
21
153.407000
31
0.0
0
LINE
8
0
6
CONTINUOUS
10
-2.942288
20
157.112624
30
0.0
11
-2.475243
21
156.343857
31
0.0
0
LINE
8
0
6
CONTINUOUS
10
-1.577857
20
156.365112
30
0.0
11
-1.147495
21
157.155112
31
0.0
0
LINE
8
0
6
CONTINUOUS
10
-2.475243
20
156.343857
30
0.0
11
-1.577857
21
156.365112
31
0.0
0
LINE
8
0
6
CONTINUOUS
10
-6.764254
20
156.365132
30
0.0
11
-6.333902
21
157.155112
31
0.0
0
LINE
8
0
6
CONTINUOUS
10
-7.661640
20
156.343897
30
0.0
11
-6.764254
21
156.365132
31
0.0
0
LINE
8
0
6
CONTINUOUS
10
-8.128675
20
157.112624
30
0.0
11
-7.661640
21
156.343897
31
0.0
0
LINE
8
0
6
CONTINUOUS
10
-2.511917
20
157.902594
30
0.0
11
-2.942288
21
157.112624
31
0.0
0
LINE
8
0
6
CONTINUOUS
10
-1.614530
20
157.923849
30
0.0
11
-2.511917
21
157.902594
31
0.0
0
LINE
8
0
6
CONTINUOUS
10
-1.147495
20
157.155112
30
0.0
11
-1.614530
21
157.923849
31
0.0
0
LINE
8
0
6
CONTINUOUS
10
2.511408
20
156.365132
30
0.0
11
2.941779
21
157.155122
31
0.0
0
LINE
8
0
6
CONTINUOUS
10
1.614022
20
156.343877
30
0.0
11
2.511408
21
156.365132
31
0.0
0
LINE
8
0
6
CONTINUOUS
10
1.146987
20
157.112644
30
0.0
11
1.614022
21
156.343877
31
0.0
0
LINE
8
0
6
CONTINUOUS
10
6.763755
20
157.902614
30
0.0
11
6.333384
21
157.112644
31
0.0
0
LINE
8
0
6
CONTINUOUS
10
7.661141
20
157.923869
30
0.0
11
6.763755
21
157.902614
31
0.0
0
LINE
8
0
6
CONTINUOUS
10
8.128176
20
157.155122
30
0.0
11
7.661141
21
157.923869
31
0.0
0
LINE
8
0
6
CONTINUOUS
10
-5.168190
20
154.923268
30
0.0
11
-5.635225
21
154.154482
31
0.0
0
LINE
8
0
6
CONTINUOUS
10
-4.270803
20
154.901994
30
0.0
11
-5.168190
21
154.923268
31
0.0
0
LINE
8
0
6
CONTINUOUS
10
-3.840432
20
154.112023
30
0.0
11
-4.270803
21
154.901994
31
0.0
0
LINE
8
0
6
CONTINUOUS
10
-0.430616
20
154.923268
30
0.0
11
-0.897651
21
154.154482
31
0.0
0
LINE
8
0
6
CONTINUOUS
10
0.466771
20
154.901994
30
0.0
11
-0.430616
21
154.923268
31
0.0
0
LINE
8
0
6
CONTINUOUS
10
0.897142
20
154.112023
30
0.0
11
0.466771
21
154.901994
31
0.0
0
LINE
8
0
6
CONTINUOUS
10
4.270285
20
154.944483
30
0.0
11
3.839924
21
154.154502
31
0.0
0
LINE
8
0
6
CONTINUOUS
10
5.167671
20
154.965737
30
0.0
11
4.270285
21
154.944483
31
0.0
0
LINE
8
0
6
CONTINUOUS
10
5.634716
20
154.196991
30
0.0
11
5.167671
21
154.965737
31
0.0
0
LINE
8
0
6
CONTINUOUS
10
2.941779
20
151.154552
30
0.0
11
2.474744
21
151.923288
31
0.0
0
LINE
8
0
6
CONTINUOUS
10
1.577358
20
151.902044
30
0.0
11
1.146987
21
151.112064
31
0.0
0
LINE
8
0
6
CONTINUOUS
10
2.474744
20
151.923288
30
0.0
11
1.577358
21
151.902044
31
0.0
0
LINE
8
0
6
CONTINUOUS
10
6.333384
20
151.112064
30
0.0
11
6.800419
21
150.343307
31
0.0
0
LINE
8
0
6
CONTINUOUS
10
7.697815
20
150.364562
30
0.0
11
8.128176
21
151.154552
31
0.0
0
LINE
8
0
6
CONTINUOUS
10
6.800419
20
150.343307
30
0.0
11
7.697815
21
150.364562
31
0.0
0
LINE
8
0
6
CONTINUOUS
10
-0.467279
20
147.363952
30
0.0
11
0.430107
21
147.342707
31
0.0
0
LINE
8
0
6
CONTINUOUS
10
-0.897651
20
148.153912
30
0.0
11
-0.467279
21
147.363952
31
0.0
0
LINE
8
0
6
CONTINUOUS
10
0.430107
20
147.342707
30
0.0
11
0.897142
21
148.111443
31
0.0
0
LINE
8
0
6
CONTINUOUS
10
-5.635225
20
148.153912
30
0.0
11
-5.204854
21
147.363952
31
0.0
0
LINE
8
0
6
CONTINUOUS
10
-4.307467
20
147.342707
30
0.0
11
-3.840432
21
148.111443
31
0.0
0
LINE
8
0
6
CONTINUOUS
10
-5.204854
20
147.363952
30
0.0
11
-4.307467
21
147.342707
31
0.0
0
LINE
8
0
6
CONTINUOUS
10
-6.333902
20
151.154532
30
0.0
11
-6.800937
21
151.923278
31
0.0
0
LINE
8
0
6
CONTINUOUS
10
-7.698324
20
151.902044
30
0.0
11
-8.128675
21
151.112044
31
0.0
0
LINE
8
0
6
CONTINUOUS
10
-6.800937
20
151.923278
30
0.0
11
-7.698324
21
151.902044
31
0.0
0
LINE
8
0
6
CONTINUOUS
10
3.839924
20
148.153932
30
0.0
11
4.306959
21
147.385166
31
0.0
0
LINE
8
0
6
CONTINUOUS
10
5.204345
20
147.406420
30
0.0
11
5.634716
21
148.196411
31
0.0
0
LINE
8
0
6
CONTINUOUS
10
4.306959
20
147.385166
30
0.0
11
5.204345
21
147.406420
31
0.0
0
LINE
8
0
6
CONTINUOUS
10
-2.942288
20
151.112044
30
0.0
11
-2.475243
21
150.343287
31
0.0
0
LINE
8
0
6
CONTINUOUS
10
-1.577857
20
150.364542
30
0.0
11
-1.147495
21
151.154532
31
0.0
0
LINE
8
0
6
CONTINUOUS
10
-2.475243
20
150.343287
30
0.0
11
-1.577857
21
150.364542
31
0.0
0
LINE
8
0
6
CONTINUOUS
10
-6.764254
20
150.364562
30
0.0
11
-6.333902
21
151.154532
31
0.0
0
LINE
8
0
6
CONTINUOUS
10
-7.661640
20
150.343327
30
0.0
11
-6.764254
21
150.364562
31
0.0
0
LINE
8
0
6
CONTINUOUS
10
-8.128675
20
151.112044
30
0.0
11
-7.661640
21
150.343327
31
0.0
0
LINE
8
0
6
CONTINUOUS
10
-2.511917
20
151.902024
30
0.0
11
-2.942288
21
151.112044
31
0.0
0
LINE
8
0
6
CONTINUOUS
10
-1.614530
20
151.923278
30
0.0
11
-2.511917
21
151.902024
31
0.0
0
LINE
8
0
6
CONTINUOUS
10
-1.147495
20
151.154532
30
0.0
11
-1.614530
21
151.923278
31
0.0
0
LINE
8
0
6
CONTINUOUS
10
2.511408
20
150.364562
30
0.0
11
2.941779
21
151.154552
31
0.0
0
LINE
8
0
6
CONTINUOUS
10
1.614022
20
150.343307
30
0.0
11
2.511408
21
150.364562
31
0.0
0
LINE
8
0
6
CONTINUOUS
10
1.146987
20
151.112064
30
0.0
11
1.614022
21
150.343307
31
0.0
0
LINE
8
0
6
CONTINUOUS
10
6.763755
20
151.902044
30
0.0
11
6.333384
21
151.112064
31
0.0
0
LINE
8
0
6
CONTINUOUS
10
7.661141
20
151.923288
30
0.0
11
6.763755
21
151.902044
31
0.0
0
LINE
8
0
6
CONTINUOUS
10
8.128176
20
151.154552
30
0.0
11
7.661141
21
151.923288
31
0.0
0
LINE
8
0
6
CONTINUOUS
10
-5.168190
20
148.922688
30
0.0
11
-5.635225
21
148.153912
31
0.0
0
LINE
8
0
6
CONTINUOUS
10
-4.270803
20
148.901424
30
0.0
11
-5.168190
21
148.922688
31
0.0
0
LINE
8
0
6
CONTINUOUS
10
-3.840432
20
148.111443
30
0.0
11
-4.270803
21
148.901424
31
0.0
0
LINE
8
0
6
CONTINUOUS
10
-0.430616
20
148.922688
30
0.0
11
-0.897651
21
148.153912
31
0.0
0
LINE
8
0
6
CONTINUOUS
10
0.466771
20
148.901424
30
0.0
11
-0.430616
21
148.922688
31
0.0
0
LINE
8
0
6
CONTINUOUS
10
0.897142
20
148.111443
30
0.0
11
0.466771
21
148.901424
31
0.0
0
LINE
8
0
6
CONTINUOUS
10
4.270285
20
148.943903
30
0.0
11
3.839924
21
148.153932
31
0.0
0
LINE
8
0
6
CONTINUOUS
10
5.167671
20
148.965157
30
0.0
11
4.270285
21
148.943903
31
0.0
0
LINE
8
0
6
CONTINUOUS
10
5.634716
20
148.196411
30
0.0
11
5.167671
21
148.965157
31
0.0
0
LINE
8
0
6
CONTINUOUS
10
2.941779
20
145.153982
30
0.0
11
2.474744
21
145.922728
31
0.0
0
LINE
8
0
6
CONTINUOUS
10
1.577358
20
145.901474
30
0.0
11
1.146987
21
145.111504
31
0.0
0
LINE
8
0
6
CONTINUOUS
10
2.474744
20
145.922728
30
0.0
11
1.577358
21
145.901474
31
0.0
0
LINE
8
0
6
CONTINUOUS
10
6.333384
20
145.111504
30
0.0
11
6.800419
21
144.342737
31
0.0
0
LINE
8
0
6
CONTINUOUS
10
7.697815
20
144.363992
30
0.0
11
8.128176
21
145.153982
31
0.0
0
LINE
8
0
6
CONTINUOUS
10
6.800419
20
144.342737
30
0.0
11
7.697815
21
144.363992
31
0.0
0
LINE
8
0
6
CONTINUOUS
10
-0.467279
20
141.363391
30
0.0
11
0.430107
21
141.342137
31
0.0
0
LINE
8
0
6
CONTINUOUS
10
-0.897651
20
142.153342
30
0.0
11
-0.467279
21
141.363391
31
0.0
0
LINE
8
0
6
CONTINUOUS
10
0.430107
20
141.342137
30
0.0
11
0.897142
21
142.110883
31
0.0
0
LINE
8
0
6
CONTINUOUS
10
-5.635225
20
142.153342
30
0.0
11
-5.204854
21
141.363391
31
0.0
0
LINE
8
0
6
CONTINUOUS
10
-4.307467
20
141.342137
30
0.0
11
-3.840432
21
142.110883
31
0.0
0
LINE
8
0
6
CONTINUOUS
10
-5.204854
20
141.363391
30
0.0
11
-4.307467
21
141.342137
31
0.0
0
LINE
8
0
6
CONTINUOUS
10
-6.333902
20
145.153962
30
0.0
11
-6.800937
21
145.922708
31
0.0
0
LINE
8
0
6
CONTINUOUS
10
-7.698324
20
145.901474
30
0.0
11
-8.128675
21
145.111484
31
0.0
0
LINE
8
0
6
CONTINUOUS
10
-6.800937
20
145.922708
30
0.0
11
-7.698324
21
145.901474
31
0.0
0
LINE
8
0
6
CONTINUOUS
10
3.839924
20
142.153362
30
0.0
11
4.306959
21
141.384606
31
0.0
0
LINE
8
0
6
CONTINUOUS
10
5.204345
20
141.405860
30
0.0
11
5.634716
21
142.195851
31
0.0
0
LINE
8
0
6
CONTINUOUS
10
4.306959
20
141.384606
30
0.0
11
5.204345
21
141.405860
31
0.0
0
LINE
8
0
6
CONTINUOUS
10
-2.942288
20
145.111484
30
0.0
11
-2.475243
21
144.342717
31
0.0
0
LINE
8
0
6
CONTINUOUS
10
-1.577857
20
144.363972
30
0.0
11
-1.147495
21
145.153962
31
0.0
0
LINE
8
0
6
CONTINUOUS
10
-2.475243
20
144.342717
30
0.0
11
-1.577857
21
144.363972
31
0.0
0
LINE
8
0
6
CONTINUOUS
10
-6.764254
20
144.363992
30
0.0
11
-6.333902
21
145.153962
31
0.0
0
LINE
8
0
6
CONTINUOUS
10
-7.661640
20
144.342757
30
0.0
11
-6.764254
21
144.363992
31
0.0
0
LINE
8
0
6
CONTINUOUS
10
-8.128675
20
145.111484
30
0.0
11
-7.661640
21
144.342757
31
0.0
0
LINE
8
0
6
CONTINUOUS
10
-2.511917
20
145.901454
30
0.0
11
-2.942288
21
145.111484
31
0.0
0
LINE
8
0
6
CONTINUOUS
10
-1.614530
20
145.922708
30
0.0
11
-2.511917
21
145.901454
31
0.0
0
LINE
8
0
6
CONTINUOUS
10
-1.147495
20
145.153962
30
0.0
11
-1.614530
21
145.922708
31
0.0
0
LINE
8
0
6
CONTINUOUS
10
2.511408
20
144.363992
30
0.0
11
2.941779
21
145.153982
31
0.0
0
LINE
8
0
6
CONTINUOUS
10
1.614022
20
144.342737
30
0.0
11
2.511408
21
144.363992
31
0.0
0
LINE
8
0
6
CONTINUOUS
10
1.146987
20
145.111504
30
0.0
11
1.614022
21
144.342737
31
0.0
0
LINE
8
0
6
CONTINUOUS
10
6.763755
20
145.901474
30
0.0
11
6.333384
21
145.111504
31
0.0
0
LINE
8
0
6
CONTINUOUS
10
7.661141
20
145.922728
30
0.0
11
6.763755
21
145.901474
31
0.0
0
LINE
8
0
6
CONTINUOUS
10
8.128176
20
145.153982
30
0.0
11
7.661141
21
145.922728
31
0.0
0
LINE
8
0
6
CONTINUOUS
10
-5.168190
20
142.922128
30
0.0
11
-5.635225
21
142.153342
31
0.0
0
LINE
8
0
6
CONTINUOUS
10
-4.270803
20
142.900854
30
0.0
11
-5.168190
21
142.922128
31
0.0
0
LINE
8
0
6
CONTINUOUS
10
-3.840432
20
142.110883
30
0.0
11
-4.270803
21
142.900854
31
0.0
0
LINE
8
0
6
CONTINUOUS
10
-0.430616
20
142.922128
30
0.0
11
-0.897651
21
142.153342
31
0.0
0
LINE
8
0
6
CONTINUOUS
10
0.466771
20
142.900854
30
0.0
11
-0.430616
21
142.922128
31
0.0
0
LINE
8
0
6
CONTINUOUS
10
0.897142
20
142.110883
30
0.0
11
0.466771
21
142.900854
31
0.0
0
LINE
8
0
6
CONTINUOUS
10
4.270285
20
142.943343
30
0.0
11
3.839924
21
142.153362
31
0.0
0
LINE
8
0
6
CONTINUOUS
10
5.167671
20
142.964587
30
0.0
11
4.270285
21
142.943343
31
0.0
0
LINE
8
0
6
CONTINUOUS
10
5.634716
20
142.195851
30
0.0
11
5.167671
21
142.964587
31
0.0
0
LINE
8
0
6
CONTINUOUS
10
2.941779
20
139.153412
30
0.0
11
2.474744
21
139.922148
31
0.0
0
LINE
8
0
6
CONTINUOUS
10
1.577358
20
139.900904
30
0.0
11
1.146987
21
139.110924
31
0.0
0
LINE
8
0
6
CONTINUOUS
10
2.474744
20
139.922148
30
0.0
11
1.577358
21
139.900904
31
0.0
0
LINE
8
0
6
CONTINUOUS
10
6.333384
20
139.110924
30
0.0
11
6.800419
21
138.342167
31
0.0
0
LINE
8
0
6
CONTINUOUS
10
7.697815
20
138.363422
30
0.0
11
8.128176
21
139.153412
31
0.0
0
LINE
8
0
6
CONTINUOUS
10
6.800419
20
138.342167
30
0.0
11
7.697815
21
138.363422
31
0.0
0
LINE
8
0
6
CONTINUOUS
10
-0.467279
20
135.362811
30
0.0
11
0.430107
21
135.341557
31
0.0
0
LINE
8
0
6
CONTINUOUS
10
-0.897651
20
136.152772
30
0.0
11
-0.467279
21
135.362811
31
0.0
0
LINE
8
0
6
CONTINUOUS
10
0.430107
20
135.341557
30
0.0
11
0.897142
21
136.110303
31
0.0
0
LINE
8
0
6
CONTINUOUS
10
-5.635225
20
136.152772
30
0.0
11
-5.204854
21
135.362811
31
0.0
0
LINE
8
0
6
CONTINUOUS
10
-4.307467
20
135.341557
30
0.0
11
-3.840432
21
136.110303
31
0.0
0
LINE
8
0
6
CONTINUOUS
10
-5.204854
20
135.362811
30
0.0
11
-4.307467
21
135.341557
31
0.0
0
LINE
8
0
6
CONTINUOUS
10
-6.333902
20
139.153392
30
0.0
11
-6.800937
21
139.922128
31
0.0
0
LINE
8
0
6
CONTINUOUS
10
-7.698324
20
139.900904
30
0.0
11
-8.128675
21
139.110904
31
0.0
0
LINE
8
0
6
CONTINUOUS
10
-6.800937
20
139.922128
30
0.0
11
-7.698324
21
139.900904
31
0.0
0
LINE
8
0
6
CONTINUOUS
10
3.839924
20
136.152792
30
0.0
11
4.306959
21
135.384026
31
0.0
0
LINE
8
0
6
CONTINUOUS
10
5.204345
20
135.405280
30
0.0
11
5.634716
21
136.195271
31
0.0
0
LINE
8
0
6
CONTINUOUS
10
4.306959
20
135.384026
30
0.0
11
5.204345
21
135.405280
31
0.0
0
LINE
8
0
6
CONTINUOUS
10
-2.942288
20
139.110904
30
0.0
11
-2.475243
21
138.342147
31
0.0
0
LINE
8
0
6
CONTINUOUS
10
-1.577857
20
138.363402
30
0.0
11
-1.147495
21
139.153392
31
0.0
0
LINE
8
0
6
CONTINUOUS
10
-2.475243
20
138.342147
30
0.0
11
-1.577857
21
138.363402
31
0.0
0
LINE
8
0
6
CONTINUOUS
10
-6.764254
20
138.363422
30
0.0
11
-6.333902
21
139.153392
31
0.0
0
LINE
8
0
6
CONTINUOUS
10
-7.661640
20
138.342187
30
0.0
11
-6.764254
21
138.363422
31
0.0
0
LINE
8
0
6
CONTINUOUS
10
-8.128675
20
139.110904
30
0.0
11
-7.661640
21
138.342187
31
0.0
0
LINE
8
0
6
CONTINUOUS
10
-2.511917
20
139.900884
30
0.0
11
-2.942288
21
139.110904
31
0.0
0
LINE
8
0
6
CONTINUOUS
10
-1.614530
20
139.922128
30
0.0
11
-2.511917
21
139.900884
31
0.0
0
LINE
8
0
6
CONTINUOUS
10
-1.147495
20
139.153392
30
0.0
11
-1.614530
21
139.922128
31
0.0
0
LINE
8
0
6
CONTINUOUS
10
2.511408
20
138.363422
30
0.0
11
2.941779
21
139.153412
31
0.0
0
LINE
8
0
6
CONTINUOUS
10
1.614022
20
138.342167
30
0.0
11
2.511408
21
138.363422
31
0.0
0
LINE
8
0
6
CONTINUOUS
10
1.146987
20
139.110924
30
0.0
11
1.614022
21
138.342167
31
0.0
0
LINE
8
0
6
CONTINUOUS
10
6.763755
20
139.900904
30
0.0
11
6.333384
21
139.110924
31
0.0
0
LINE
8
0
6
CONTINUOUS
10
7.661141
20
139.922148
30
0.0
11
6.763755
21
139.900904
31
0.0
0
LINE
8
0
6
CONTINUOUS
10
8.128176
20
139.153412
30
0.0
11
7.661141
21
139.922148
31
0.0
0
LINE
8
0
6
CONTINUOUS
10
-5.168190
20
136.921548
30
0.0
11
-5.635225
21
136.152772
31
0.0
0
LINE
8
0
6
CONTINUOUS
10
-4.270803
20
136.900274
30
0.0
11
-5.168190
21
136.921548
31
0.0
0
LINE
8
0
6
CONTINUOUS
10
-3.840432
20
136.110303
30
0.0
11
-4.270803
21
136.900274
31
0.0
0
LINE
8
0
6
CONTINUOUS
10
-0.430616
20
136.921548
30
0.0
11
-0.897651
21
136.152772
31
0.0
0
LINE
8
0
6
CONTINUOUS
10
0.466771
20
136.900274
30
0.0
11
-0.430616
21
136.921548
31
0.0
0
LINE
8
0
6
CONTINUOUS
10
0.897142
20
136.110303
30
0.0
11
0.466771
21
136.900274
31
0.0
0
LINE
8
0
6
CONTINUOUS
10
4.270285
20
136.942763
30
0.0
11
3.839924
21
136.152792
31
0.0
0
LINE
8
0
6
CONTINUOUS
10
5.167671
20
136.964017
30
0.0
11
4.270285
21
136.942763
31
0.0
0
LINE
8
0
6
CONTINUOUS
10
5.634716
20
136.195271
30
0.0
11
5.167671
21
136.964017
31
0.0
0
LINE
8
0
6
CONTINUOUS
10
2.941779
20
133.152832
30
0.0
11
2.474744
21
133.921578
31
0.0
0
LINE
8
0
6
CONTINUOUS
10
1.577358
20
133.900324
30
0.0
11
1.146987
21
133.110354
31
0.0
0
LINE
8
0
6
CONTINUOUS
10
2.474744
20
133.921578
30
0.0
11
1.577358
21
133.900324
31
0.0
0
LINE
8
0
6
CONTINUOUS
10
6.333384
20
133.110354
30
0.0
11
6.800419
21
132.341587
31
0.0
0
LINE
8
0
6
CONTINUOUS
10
7.697815
20
132.362842
30
0.0
11
8.128176
21
133.152832
31
0.0
0
LINE
8
0
6
CONTINUOUS
10
6.800419
20
132.341587
30
0.0
11
7.697815
21
132.362842
31
0.0
0
LINE
8
0
6
CONTINUOUS
10
-0.467279
20
129.362241
30
0.0
11
0.430107
21
129.340987
31
0.0
0
LINE
8
0
6
CONTINUOUS
10
-0.897651
20
130.152192
30
0.0
11
-0.467279
21
129.362241
31
0.0
0
LINE
8
0
6
CONTINUOUS
10
0.430107
20
129.340987
30
0.0
11
0.897142
21
130.109723
31
0.0
0
LINE
8
0
6
CONTINUOUS
10
-5.635225
20
130.152192
30
0.0
11
-5.204854
21
129.362241
31
0.0
0
LINE
8
0
6
CONTINUOUS
10
-4.307467
20
129.340987
30
0.0
11
-3.840432
21
130.109723
31
0.0
0
LINE
8
0
6
CONTINUOUS
10
-5.204854
20
129.362241
30
0.0
11
-4.307467
21
129.340987
31
0.0
0
LINE
8
0
6
CONTINUOUS
10
-6.333902
20
133.152812
30
0.0
11
-6.800937
21
133.921558
31
0.0
0
LINE
8
0
6
CONTINUOUS
10
-7.698324
20
133.900324
30
0.0
11
-8.128675
21
133.110334
31
0.0
0
LINE
8
0
6
CONTINUOUS
10
-6.800937
20
133.921558
30
0.0
11
-7.698324
21
133.900324
31
0.0
0
LINE
8
0
6
CONTINUOUS
10
3.839924
20
130.152212
30
0.0
11
4.306959
21
129.383456
31
0.0
0
LINE
8
0
6
CONTINUOUS
10
5.204345
20
129.404710
30
0.0
11
5.634716
21
130.194701
31
0.0
0
LINE
8
0
6
CONTINUOUS
10
4.306959
20
129.383456
30
0.0
11
5.204345
21
129.404710
31
0.0
0
LINE
8
0
6
CONTINUOUS
10
-2.942288
20
133.110334
30
0.0
11
-2.475243
21
132.341567
31
0.0
0
LINE
8
0
6
CONTINUOUS
10
-1.577857
20
132.362822
30
0.0
11
-1.147495
21
133.152812
31
0.0
0
LINE
8
0
6
CONTINUOUS
10
-2.475243
20
132.341567
30
0.0
11
-1.577857
21
132.362822
31
0.0
0
LINE
8
0
6
CONTINUOUS
10
-6.764254
20
132.362842
30
0.0
11
-6.333902
21
133.152812
31
0.0
0
LINE
8
0
6
CONTINUOUS
10
-7.661640
20
132.341607
30
0.0
11
-6.764254
21
132.362842
31
0.0
0
LINE
8
0
6
CONTINUOUS
10
-8.128675
20
133.110334
30
0.0
11
-7.661640
21
132.341607
31
0.0
0
LINE
8
0
6
CONTINUOUS
10
-2.511917
20
133.900304
30
0.0
11
-2.942288
21
133.110334
31
0.0
0
LINE
8
0
6
CONTINUOUS
10
-1.614530
20
133.921558
30
0.0
11
-2.511917
21
133.900304
31
0.0
0
LINE
8
0
6
CONTINUOUS
10
-1.147495
20
133.152812
30
0.0
11
-1.614530
21
133.921558
31
0.0
0
LINE
8
0
6
CONTINUOUS
10
2.511408
20
132.362842
30
0.0
11
2.941779
21
133.152832
31
0.0
0
LINE
8
0
6
CONTINUOUS
10
1.614022
20
132.341587
30
0.0
11
2.511408
21
132.362842
31
0.0
0
LINE
8
0
6
CONTINUOUS
10
1.146987
20
133.110354
30
0.0
11
1.614022
21
132.341587
31
0.0
0
LINE
8
0
6
CONTINUOUS
10
6.763755
20
133.900324
30
0.0
11
6.333384
21
133.110354
31
0.0
0
LINE
8
0
6
CONTINUOUS
10
7.661141
20
133.921578
30
0.0
11
6.763755
21
133.900324
31
0.0
0
LINE
8
0
6
CONTINUOUS
10
8.128176
20
133.152832
30
0.0
11
7.661141
21
133.921578
31
0.0
0
LINE
8
0
6
CONTINUOUS
10
-5.168190
20
130.920978
30
0.0
11
-5.635225
21
130.152192
31
0.0
0
LINE
8
0
6
CONTINUOUS
10
-4.270803
20
130.899704
30
0.0
11
-5.168190
21
130.920978
31
0.0
0
LINE
8
0
6
CONTINUOUS
10
-3.840432
20
130.109723
30
0.0
11
-4.270803
21
130.899704
31
0.0
0
LINE
8
0
6
CONTINUOUS
10
-0.430616
20
130.920978
30
0.0
11
-0.897651
21
130.152192
31
0.0
0
LINE
8
0
6
CONTINUOUS
10
0.466771
20
130.899704
30
0.0
11
-0.430616
21
130.920978
31
0.0
0
LINE
8
0
6
CONTINUOUS
10
0.897142
20
130.109723
30
0.0
11
0.466771
21
130.899704
31
0.0
0
LINE
8
0
6
CONTINUOUS
10
4.270285
20
130.942193
30
0.0
11
3.839924
21
130.152212
31
0.0
0
LINE
8
0
6
CONTINUOUS
10
5.167671
20
130.963437
30
0.0
11
4.270285
21
130.942193
31
0.0
0
LINE
8
0
6
CONTINUOUS
10
5.634716
20
130.194701
30
0.0
11
5.167671
21
130.963437
31
0.0
0
LINE
8
0
6
CONTINUOUS
10
2.941779
20
127.152262
30
0.0
11
2.474744
21
127.920998
31
0.0
0
LINE
8
0
6
CONTINUOUS
10
1.577358
20
127.899744
30
0.0
11
1.146987
21
127.109773
31
0.0
0
LINE
8
0
6
CONTINUOUS
10
2.474744
20
127.920998
30
0.0
11
1.577358
21
127.899744
31
0.0
0
LINE
8
0
6
CONTINUOUS
10
6.333384
20
127.109773
30
0.0
11
6.800419
21
126.341017
31
0.0
0
LINE
8
0
6
CONTINUOUS
10
7.697815
20
126.362262
30
0.0
11
8.128176
21
127.152262
31
0.0
0
LINE
8
0
6
CONTINUOUS
10
6.800419
20
126.341017
30
0.0
11
7.697815
21
126.362262
31
0.0
0
LINE
8
0
6
CONTINUOUS
10
-0.467279
20
123.361661
30
0.0
11
0.430107
21
123.340407
31
0.0
0
LINE
8
0
6
CONTINUOUS
10
-0.897651
20
124.151622
30
0.0
11
-0.467279
21
123.361661
31
0.0
0
LINE
8
0
6
CONTINUOUS
10
0.430107
20
123.340407
30
0.0
11
0.897142
21
124.109153
31
0.0
0
LINE
8
0
6
CONTINUOUS
10
-5.635225
20
124.151622
30
0.0
11
-5.204854
21
123.361661
31
0.0
0
LINE
8
0
6
CONTINUOUS
10
-4.307467
20
123.340407
30
0.0
11
-3.840432
21
124.109153
31
0.0
0
LINE
8
0
6
CONTINUOUS
10
-5.204854
20
123.361661
30
0.0
11
-4.307467
21
123.340407
31
0.0
0
LINE
8
0
6
CONTINUOUS
10
-6.333902
20
127.152242
30
0.0
11
-6.800937
21
127.920978
31
0.0
0
LINE
8
0
6
CONTINUOUS
10
-7.698324
20
127.899744
30
0.0
11
-8.128675
21
127.109753
31
0.0
0
LINE
8
0
6
CONTINUOUS
10
-6.800937
20
127.920978
30
0.0
11
-7.698324
21
127.899744
31
0.0
0
LINE
8
0
6
CONTINUOUS
10
3.839924
20
124.151642
30
0.0
11
4.306959
21
123.382876
31
0.0
0
LINE
8
0
6
CONTINUOUS
10
5.204345
20
123.404130
30
0.0
11
5.634716
21
124.194121
31
0.0
0
LINE
8
0
6
CONTINUOUS
10
4.306959
20
123.382876
30
0.0
11
5.204345
21
123.404130
31
0.0
0
LINE
8
0
6
CONTINUOUS
10
-2.942288
20
127.109753
30
0.0
11
-2.475243
21
126.340997
31
0.0
0
LINE
8
0
6
CONTINUOUS
10
-1.577857
20
126.362252
30
0.0
11
-1.147495
21
127.152242
31
0.0
0
LINE
8
0
6
CONTINUOUS
10
-2.475243
20
126.340997
30
0.0
11
-1.577857
21
126.362252
31
0.0
0
LINE
8
0
6
CONTINUOUS
10
-6.764254
20
126.362262
30
0.0
11
-6.333902
21
127.152242
31
0.0
0
LINE
8
0
6
CONTINUOUS
10
-7.661640
20
126.341037
30
0.0
11
-6.764254
21
126.362262
31
0.0
0
LINE
8
0
6
CONTINUOUS
10
-8.128675
20
127.109753
30
0.0
11
-7.661640
21
126.341037
31
0.0
0
LINE
8
0
6
CONTINUOUS
10
-2.511917
20
127.899734
30
0.0
11
-2.942288
21
127.109753
31
0.0
0
LINE
8
0
6
CONTINUOUS
10
-1.614530
20
127.920978
30
0.0
11
-2.511917
21
127.899734
31
0.0
0
LINE
8
0
6
CONTINUOUS
10
-1.147495
20
127.152242
30
0.0
11
-1.614530
21
127.920978
31
0.0
0
LINE
8
0
6
CONTINUOUS
10
2.511408
20
126.362262
30
0.0
11
2.941779
21
127.152262
31
0.0
0
LINE
8
0
6
CONTINUOUS
10
1.614022
20
126.341017
30
0.0
11
2.511408
21
126.362262
31
0.0
0
LINE
8
0
6
CONTINUOUS
10
1.146987
20
127.109773
30
0.0
11
1.614022
21
126.341017
31
0.0
0
LINE
8
0
6
CONTINUOUS
10
6.763755
20
127.899744
30
0.0
11
6.333384
21
127.109773
31
0.0
0
LINE
8
0
6
CONTINUOUS
10
7.661141
20
127.920998
30
0.0
11
6.763755
21
127.899744
31
0.0
0
LINE
8
0
6
CONTINUOUS
10
8.128176
20
127.152262
30
0.0
11
7.661141
21
127.920998
31
0.0
0
LINE
8
0
6
CONTINUOUS
10
-5.168190
20
124.920398
30
0.0
11
-5.635225
21
124.151622
31
0.0
0
LINE
8
0
6
CONTINUOUS
10
-4.270803
20
124.899124
30
0.0
11
-5.168190
21
124.920398
31
0.0
0
LINE
8
0
6
CONTINUOUS
10
-3.840432
20
124.109153
30
0.0
11
-4.270803
21
124.899124
31
0.0
0
LINE
8
0
6
CONTINUOUS
10
-0.430616
20
124.920398
30
0.0
11
-0.897651
21
124.151622
31
0.0
0
LINE
8
0
6
CONTINUOUS
10
0.466771
20
124.899124
30
0.0
11
-0.430616
21
124.920398
31
0.0
0
LINE
8
0
6
CONTINUOUS
10
0.897142
20
124.109153
30
0.0
11
0.466771
21
124.899124
31
0.0
0
LINE
8
0
6
CONTINUOUS
10
4.270285
20
124.941613
30
0.0
11
3.839924
21
124.151642
31
0.0
0
LINE
8
0
6
CONTINUOUS
10
5.167671
20
124.962867
30
0.0
11
4.270285
21
124.941613
31
0.0
0
LINE
8
0
6
CONTINUOUS
10
5.634716
20
124.194121
30
0.0
11
5.167671
21
124.962867
31
0.0
0
LINE
8
0
6
CONTINUOUS
10
2.941779
20
121.151692
30
0.0
11
2.474744
21
121.920438
31
0.0
0
LINE
8
0
6
CONTINUOUS
10
1.577358
20
121.899184
30
0.0
11
1.146987
21
121.109213
31
0.0
0
LINE
8
0
6
CONTINUOUS
10
2.474744
20
121.920438
30
0.0
11
1.577358
21
121.899184
31
0.0
0
LINE
8
0
6
CONTINUOUS
10
6.333384
20
121.109213
30
0.0
11
6.800419
21
120.340447
31
0.0
0
LINE
8
0
6
CONTINUOUS
10
7.697815
20
120.361702
30
0.0
11
8.128176
21
121.151692
31
0.0
0
LINE
8
0
6
CONTINUOUS
10
6.800419
20
120.340447
30
0.0
11
7.697815
21
120.361702
31
0.0
0
LINE
8
0
6
CONTINUOUS
10
-0.467279
20
117.361101
30
0.0
11
0.430107
21
117.339847
31
0.0
0
LINE
8
0
6
CONTINUOUS
10
-0.897651
20
118.151052
30
0.0
11
-0.467279
21
117.361101
31
0.0
0
LINE
8
0
6
CONTINUOUS
10
0.430107
20
117.339847
30
0.0
11
0.897142
21
118.108583
31
0.0
0
LINE
8
0
6
CONTINUOUS
10
-5.635225
20
118.151052
30
0.0
11
-5.204854
21
117.361101
31
0.0
0
LINE
8
0
6
CONTINUOUS
10
-4.307467
20
117.339847
30
0.0
11
-3.840432
21
118.108583
31
0.0
0
LINE
8
0
6
CONTINUOUS
10
-5.204854
20
117.361101
30
0.0
11
-4.307467
21
117.339847
31
0.0
0
LINE
8
0
6
CONTINUOUS
10
-6.333902
20
121.151672
30
0.0
11
-6.800937
21
121.920418
31
0.0
0
LINE
8
0
6
CONTINUOUS
10
-7.698324
20
121.899184
30
0.0
11
-8.128675
21
121.109193
31
0.0
0
LINE
8
0
6
CONTINUOUS
10
-6.800937
20
121.920418
30
0.0
11
-7.698324
21
121.899184
31
0.0
0
LINE
8
0
6
CONTINUOUS
10
3.839924
20
118.151072
30
0.0
11
4.306959
21
117.382316
31
0.0
0
LINE
8
0
6
CONTINUOUS
10
5.204345
20
117.403560
30
0.0
11
5.634716
21
118.193561
31
0.0
0
LINE
8
0
6
CONTINUOUS
10
4.306959
20
117.382316
30
0.0
11
5.204345
21
117.403560
31
0.0
0
LINE
8
0
6
CONTINUOUS
10
-2.942288
20
121.109193
30
0.0
11
-2.475243
21
120.340427
31
0.0
0
LINE
8
0
6
CONTINUOUS
10
-1.577857
20
120.361682
30
0.0
11
-1.147495
21
121.151672
31
0.0
0
LINE
8
0
6
CONTINUOUS
10
-2.475243
20
120.340427
30
0.0
11
-1.577857
21
120.361682
31
0.0
0
LINE
8
0
6
CONTINUOUS
10
-6.764254
20
120.361702
30
0.0
11
-6.333902
21
121.151672
31
0.0
0
LINE
8
0
6
CONTINUOUS
10
-7.661640
20
120.340467
30
0.0
11
-6.764254
21
120.361702
31
0.0
0
LINE
8
0
6
CONTINUOUS
10
-8.128675
20
121.109193
30
0.0
11
-7.661640
21
120.340467
31
0.0
0
LINE
8
0
6
CONTINUOUS
10
-2.511917
20
121.899164
30
0.0
11
-2.942288
21
121.109193
31
0.0
0
LINE
8
0
6
CONTINUOUS
10
-1.614530
20
121.920418
30
0.0
11
-2.511917
21
121.899164
31
0.0
0
LINE
8
0
6
CONTINUOUS
10
-1.147495
20
121.151672
30
0.0
11
-1.614530
21
121.920418
31
0.0
0
LINE
8
0
6
CONTINUOUS
10
2.511408
20
120.361702
30
0.0
11
2.941779
21
121.151692
31
0.0
0
LINE
8
0
6
CONTINUOUS
10
1.614022
20
120.340447
30
0.0
11
2.511408
21
120.361702
31
0.0
0
LINE
8
0
6
CONTINUOUS
10
1.146987
20
121.109213
30
0.0
11
1.614022
21
120.340447
31
0.0
0
LINE
8
0
6
CONTINUOUS
10
6.763755
20
121.899184
30
0.0
11
6.333384
21
121.109213
31
0.0
0
LINE
8
0
6
CONTINUOUS
10
7.661141
20
121.920438
30
0.0
11
6.763755
21
121.899184
31
0.0
0
LINE
8
0
6
CONTINUOUS
10
8.128176
20
121.151692
30
0.0
11
7.661141
21
121.920438
31
0.0
0
LINE
8
0
6
CONTINUOUS
10
-5.168190
20
118.919828
30
0.0
11
-5.635225
21
118.151052
31
0.0
0
LINE
8
0
6
CONTINUOUS
10
-4.270803
20
118.898564
30
0.0
11
-5.168190
21
118.919828
31
0.0
0
LINE
8
0
6
CONTINUOUS
10
-3.840432
20
118.108583
30
0.0
11
-4.270803
21
118.898564
31
0.0
0
LINE
8
0
6
CONTINUOUS
10
-0.430616
20
118.919828
30
0.0
11
-0.897651
21
118.151052
31
0.0
0
LINE
8
0
6
CONTINUOUS
10
0.466771
20
118.898564
30
0.0
11
-0.430616
21
118.919828
31
0.0
0
LINE
8
0
6
CONTINUOUS
10
0.897142
20
118.108583
30
0.0
11
0.466771
21
118.898564
31
0.0
0
LINE
8
0
6
CONTINUOUS
10
4.270285
20
118.941043
30
0.0
11
3.839924
21
118.151072
31
0.0
0
LINE
8
0
6
CONTINUOUS
10
5.167671
20
118.962297
30
0.0
11
4.270285
21
118.941043
31
0.0
0
LINE
8
0
6
CONTINUOUS
10
5.634716
20
118.193561
30
0.0
11
5.167671
21
118.962297
31
0.0
0
LINE
8
0
6
CONTINUOUS
10
2.941779
20
115.151132
30
0.0
11
2.474744
21
115.919868
31
0.0
0
LINE
8
0
6
CONTINUOUS
10
1.577358
20
115.898614
30
0.0
11
1.146987
21
115.108643
31
0.0
0
LINE
8
0
6
CONTINUOUS
10
2.474744
20
115.919868
30
0.0
11
1.577358
21
115.898614
31
0.0
0
LINE
8
0
6
CONTINUOUS
10
6.333384
20
115.108643
30
0.0
11
6.800419
21
114.339887
31
0.0
0
LINE
8
0
6
CONTINUOUS
10
7.697815
20
114.361131
30
0.0
11
8.128176
21
115.151132
31
0.0
0
LINE
8
0
6
CONTINUOUS
10
6.800419
20
114.339887
30
0.0
11
7.697815
21
114.361131
31
0.0
0
LINE
8
0
6
CONTINUOUS
10
-0.467279
20
111.360531
30
0.0
11
0.430107
21
111.339277
31
0.0
0
LINE
8
0
6
CONTINUOUS
10
-0.897651
20
112.150492
30
0.0
11
-0.467279
21
111.360531
31
0.0
0
LINE
8
0
6
CONTINUOUS
10
0.430107
20
111.339277
30
0.0
11
0.897142
21
112.108023
31
0.0
0
LINE
8
0
6
CONTINUOUS
10
-5.635225
20
112.150492
30
0.0
11
-5.204854
21
111.360531
31
0.0
0
LINE
8
0
6
CONTINUOUS
10
-4.307467
20
111.339277
30
0.0
11
-3.840432
21
112.108023
31
0.0
0
LINE
8
0
6
CONTINUOUS
10
-5.204854
20
111.360531
30
0.0
11
-4.307467
21
111.339277
31
0.0
0
LINE
8
0
6
CONTINUOUS
10
-6.333902
20
115.151112
30
0.0
11
-6.800937
21
115.919848
31
0.0
0
LINE
8
0
6
CONTINUOUS
10
-7.698324
20
115.898614
30
0.0
11
-8.128675
21
115.108623
31
0.0
0
LINE
8
0
6
CONTINUOUS
10
-6.800937
20
115.919848
30
0.0
11
-7.698324
21
115.898614
31
0.0
0
LINE
8
0
6
CONTINUOUS
10
3.839924
20
112.150502
30
0.0
11
4.306959
21
111.381746
31
0.0
0
LINE
8
0
6
CONTINUOUS
10
5.204345
20
111.403000
30
0.0
11
5.634716
21
112.192991
31
0.0
0
LINE
8
0
6
CONTINUOUS
10
4.306959
20
111.381746
30
0.0
11
5.204345
21
111.403000
31
0.0
0
LINE
8
0
6
CONTINUOUS
10
-2.942288
20
115.108623
30
0.0
11
-2.475243
21
114.339867
31
0.0
0
LINE
8
0
6
CONTINUOUS
10
-1.577857
20
114.361111
30
0.0
11
-1.147495
21
115.151112
31
0.0
0
LINE
8
0
6
CONTINUOUS
10
-2.475243
20
114.339867
30
0.0
11
-1.577857
21
114.361111
31
0.0
0
LINE
8
0
6
CONTINUOUS
10
-6.764254
20
114.361131
30
0.0
11
-6.333902
21
115.151112
31
0.0
0
LINE
8
0
6
CONTINUOUS
10
-7.661640
20
114.339897
30
0.0
11
-6.764254
21
114.361131
31
0.0
0
LINE
8
0
6
CONTINUOUS
10
-8.128675
20
115.108623
30
0.0
11
-7.661640
21
114.339897
31
0.0
0
LINE
8
0
6
CONTINUOUS
10
-2.511917
20
115.898594
30
0.0
11
-2.942288
21
115.108623
31
0.0
0
LINE
8
0
6
CONTINUOUS
10
-1.614530
20
115.919848
30
0.0
11
-2.511917
21
115.898594
31
0.0
0
LINE
8
0
6
CONTINUOUS
10
-1.147495
20
115.151112
30
0.0
11
-1.614530
21
115.919848
31
0.0
0
LINE
8
0
6
CONTINUOUS
10
2.511408
20
114.361131
30
0.0
11
2.941779
21
115.151132
31
0.0
0
LINE
8
0
6
CONTINUOUS
10
1.614022
20
114.339887
30
0.0
11
2.511408
21
114.361131
31
0.0
0
LINE
8
0
6
CONTINUOUS
10
1.146987
20
115.108643
30
0.0
11
1.614022
21
114.339887
31
0.0
0
LINE
8
0
6
CONTINUOUS
10
6.763755
20
115.898614
30
0.0
11
6.333384
21
115.108643
31
0.0
0
LINE
8
0
6
CONTINUOUS
10
7.661141
20
115.919868
30
0.0
11
6.763755
21
115.898614
31
0.0
0
LINE
8
0
6
CONTINUOUS
10
8.128176
20
115.151132
30
0.0
11
7.661141
21
115.919868
31
0.0
0
LINE
8
0
6
CONTINUOUS
10
-5.168190
20
112.919268
30
0.0
11
-5.635225
21
112.150492
31
0.0
0
LINE
8
0
6
CONTINUOUS
10
-4.270803
20
112.897994
30
0.0
11
-5.168190
21
112.919268
31
0.0
0
LINE
8
0
6
CONTINUOUS
10
-3.840432
20
112.108023
30
0.0
11
-4.270803
21
112.897994
31
0.0
0
LINE
8
0
6
CONTINUOUS
10
-0.430616
20
112.919268
30
0.0
11
-0.897651
21
112.150492
31
0.0
0
LINE
8
0
6
CONTINUOUS
10
0.466771
20
112.897994
30
0.0
11
-0.430616
21
112.919268
31
0.0
0
LINE
8
0
6
CONTINUOUS
10
0.897142
20
112.108023
30
0.0
11
0.466771
21
112.897994
31
0.0
0
LINE
8
0
6
CONTINUOUS
10
4.270285
20
112.940483
30
0.0
11
3.839924
21
112.150502
31
0.0
0
LINE
8
0
6
CONTINUOUS
10
5.167671
20
112.961737
30
0.0
11
4.270285
21
112.940483
31
0.0
0
LINE
8
0
6
CONTINUOUS
10
5.634716
20
112.192991
30
0.0
11
5.167671
21
112.961737
31
0.0
0
LINE
8
0
6
CONTINUOUS
10
2.941779
20
109.150552
30
0.0
11
2.474744
21
109.919298
31
0.0
0
LINE
8
0
6
CONTINUOUS
10
1.577358
20
109.898044
30
0.0
11
1.146987
21
109.108063
31
0.0
0
LINE
8
0
6
CONTINUOUS
10
2.474744
20
109.919298
30
0.0
11
1.577358
21
109.898044
31
0.0
0
LINE
8
0
6
CONTINUOUS
10
6.333384
20
109.108063
30
0.0
11
6.800419
21
108.339307
31
0.0
0
LINE
8
0
6
CONTINUOUS
10
7.697815
20
108.360561
30
0.0
11
8.128176
21
109.150552
31
0.0
0
LINE
8
0
6
CONTINUOUS
10
6.800419
20
108.339307
30
0.0
11
7.697815
21
108.360561
31
0.0
0
LINE
8
0
6
CONTINUOUS
10
-6.333902
20
109.150532
30
0.0
11
-6.800937
21
109.919278
31
0.0
0
LINE
8
0
6
CONTINUOUS
10
-7.698324
20
109.898044
30
0.0
11
-8.128675
21
109.108053
31
0.0
0
LINE
8
0
6
CONTINUOUS
10
-6.800937
20
109.919278
30
0.0
11
-7.698324
21
109.898044
31
0.0
0
LINE
8
0
6
CONTINUOUS
10
-2.942288
20
109.108053
30
0.0
11
-2.475243
21
108.339287
31
0.0
0
LINE
8
0
6
CONTINUOUS
10
-1.577857
20
108.360541
30
0.0
11
-1.147495
21
109.150532
31
0.0
0
LINE
8
0
6
CONTINUOUS
10
-2.475243
20
108.339287
30
0.0
11
-1.577857
21
108.360541
31
0.0
0
LINE
8
0
6
CONTINUOUS
10
-6.764254
20
108.360561
30
0.0
11
-6.333902
21
109.150532
31
0.0
0
LINE
8
0
6
CONTINUOUS
10
-7.661640
20
108.339327
30
0.0
11
-6.764254
21
108.360561
31
0.0
0
LINE
8
0
6
CONTINUOUS
10
-8.128675
20
109.108053
30
0.0
11
-7.661640
21
108.339327
31
0.0
0
LINE
8
0
6
CONTINUOUS
10
-2.511917
20
109.898024
30
0.0
11
-2.942288
21
109.108053
31
0.0
0
LINE
8
0
6
CONTINUOUS
10
-1.614530
20
109.919278
30
0.0
11
-2.511917
21
109.898024
31
0.0
0
LINE
8
0
6
CONTINUOUS
10
-1.147495
20
109.150532
30
0.0
11
-1.614530
21
109.919278
31
0.0
0
LINE
8
0
6
CONTINUOUS
10
2.511408
20
108.360561
30
0.0
11
2.941779
21
109.150552
31
0.0
0
LINE
8
0
6
CONTINUOUS
10
1.614022
20
108.339307
30
0.0
11
2.511408
21
108.360561
31
0.0
0
LINE
8
0
6
CONTINUOUS
10
1.146987
20
109.108063
30
0.0
11
1.614022
21
108.339307
31
0.0
0
LINE
8
0
6
CONTINUOUS
10
6.763755
20
109.898044
30
0.0
11
6.333384
21
109.108063
31
0.0
0
LINE
8
0
6
CONTINUOUS
10
7.661141
20
109.919298
30
0.0
11
6.763755
21
109.898044
31
0.0
0
LINE
8
0
6
CONTINUOUS
10
8.128176
20
109.150552
30
0.0
11
7.661141
21
109.919298
31
0.0
0
LINE
8
0
6
CONTINUOUS
10
-12.467595
20
443.764695
30
0.0
11
-12.467595
21
442.840057
31
0.0
0
LINE
8
0
6
CONTINUOUS
10
-10.086550
20
444.014725
30
0.0
11
-11.857395
21
444.014725
31
0.0
0
LINE
8
0
6
CONTINUOUS
10
10.085971
20
444.014725
30
0.0
11
7.327806
21
444.014725
31
0.0
0
LINE
8
0
6
CONTINUOUS
10
3.852321
20
444.014725
30
0.0
11
-0.000294
21
444.014725
31
0.0
0
LINE
8
0
6
CONTINUOUS
10
-3.852900
20
444.014725
30
0.0
11
-7.328384
21
444.014725
31
0.0
0
LINE
8
0
6
CONTINUOUS
10
12.467006
20
444.014725
30
0.0
11
11.856817
21
444.014725
31
0.0
0
LINE
8
0
6
CONTINUOUS
10
12.467006
20
443.764695
30
0.0
11
12.467006
21
444.014725
31
0.0
0
LINE
8
0
6
CONTINUOUS
10
-0.000294
20
444.014725
30
0.0
11
-3.852900
21
444.014725
31
0.0
0
LINE
8
0
6
CONTINUOUS
10
7.327806
20
444.014725
30
0.0
11
3.852321
21
444.014725
31
0.0
0
LINE
8
0
6
CONTINUOUS
10
-12.467585
20
444.014725
30
0.0
11
-12.467595
21
443.764695
31
0.0
0
LINE
8
0
6
CONTINUOUS
10
-11.857395
20
444.014725
30
0.0
11
-12.467585
21
444.014725
31
0.0
0
LINE
8
0
6
CONTINUOUS
10
-7.328384
20
444.014725
30
0.0
11
-10.086550
21
444.014725
31
0.0
0
LINE
8
0
6
CONTINUOUS
10
11.856817
20
444.014725
30
0.0
11
10.085971
21
444.014725
31
0.0
0
LINE
8
0
6
CONTINUOUS
10
-11.857395
20
442.589986
30
0.0
11
-10.086550
21
442.589986
31
0.0
0
LINE
8
0
6
CONTINUOUS
10
7.327806
20
442.589986
30
0.0
11
10.085971
21
442.589986
31
0.0
0
LINE
8
0
6
CONTINUOUS
10
-0.000294
20
442.589986
30
0.0
11
3.852321
21
442.589986
31
0.0
0
LINE
8
0
6
CONTINUOUS
10
-7.328384
20
442.589986
30
0.0
11
-3.852900
21
442.589986
31
0.0
0
LINE
8
0
6
CONTINUOUS
10
12.467006
20
442.589986
30
0.0
11
12.467006
21
442.840057
31
0.0
0
LINE
8
0
6
CONTINUOUS
10
11.856817
20
442.589986
30
0.0
11
12.467006
21
442.589986
31
0.0
0
LINE
8
0
6
CONTINUOUS
10
-3.852900
20
442.589986
30
0.0
11
-0.000294
21
442.589986
31
0.0
0
LINE
8
0
6
CONTINUOUS
10
3.852321
20
442.589986
30
0.0
11
7.327806
21
442.589986
31
0.0
0
LINE
8
0
6
CONTINUOUS
10
-12.467595
20
442.840057
30
0.0
11
-12.467585
21
442.589986
31
0.0
0
LINE
8
0
6
CONTINUOUS
10
-12.467585
20
442.589986
30
0.0
11
-11.857395
21
442.589986
31
0.0
0
LINE
8
0
6
CONTINUOUS
10
-10.086550
20
442.589986
30
0.0
11
-7.328384
21
442.589986
31
0.0
0
LINE
8
0
6
CONTINUOUS
10
10.085971
20
442.589986
30
0.0
11
11.856817
21
442.589986
31
0.0
0
LINE
8
0
6
CONTINUOUS
10
12.467006
20
442.840057
30
0.0
11
12.467006
21
443.764695
31
0.0
0
LINE
8
0
6
CONTINUOUS
10
-3.852900
20
442.533094
30
0.0
11
-7.328384
21
442.533094
31
0.0
0
LINE
8
0
6
CONTINUOUS
10
12.467006
20
442.533094
30
0.0
11
11.856817
21
442.533094
31
0.0
0
LINE
8
0
6
CONTINUOUS
10
12.467006
20
442.306568
30
0.0
11
12.467006
21
442.533094
31
0.0
0
LINE
8
0
6
CONTINUOUS
10
-10.086550
20
442.533094
30
0.0
11
-11.857395
21
442.533094
31
0.0
0
LINE
8
0
6
CONTINUOUS
10
11.856817
20
442.533094
30
0.0
11
10.085971
21
442.533094
31
0.0
0
LINE
8
0
6
CONTINUOUS
10
-11.857395
20
442.533094
30
0.0
11
-12.467585
21
442.533094
31
0.0
0
LINE
8
0
6
CONTINUOUS
10
-12.467585
20
442.533094
30
0.0
11
-12.467585
21
442.306568
31
0.0
0
LINE
8
0
6
CONTINUOUS
10
7.327806
20
442.533094
30
0.0
11
3.852321
21
442.533094
31
0.0
0
LINE
8
0
6
CONTINUOUS
10
-7.328384
20
442.533094
30
0.0
11
-10.086550
21
442.533094
31
0.0
0
LINE
8
0
6
CONTINUOUS
10
3.852321
20
442.533094
30
0.0
11
-0.000294
21
442.533094
31
0.0
0
LINE
8
0
6
CONTINUOUS
10
10.085971
20
442.533094
30
0.0
11
7.327806
21
442.533094
31
0.0
0
LINE
8
0
6
CONTINUOUS
10
-0.000294
20
442.533094
30
0.0
11
-3.852900
21
442.533094
31
0.0
0
LINE
8
0
6
CONTINUOUS
10
-12.467595
20
490.999828
30
0.0
11
-12.467595
21
459.027958
31
0.0
0
LINE
8
0
6
CONTINUOUS
10
-12.467595
20
458.066382
30
0.0
11
-12.467595
21
444.590403
31
0.0
0
LINE
8
0
6
CONTINUOUS
10
-10.086550
20
491.499920
30
0.0
11
-11.857395
21
491.499920
31
0.0
0
LINE
8
0
6
CONTINUOUS
10
10.085971
20
491.499920
30
0.0
11
7.327806
21
491.499920
31
0.0
0
LINE
8
0
6
CONTINUOUS
10
3.852321
20
491.499920
30
0.0
11
-0.000294
21
491.499920
31
0.0
0
LINE
8
0
6
CONTINUOUS
10
-3.852900
20
491.499920
30
0.0
11
-7.328384
21
491.499920
31
0.0
0
LINE
8
0
6
CONTINUOUS
10
12.467006
20
490.999828
30
0.0
11
12.467006
21
491.499920
31
0.0
0
LINE
8
0
6
CONTINUOUS
10
12.467006
20
491.499920
30
0.0
11
11.856817
21
491.499920
31
0.0
0
LINE
8
0
6
CONTINUOUS
10
-0.000294
20
491.499920
30
0.0
11
-3.852900
21
491.499920
31
0.0
0
LINE
8
0
6
CONTINUOUS
10
7.327806
20
491.499920
30
0.0
11
3.852321
21
491.499920
31
0.0
0
LINE
8
0
6
CONTINUOUS
10
-12.467595
20
491.499920
30
0.0
11
-12.467595
21
490.999828
31
0.0
0
LINE
8
0
6
CONTINUOUS
10
-11.857395
20
491.499920
30
0.0
11
-12.467595
21
491.499920
31
0.0
0
LINE
8
0
6
CONTINUOUS
10
-7.328384
20
491.499920
30
0.0
11
-10.086550
21
491.499920
31
0.0
0
LINE
8
0
6
CONTINUOUS
10
11.856817
20
491.499920
30
0.0
11
10.085971
21
491.499920
31
0.0
0
LINE
8
0
6
CONTINUOUS
10
12.467006
20
459.027958
30
0.0
11
12.467006
21
490.999828
31
0.0
0
LINE
8
0
6
CONTINUOUS
10
-3.852900
20
444.090311
30
0.0
11
-0.000294
21
444.090311
31
0.0
0
LINE
8
0
6
CONTINUOUS
10
-12.467595
20
444.090311
30
0.0
11
-11.857395
21
444.090311
31
0.0
0
LINE
8
0
6
CONTINUOUS
10
-12.467595
20
444.590403
30
0.0
11
-12.467595
21
444.090311
31
0.0
0
LINE
8
0
6
CONTINUOUS
10
12.467006
20
444.090311
30
0.0
11
12.467006
21
444.590403
31
0.0
0
LINE
8
0
6
CONTINUOUS
10
11.856817
20
444.090311
30
0.0
11
12.467006
21
444.090311
31
0.0
0
LINE
8
0
6
CONTINUOUS
10
7.327806
20
444.090311
30
0.0
11
10.085971
21
444.090311
31
0.0
0
LINE
8
0
6
CONTINUOUS
10
-7.328384
20
444.090311
30
0.0
11
-3.852900
21
444.090311
31
0.0
0
LINE
8
0
6
CONTINUOUS
10
10.085971
20
444.090311
30
0.0
11
11.856817
21
444.090311
31
0.0
0
LINE
8
0
6
CONTINUOUS
10
-0.000294
20
444.090311
30
0.0
11
3.852321
21
444.090311
31
0.0
0
LINE
8
0
6
CONTINUOUS
10
-11.857395
20
444.090311
30
0.0
11
-10.086550
21
444.090311
31
0.0
0
LINE
8
0
6
CONTINUOUS
10
3.852321
20
444.090311
30
0.0
11
7.327806
21
444.090311
31
0.0
0
LINE
8
0
6
CONTINUOUS
10
-10.086550
20
444.090311
30
0.0
11
-7.328384
21
444.090311
31
0.0
0
LINE
8
0
6
CONTINUOUS
10
-12.467595
20
459.027958
30
0.0
11
-12.467595
21
458.066382
31
0.0
0
LINE
8
0
6
CONTINUOUS
10
12.467006
20
444.590403
30
0.0
11
12.467006
21
458.066382
31
0.0
0
LINE
8
0
6
CONTINUOUS
10
-12.467585
20
442.306568
30
0.0
11
-12.467585
21
24.025015
31
0.0
0
LINE
8
0
6
CONTINUOUS
10
12.467006
20
24.025015
30
0.0
11
12.467006
21
442.306568
31
0.0
0
LINE
8
0
6
CONTINUOUS
10
-12.467595
20
-442.840057
30
0.0
11
-12.467595
21
-443.764695
31
0.0
0
LINE
8
0
6
CONTINUOUS
10
-11.857395
20
-444.014725
30
0.0
11
-10.086550
21
-444.014725
31
0.0
0
LINE
8
0
6
CONTINUOUS
10
7.327806
20
-444.014725
30
0.0
11
10.085971
21
-444.014725
31
0.0
0
LINE
8
0
6
CONTINUOUS
10
-0.000294
20
-444.014725
30
0.0
11
3.852321
21
-444.014725
31
0.0
0
LINE
8
0
6
CONTINUOUS
10
-7.328384
20
-444.014725
30
0.0
11
-3.852900
21
-444.014725
31
0.0
0
LINE
8
0
6
CONTINUOUS
10
12.467006
20
-444.014725
30
0.0
11
12.467006
21
-443.764695
31
0.0
0
LINE
8
0
6
CONTINUOUS
10
11.856817
20
-444.014725
30
0.0
11
12.467006
21
-444.014725
31
0.0
0
LINE
8
0
6
CONTINUOUS
10
-3.852900
20
-444.014725
30
0.0
11
-0.000294
21
-444.014725
31
0.0
0
LINE
8
0
6
CONTINUOUS
10
3.852321
20
-444.014725
30
0.0
11
7.327806
21
-444.014725
31
0.0
0
LINE
8
0
6
CONTINUOUS
10
-12.467585
20
-444.014725
30
0.0
11
-11.857395
21
-444.014725
31
0.0
0
LINE
8
0
6
CONTINUOUS
10
-12.467595
20
-443.764695
30
0.0
11
-12.467585
21
-444.014725
31
0.0
0
LINE
8
0
6
CONTINUOUS
10
-10.086550
20
-444.014725
30
0.0
11
-7.328384
21
-444.014725
31
0.0
0
LINE
8
0
6
CONTINUOUS
10
10.085971
20
-444.014725
30
0.0
11
11.856817
21
-444.014725
31
0.0
0
LINE
8
0
6
CONTINUOUS
10
-10.086550
20
-442.589986
30
0.0
11
-11.857395
21
-442.589986
31
0.0
0
LINE
8
0
6
CONTINUOUS
10
10.085971
20
-442.589986
30
0.0
11
7.327806
21
-442.589986
31
0.0
0
LINE
8
0
6
CONTINUOUS
10
3.852321
20
-442.589986
30
0.0
11
-0.000294
21
-442.589986
31
0.0
0
LINE
8
0
6
CONTINUOUS
10
-3.852900
20
-442.589986
30
0.0
11
-7.328384
21
-442.589986
31
0.0
0
LINE
8
0
6
CONTINUOUS
10
12.467006
20
-442.589986
30
0.0
11
11.856817
21
-442.589986
31
0.0
0
LINE
8
0
6
CONTINUOUS
10
12.467006
20
-442.840057
30
0.0
11
12.467006
21
-442.589986
31
0.0
0
LINE
8
0
6
CONTINUOUS
10
-0.000294
20
-442.589986
30
0.0
11
-3.852900
21
-442.589986
31
0.0
0
LINE
8
0
6
CONTINUOUS
10
7.327806
20
-442.589986
30
0.0
11
3.852321
21
-442.589986
31
0.0
0
LINE
8
0
6
CONTINUOUS
10
-11.857395
20
-442.589986
30
0.0
11
-12.467585
21
-442.589986
31
0.0
0
LINE
8
0
6
CONTINUOUS
10
-12.467585
20
-442.589986
30
0.0
11
-12.467595
21
-442.840057
31
0.0
0
LINE
8
0
6
CONTINUOUS
10
-7.328384
20
-442.589986
30
0.0
11
-10.086550
21
-442.589986
31
0.0
0
LINE
8
0
6
CONTINUOUS
10
11.856817
20
-442.589986
30
0.0
11
10.085971
21
-442.589986
31
0.0
0
LINE
8
0
6
CONTINUOUS
10
12.467006
20
-443.764695
30
0.0
11
12.467006
21
-442.840057
31
0.0
0
LINE
8
0
6
CONTINUOUS
10
-7.328384
20
-442.533094
30
0.0
11
-3.852900
21
-442.533094
31
0.0
0
LINE
8
0
6
CONTINUOUS
10
12.467006
20
-442.533094
30
0.0
11
12.467006
21
-442.306568
31
0.0
0
LINE
8
0
6
CONTINUOUS
10
11.856817
20
-442.533094
30
0.0
11
12.467006
21
-442.533094
31
0.0
0
LINE
8
0
6
CONTINUOUS
10
-11.857395
20
-442.533094
30
0.0
11
-10.086550
21
-442.533094
31
0.0
0
LINE
8
0
6
CONTINUOUS
10
10.085971
20
-442.533094
30
0.0
11
11.856817
21
-442.533094
31
0.0
0
LINE
8
0
6
CONTINUOUS
10
-12.467585
20
-442.306568
30
0.0
11
-12.467585
21
-442.533094
31
0.0
0
LINE
8
0
6
CONTINUOUS
10
-12.467585
20
-442.533094
30
0.0
11
-11.857395
21
-442.533094
31
0.0
0
LINE
8
0
6
CONTINUOUS
10
3.852321
20
-442.533094
30
0.0
11
7.327806
21
-442.533094
31
0.0
0
LINE
8
0
6
CONTINUOUS
10
-10.086550
20
-442.533094
30
0.0
11
-7.328384
21
-442.533094
31
0.0
0
LINE
8
0
6
CONTINUOUS
10
-0.000294
20
-442.533094
30
0.0
11
3.852321
21
-442.533094
31
0.0
0
LINE
8
0
6
CONTINUOUS
10
7.327806
20
-442.533094
30
0.0
11
10.085971
21
-442.533094
31
0.0
0
LINE
8
0
6
CONTINUOUS
10
-3.852900
20
-442.533094
30
0.0
11
-0.000294
21
-442.533094
31
0.0
0
LINE
8
0
6
CONTINUOUS
10
-12.467595
20
-459.027918
30
0.0
11
-12.467595
21
-490.999828
31
0.0
0
LINE
8
0
6
CONTINUOUS
10
-12.467595
20
-458.066422
30
0.0
11
-12.467595
21
-459.027918
31
0.0
0
LINE
8
0
6
CONTINUOUS
10
-11.857395
20
-491.499890
30
0.0
11
-10.086550
21
-491.499890
31
0.0
0
LINE
8
0
6
CONTINUOUS
10
7.327806
20
-491.499890
30
0.0
11
10.085971
21
-491.499890
31
0.0
0
LINE
8
0
6
CONTINUOUS
10
-0.000294
20
-491.499890
30
0.0
11
3.852321
21
-491.499890
31
0.0
0
LINE
8
0
6
CONTINUOUS
10
-7.328384
20
-491.499890
30
0.0
11
-3.852900
21
-491.499890
31
0.0
0
LINE
8
0
6
CONTINUOUS
10
11.856817
20
-491.499890
30
0.0
11
12.467006
21
-491.499890
31
0.0
0
LINE
8
0
6
CONTINUOUS
10
12.467006
20
-491.499890
30
0.0
11
12.467006
21
-490.999828
31
0.0
0
LINE
8
0
6
CONTINUOUS
10
-3.852900
20
-491.499890
30
0.0
11
-0.000294
21
-491.499890
31
0.0
0
LINE
8
0
6
CONTINUOUS
10
3.852321
20
-491.499890
30
0.0
11
7.327806
21
-491.499890
31
0.0
0
LINE
8
0
6
CONTINUOUS
10
-12.467595
20
-491.499890
30
0.0
11
-11.857395
21
-491.499890
31
0.0
0
LINE
8
0
6
CONTINUOUS
10
-12.467595
20
-490.999828
30
0.0
11
-12.467595
21
-491.499890
31
0.0
0
LINE
8
0
6
CONTINUOUS
10
-10.086550
20
-491.499890
30
0.0
11
-7.328384
21
-491.499890
31
0.0
0
LINE
8
0
6
CONTINUOUS
10
10.085971
20
-491.499890
30
0.0
11
11.856817
21
-491.499890
31
0.0
0
LINE
8
0
6
CONTINUOUS
10
12.467006
20
-490.999828
30
0.0
11
12.467006
21
-459.027918
31
0.0
0
LINE
8
0
6
CONTINUOUS
10
-0.000294
20
-444.090311
30
0.0
11
-3.852900
21
-444.090311
31
0.0
0
LINE
8
0
6
CONTINUOUS
10
-12.467595
20
-444.090311
30
0.0
11
-12.467595
21
-444.590403
31
0.0
0
LINE
8
0
6
CONTINUOUS
10
-11.857395
20
-444.090311
30
0.0
11
-12.467595
21
-444.090311
31
0.0
0
LINE
8
0
6
CONTINUOUS
10
12.467006
20
-444.090311
30
0.0
11
11.856817
21
-444.090311
31
0.0
0
LINE
8
0
6
CONTINUOUS
10
12.467006
20
-444.590403
30
0.0
11
12.467006
21
-444.090311
31
0.0
0
LINE
8
0
6
CONTINUOUS
10
10.085971
20
-444.090311
30
0.0
11
7.327806
21
-444.090311
31
0.0
0
LINE
8
0
6
CONTINUOUS
10
-3.852900
20
-444.090311
30
0.0
11
-7.328384
21
-444.090311
31
0.0
0
LINE
8
0
6
CONTINUOUS
10
11.856817
20
-444.090311
30
0.0
11
10.085971
21
-444.090311
31
0.0
0
LINE
8
0
6
CONTINUOUS
10
3.852321
20
-444.090311
30
0.0
11
-0.000294
21
-444.090311
31
0.0
0
LINE
8
0
6
CONTINUOUS
10
-10.086550
20
-444.090311
30
0.0
11
-11.857395
21
-444.090311
31
0.0
0
LINE
8
0
6
CONTINUOUS
10
7.327806
20
-444.090311
30
0.0
11
3.852321
21
-444.090311
31
0.0
0
LINE
8
0
6
CONTINUOUS
10
-7.328384
20
-444.090311
30
0.0
11
-10.086550
21
-444.090311
31
0.0
0
LINE
8
0
6
CONTINUOUS
10
-12.467595
20
-444.590403
30
0.0
11
-12.467595
21
-458.066422
31
0.0
0
LINE
8
0
6
CONTINUOUS
10
12.467006
20
-459.027918
30
0.0
11
12.467006
21
-458.066422
31
0.0
0
LINE
8
0
6
CONTINUOUS
10
-12.467585
20
-24.025015
30
0.0
11
-12.467585
21
-442.306568
31
0.0
0
LINE
8
0
6
CONTINUOUS
10
12.467006
20
-442.306568
30
0.0
11
12.467006
21
-24.025015
31
0.0
0
LINE
8
0
6
CONTINUOUS
10
-11.904591
20
212.927472
30
0.0
11
-11.904562
21
208.651452
31
0.0
0
LINE
8
0
6
CONTINUOUS
10
-11.904562
20
208.651452
30
0.0
11
-11.904731
21
204.375413
31
0.0
0
LINE
8
0
6
CONTINUOUS
10
-11.904731
20
204.375413
30
0.0
11
-11.903963
21
200.099373
31
0.0
0
LINE
8
0
6
CONTINUOUS
10
-11.904591
20
214.366494
30
0.0
11
-11.904591
21
212.927472
31
0.0
0
LINE
8
0
6
CONTINUOUS
10
-11.903963
20
200.099373
30
0.0
11
-11.907025
21
195.823334
31
0.0
0
LINE
8
0
6
CONTINUOUS
10
11.904103
20
208.651452
30
0.0
11
11.904123
21
212.927472
31
0.0
0
LINE
8
0
6
CONTINUOUS
10
11.904272
20
204.375413
30
0.0
11
11.904103
21
208.651452
31
0.0
0
LINE
8
0
6
CONTINUOUS
10
11.903504
20
200.099373
30
0.0
11
11.904272
21
204.375413
31
0.0
0
LINE
8
0
6
CONTINUOUS
10
11.904123
20
212.927472
30
0.0
11
11.904123
21
214.366494
31
0.0
0
LINE
8
0
6
CONTINUOUS
10
11.906566
20
195.823334
30
0.0
11
11.903504
21
200.099373
31
0.0
0
LINE
8
0
6
CONTINUOUS
10
11.904123
20
214.366494
30
0.0
11
11.904123
21
215.078859
31
0.0
0
LINE
8
0
6
CONTINUOUS
10
-11.904591
20
215.078859
30
0.0
11
-11.904591
21
214.366494
31
0.0
0
LINE
8
0
6
CONTINUOUS
10
-1.017486
20
215.395914
30
0.0
11
-1.965909
21
215.395914
31
0.0
0
LINE
8
0
6
CONTINUOUS
10
-11.904582
20
215.395914
30
0.0
11
-11.904591
21
215.078859
31
0.0
0
LINE
8
0
6
CONTINUOUS
10
-11.807835
20
215.395914
30
0.0
11
-11.904582
21
215.395914
31
0.0
0
LINE
8
0
6
CONTINUOUS
10
-1.965909
20
215.395914
30
0.0
11
-3.166659
21
215.395914
31
0.0
0
LINE
8
0
6
CONTINUOUS
10
-3.166659
20
215.395914
30
0.0
11
-5.436596
21
215.395914
31
0.0
0
LINE
8
0
6
CONTINUOUS
10
-9.291595
20
215.395914
30
0.0
11
-10.842447
21
215.395914
31
0.0
0
LINE
8
0
6
CONTINUOUS
10
-5.436596
20
215.395914
30
0.0
11
-7.461086
21
215.395914
31
0.0
0
LINE
8
0
6
CONTINUOUS
10
1.965450
20
215.395914
30
0.0
11
1.017028
21
215.395914
31
0.0
0
LINE
8
0
6
CONTINUOUS
10
-10.842447
20
215.395914
30
0.0
11
-11.807835
21
215.395914
31
0.0
0
LINE
8
0
6
CONTINUOUS
10
-7.461086
20
215.395914
30
0.0
11
-9.291595
21
215.395914
31
0.0
0
LINE
8
0
6
CONTINUOUS
10
11.904123
20
215.395914
30
0.0
11
11.807376
21
215.395914
31
0.0
0
LINE
8
0
6
CONTINUOUS
10
11.904123
20
215.078859
30
0.0
11
11.904123
21
215.395914
31
0.0
0
LINE
8
0
6
CONTINUOUS
10
3.166201
20
215.395914
30
0.0
11
1.965450
21
215.395914
31
0.0
0
LINE
8
0
6
CONTINUOUS
10
5.436137
20
215.395914
30
0.0
11
3.166201
21
215.395914
31
0.0
0
LINE
8
0
6
CONTINUOUS
10
10.841988
20
215.395914
30
0.0
11
9.291136
21
215.395914
31
0.0
0
LINE
8
0
6
CONTINUOUS
10
7.460627
20
215.395914
30
0.0
11
5.436137
21
215.395914
31
0.0
0
LINE
8
0
6
CONTINUOUS
10
11.807376
20
215.395914
30
0.0
11
10.841988
21
215.395914
31
0.0
0
LINE
8
0
6
CONTINUOUS
10
9.291136
20
215.395914
30
0.0
11
7.460627
21
215.395914
31
0.0
0
LINE
8
0
6
CONTINUOUS
10
-2.507030
20
215.395914
30
0.0
11
-4.843282
21
215.395914
31
0.0
0
LINE
8
0
6
CONTINUOUS
10
-0.000234
20
215.395914
30
0.0
11
-2.507030
21
215.395914
31
0.0
0
LINE
8
0
6
CONTINUOUS
10
-4.843282
20
215.395914
30
0.0
11
-6.890682
21
215.395914
31
0.0
0
LINE
8
0
6
CONTINUOUS
10
-8.522342
20
215.395914
30
0.0
11
-9.648469
21
215.395914
31
0.0
0
LINE
8
0
6
CONTINUOUS
10
-6.890682
20
215.395914
30
0.0
11
-8.522342
21
215.395914
31
0.0
0
LINE
8
0
6
CONTINUOUS
10
-9.648469
20
215.395914
30
0.0
11
-10.186278
21
215.395914
31
0.0
0
LINE
8
0
6
CONTINUOUS
10
4.842823
20
215.395914
30
0.0
11
2.506571
21
215.395914
31
0.0
0
LINE
8
0
6
CONTINUOUS
10
2.506571
20
215.395914
30
0.0
11
-0.000234
21
215.395914
31
0.0
0
LINE
8
0
6
CONTINUOUS
10
6.890223
20
215.395914
30
0.0
11
4.842823
21
215.395914
31
0.0
0
LINE
8
0
6
CONTINUOUS
10
9.648010
20
215.395914
30
0.0
11
8.521884
21
215.395914
31
0.0
0
LINE
8
0
6
CONTINUOUS
10
8.521884
20
215.395914
30
0.0
11
6.890223
21
215.395914
31
0.0
0
LINE
8
0
6
CONTINUOUS
10
10.185820
20
215.395914
30
0.0
11
9.648010
21
215.395914
31
0.0
0
LINE
8
0
6
CONTINUOUS
10
1.017028
20
215.395914
30
0.0
11
-0.000234
21
215.395914
31
0.0
0
LINE
8
0
6
CONTINUOUS
10
-0.000234
20
215.395914
30
0.0
11
-1.017486
21
215.395914
31
0.0
0
LINE
8
0
6
CONTINUOUS
10
-0.000234
20
215.078859
30
0.0
11
-0.000234
21
215.395914
31
0.0
0
LINE
8
0
6
CONTINUOUS
10
-0.000234
20
214.247680
30
0.0
11
1.017087
21
214.237928
31
0.0
0
LINE
8
0
6
CONTINUOUS
10
-1.017546
20
214.237928
30
0.0
11
-0.000234
21
214.247680
31
0.0
0
LINE
8
0
6
CONTINUOUS
10
-0.000234
20
214.247680
30
0.0
11
-0.000234
21
215.078859
31
0.0
0
LINE
8
0
6
CONTINUOUS
10
-11.907025
20
195.823334
30
0.0
11
-11.895066
21
191.351505
31
0.0
0
LINE
8
0
6
CONTINUOUS
10
11.894608
20
191.351505
30
0.0
11
11.906566
21
195.823334
31
0.0
0
LINE
8
0
6
CONTINUOUS
10
11.727137
20
190.558684
30
0.0
11
11.727137
21
190.818296
31
0.0
0
LINE
8
0
6
CONTINUOUS
10
10.739826
20
191.035541
30
0.0
11
11.368847
21
191.035541
31
0.0
0
LINE
8
0
6
CONTINUOUS
10
-0.873793
20
191.035541
30
0.0
11
-0.000234
21
191.035541
31
0.0
0
LINE
8
0
6
CONTINUOUS
10
11.406059
20
191.035541
30
0.0
11
11.894308
21
191.239002
31
0.0
0
LINE
8
0
6
CONTINUOUS
10
5.782289
20
191.035541
30
0.0
11
7.860149
21
191.035541
31
0.0
0
LINE
8
0
6
CONTINUOUS
10
-0.000234
20
191.035541
30
0.0
11
0.873334
21
191.035541
31
0.0
0
LINE
8
0
6
CONTINUOUS
10
-9.543065
20
191.035541
30
0.0
11
-7.860608
21
191.035541
31
0.0
0
LINE
8
0
6
CONTINUOUS
10
-10.740285
20
191.035541
30
0.0
11
-9.543065
21
191.035541
31
0.0
0
LINE
8
0
6
CONTINUOUS
10
1.773483
20
191.035541
30
0.0
11
3.469904
21
191.035541
31
0.0
0
LINE
8
0
6
CONTINUOUS
10
7.860149
20
191.035541
30
0.0
11
9.542607
21
191.035541
31
0.0
0
LINE
8
0
6
CONTINUOUS
10
9.542607
20
191.035541
30
0.0
11
10.739826
21
191.035541
31
0.0
0
LINE
8
0
6
CONTINUOUS
10
-11.369305
20
191.035541
30
0.0
11
-10.740285
21
191.035541
31
0.0
0
LINE
8
0
6
CONTINUOUS
10
-7.860608
20
191.035541
30
0.0
11
-5.782748
21
191.035541
31
0.0
0
LINE
8
0
6
CONTINUOUS
10
0.873334
20
191.035541
30
0.0
11
1.773483
21
191.035541
31
0.0
0
LINE
8
0
6
CONTINUOUS
10
-11.894757
20
191.239002
30
0.0
11
-11.406518
21
191.035541
31
0.0
0
LINE
8
0
6
CONTINUOUS
10
-5.782748
20
191.035541
30
0.0
11
-3.470363
21
191.035541
31
0.0
0
LINE
8
0
6
CONTINUOUS
10
3.469904
20
191.035541
30
0.0
11
5.782289
21
191.035541
31
0.0
0
LINE
8
0
6
CONTINUOUS
10
-3.470363
20
191.035541
30
0.0
11
-1.773942
21
191.035541
31
0.0
0
LINE
8
0
6
CONTINUOUS
10
-1.773942
20
191.035541
30
0.0
11
-0.873793
21
191.035541
31
0.0
0
LINE
8
0
6
CONTINUOUS
10
-0.000234
20
190.818296
30
0.0
11
-0.000234
21
190.558684
31
0.0
0
LINE
8
0
6
CONTINUOUS
10
10.163478
20
190.558684
30
0.0
11
10.163478
21
190.818296
31
0.0
0
LINE
8
0
6
CONTINUOUS
10
5.863456
20
190.818296
30
0.0
11
5.863456
21
190.558684
31
0.0
0
LINE
8
0
6
CONTINUOUS
10
-5.863915
20
190.558684
30
0.0
11
-5.863915
21
190.818296
31
0.0
0
LINE
8
0
6
CONTINUOUS
10
-10.163947
20
190.558684
30
0.0
11
-10.163947
21
190.818296
31
0.0
0
LINE
8
0
6
CONTINUOUS
10
-11.727596
20
190.818296
30
0.0
11
-11.727596
21
190.558684
31
0.0
0
LINE
8
0
6
CONTINUOUS
10
-0.984852
20
191.239002
30
0.0
11
-0.000234
21
191.239002
31
0.0
0
LINE
8
0
6
CONTINUOUS
10
-0.000234
20
191.239002
30
0.0
11
0.984393
21
191.239002
31
0.0
0
LINE
8
0
6
CONTINUOUS
10
11.894308
20
191.239002
30
0.0
11
11.894608
21
191.351505
31
0.0
0
LINE
8
0
6
CONTINUOUS
10
1.962817
20
191.239002
30
0.0
11
3.781417
21
191.239002
31
0.0
0
LINE
8
0
6
CONTINUOUS
10
6.189032
20
191.239002
30
0.0
11
8.310319
21
191.239002
31
0.0
0
LINE
8
0
6
CONTINUOUS
10
11.223129
20
191.239002
30
0.0
11
11.856837
21
191.239002
31
0.0
0
LINE
8
0
6
CONTINUOUS
10
8.310319
20
191.239002
30
0.0
11
10.014898
21
191.239002
31
0.0
0
LINE
8
0
6
CONTINUOUS
10
-11.895066
20
191.351505
30
0.0
11
-11.894757
21
191.239002
31
0.0
0
LINE
8
0
6
CONTINUOUS
10
-6.189491
20
191.239002
30
0.0
11
-3.781876
21
191.239002
31
0.0
0
LINE
8
0
6
CONTINUOUS
10
-11.223578
20
191.239002
30
0.0
11
-10.015367
21
191.239002
31
0.0
0
LINE
8
0
6
CONTINUOUS
10
-8.310777
20
191.239002
30
0.0
11
-6.189491
21
191.239002
31
0.0
0
LINE
8
0
6
CONTINUOUS
10
-11.857296
20
191.239002
30
0.0
11
-11.223578
21
191.239002
31
0.0
0
LINE
8
0
6
CONTINUOUS
10
-10.015367
20
191.239002
30
0.0
11
-8.310777
21
191.239002
31
0.0
0
LINE
8
0
6
CONTINUOUS
10
0.984393
20
191.239002
30
0.0
11
1.962817
21
191.239002
31
0.0
0
LINE
8
0
6
CONTINUOUS
10
3.781417
20
191.239002
30
0.0
11
6.189032
21
191.239002
31
0.0
0
LINE
8
0
6
CONTINUOUS
10
10.014898
20
191.239002
30
0.0
11
11.223129
21
191.239002
31
0.0
0
LINE
8
0
6
CONTINUOUS
10
-3.781876
20
191.239002
30
0.0
11
-1.963276
21
191.239002
31
0.0
0
LINE
8
0
6
CONTINUOUS
10
-1.963276
20
191.239002
30
0.0
11
-0.984852
21
191.239002
31
0.0
0
LINE
8
0
6
CONTINUOUS
10
10.372560
20
189.538506
30
0.0
11
10.372560
21
20.417531
31
0.0
0
LINE
8
0
6
CONTINUOUS
10
11.968374
20
20.417531
30
0.0
11
11.968374
21
189.538506
31
0.0
0
LINE
8
0
6
CONTINUOUS
10
-5.984539
20
189.538506
30
0.0
11
-5.984539
21
20.417531
31
0.0
0
LINE
8
0
6
CONTINUOUS
10
-11.968833
20
189.538506
30
0.0
11
-11.968833
21
20.417531
31
0.0
0
LINE
8
0
6
CONTINUOUS
10
-10.373028
20
20.417531
30
0.0
11
-10.373028
21
189.538506
31
0.0
0
LINE
8
0
6
CONTINUOUS
10
-0.000234
20
189.538506
30
0.0
11
-0.000234
21
172.914780
31
0.0
0
LINE
8
0
6
CONTINUOUS
10
-0.000234
20
171.355190
30
0.0
11
-0.000234
21
166.914205
31
0.0
0
LINE
8
0
6
CONTINUOUS
10
-0.000234
20
165.354610
30
0.0
11
-0.000234
21
160.913630
31
0.0
0
LINE
8
0
6
CONTINUOUS
10
-0.000234
20
159.354045
30
0.0
11
-0.000234
21
154.913065
31
0.0
0
LINE
8
0
6
CONTINUOUS
10
-0.000234
20
153.353470
30
0.0
11
-0.000234
21
148.912490
31
0.0
0
LINE
8
0
6
CONTINUOUS
10
-0.000234
20
147.352895
30
0.0
11
-0.000234
21
142.911925
31
0.0
0
LINE
8
0
6
CONTINUOUS
10
-0.000234
20
141.352330
30
0.0
11
-0.000234
21
136.911345
31
0.0
0
LINE
8
0
6
CONTINUOUS
10
-0.000234
20
135.351750
30
0.0
11
-0.000234
21
130.910775
31
0.0
0
LINE
8
0
6
CONTINUOUS
10
-0.000234
20
129.351180
30
0.0
11
-0.000234
21
124.910195
31
0.0
0
LINE
8
0
6
CONTINUOUS
10
-0.000234
20
123.350600
30
0.0
11
-0.000234
21
118.909630
31
0.0
0
LINE
8
0
6
CONTINUOUS
10
-0.000234
20
117.350040
30
0.0
11
-0.000234
21
112.909065
31
0.0
0
LINE
8
0
6
CONTINUOUS
10
-0.000234
20
111.349470
30
0.0
11
-0.000234
21
20.417531
31
0.0
0
LINE
8
0
6
CONTINUOUS
10
5.984080
20
20.417531
30
0.0
11
5.984080
21
189.538506
31
0.0
0
LINE
8
0
6
CONTINUOUS
10
7.721832
20
-82.216726
30
0.0
11
7.721832
21
-20.004067
31
0.0
0
LINE
8
0
6
CONTINUOUS
10
-7.722291
20
-20.004067
30
0.0
11
-7.722291
21
-82.216726
31
0.0
0
LINE
8
0
6
CONTINUOUS
10
6.691903
20
-82.216726
30
0.0
11
6.691903
21
-20.004067
31
0.0
0
LINE
8
0
6
CONTINUOUS
10
-3.862435
20
-82.216726
30
0.0
11
-3.862435
21
-20.004067
31
0.0
0
LINE
8
0
6
CONTINUOUS
10
-6.692362
20
-20.004067
30
0.0
11
-6.692362
21
-82.216726
31
0.0
0
LINE
8
0
6
CONTINUOUS
10
3.861976
20
-82.216726
30
0.0
11
3.861976
21
-20.004067
31
0.0
0
LINE
8
0
6
CONTINUOUS
10
-0.000234
20
-20.004067
30
0.0
11
-0.000234
21
-82.216726
31
0.0
0
LINE
8
0
6
CONTINUOUS
10
11.424172
20
-111.828116
30
0.0
11
11.424162
21
-82.544443
31
0.0
0
LINE
8
0
6
CONTINUOUS
10
-11.424620
20
-82.544443
30
0.0
11
-11.424600
21
-111.828116
31
0.0
0
LINE
8
0
6
CONTINUOUS
10
-11.424620
20
-82.216726
30
0.0
11
-11.424620
21
-82.544443
31
0.0
0
LINE
8
0
6
CONTINUOUS
10
-10.865467
20
-82.216726
30
0.0
11
-11.424620
21
-82.216726
31
0.0
0
LINE
8
0
6
CONTINUOUS
10
-9.242753
20
-82.216726
30
0.0
11
-10.865467
21
-82.216726
31
0.0
0
LINE
8
0
6
CONTINUOUS
10
-6.715312
20
-82.216726
30
0.0
11
-9.242753
21
-82.216726
31
0.0
0
LINE
8
0
6
CONTINUOUS
10
-3.530555
20
-82.216726
30
0.0
11
-6.715312
21
-82.216726
31
0.0
0
LINE
8
0
6
CONTINUOUS
10
-0.000224
20
-82.216726
30
0.0
11
-3.530555
21
-82.216726
31
0.0
0
LINE
8
0
6
CONTINUOUS
10
3.530106
20
-82.216726
30
0.0
11
-0.000224
21
-82.216726
31
0.0
0
LINE
8
0
6
CONTINUOUS
10
6.714863
20
-82.216726
30
0.0
11
3.530106
21
-82.216726
31
0.0
0
LINE
8
0
6
CONTINUOUS
10
9.242294
20
-82.216726
30
0.0
11
6.714863
21
-82.216726
31
0.0
0
LINE
8
0
6
CONTINUOUS
10
10.865008
20
-82.216726
30
0.0
11
9.242294
21
-82.216726
31
0.0
0
LINE
8
0
6
CONTINUOUS
10
11.424162
20
-82.544443
30
0.0
11
11.424162
21
-82.216726
31
0.0
0
LINE
8
0
6
CONTINUOUS
10
11.424162
20
-82.216726
30
0.0
11
10.865008
21
-82.216726
31
0.0
0
LINE
8
0
6
CONTINUOUS
10
-11.424600
20
-112.155833
30
0.0
11
-10.865457
21
-112.155833
31
0.0
0
LINE
8
0
6
CONTINUOUS
10
-11.424600
20
-111.828116
30
0.0
11
-11.424600
21
-112.155833
31
0.0
0
LINE
8
0
6
CONTINUOUS
10
-10.865457
20
-112.155833
30
0.0
11
-9.242733
21
-112.155833
31
0.0
0
LINE
8
0
6
CONTINUOUS
10
-9.242733
20
-112.155833
30
0.0
11
-6.715302
21
-112.155833
31
0.0
0
LINE
8
0
6
CONTINUOUS
10
-6.715302
20
-112.155833
30
0.0
11
-3.530545
21
-112.155833
31
0.0
0
LINE
8
0
6
CONTINUOUS
10
-3.530545
20
-112.155833
30
0.0
11
-0.000214
21
-112.155833
31
0.0
0
LINE
8
0
6
CONTINUOUS
10
-0.000214
20
-112.155833
30
0.0
11
3.530116
21
-112.155833
31
0.0
0
LINE
8
0
6
CONTINUOUS
10
3.530116
20
-112.155833
30
0.0
11
6.714873
21
-112.155833
31
0.0
0
LINE
8
0
6
CONTINUOUS
10
6.714873
20
-112.155833
30
0.0
11
9.242314
21
-112.155833
31
0.0
0
LINE
8
0
6
CONTINUOUS
10
9.242314
20
-112.155833
30
0.0
11
10.865018
21
-112.155833
31
0.0
0
LINE
8
0
6
CONTINUOUS
10
11.424172
20
-112.155833
30
0.0
11
11.424172
21
-111.828116
31
0.0
0
LINE
8
0
6
CONTINUOUS
10
10.865018
20
-112.155833
30
0.0
11
11.424172
21
-112.155833
31
0.0
0
LINE
8
0
6
CONTINUOUS
10
-15.999940
20
-22.038481
30
0.0
11
-15.454670
21
-22.038481
31
0.0
0
LINE
8
0
6
CONTINUOUS
10
-15.999920
20
-21.338819
30
0.0
11
-15.999940
21
-22.038481
31
0.0
0
LINE
8
0
6
CONTINUOUS
10
9.543255
20
19.456086
30
0.0
11
9.543255
21
-21.338799
31
0.0
0
LINE
8
0
6
CONTINUOUS
10
9.543255
20
-22.038461
30
0.0
11
9.846041
21
-22.038471
31
0.0
0
LINE
8
0
6
CONTINUOUS
10
9.543255
20
-21.338799
30
0.0
11
9.543255
21
-22.038461
31
0.0
0
LINE
8
0
6
CONTINUOUS
10
-11.947459
20
20.129383
30
0.0
11
-12.368894
21
20.129383
31
0.0
0
LINE
8
0
6
CONTINUOUS
10
13.856193
20
-22.038481
30
0.0
11
15.454680
21
-22.038481
31
0.0
0
LINE
8
0
6
CONTINUOUS
10
-10.711840
20
20.129383
30
0.0
11
-11.947459
21
20.129383
31
0.0
0
LINE
8
0
6
CONTINUOUS
10
-8.746086
20
-22.038481
30
0.0
11
-7.722291
21
-22.038481
31
0.0
0
LINE
8
0
6
CONTINUOUS
10
-15.454670
20
-22.038481
30
0.0
11
-13.856183
21
-22.038481
31
0.0
0
LINE
8
0
6
CONTINUOUS
10
-9.543255
20
-22.038461
30
0.0
11
-9.543255
21
-21.338799
31
0.0
0
LINE
8
0
6
CONTINUOUS
10
-9.846041
20
-22.038471
30
0.0
11
-9.543255
21
-22.038461
31
0.0
0
LINE
8
0
6
CONTINUOUS
10
-13.856183
20
-22.038481
30
0.0
11
-11.313392
21
-22.038481
31
0.0
0
LINE
8
0
6
CONTINUOUS
10
9.543255
20
20.129393
30
0.0
11
9.543255
21
19.456086
31
0.0
0
LINE
8
0
6
CONTINUOUS
10
9.846041
20
20.129393
30
0.0
11
9.543255
21
20.129393
31
0.0
0
LINE
8
0
6
CONTINUOUS
10
16.000000
20
19.456086
30
0.0
11
16.000000
21
20.129383
31
0.0
0
LINE
8
0
6
CONTINUOUS
10
16.000000
20
20.129383
30
0.0
11
15.454750
21
20.129383
31
0.0
0
LINE
8
0
6
CONTINUOUS
10
-15.022264
20
20.129383
30
0.0
11
-15.454750
21
20.129383
31
0.0
0
LINE
8
0
6
CONTINUOUS
10
-13.468550
20
20.129383
30
0.0
11
-15.022264
21
20.129383
31
0.0
0
LINE
8
0
6
CONTINUOUS
10
-15.454750
20
20.129383
30
0.0
11
-13.856273
21
20.129373
31
0.0
0
LINE
8
0
6
CONTINUOUS
10
15.454750
20
20.129383
30
0.0
11
13.856273
21
20.129383
31
0.0
0
LINE
8
0
6
CONTINUOUS
10
15.999940
20
-22.038471
30
0.0
11
15.999920
21
-21.338829
31
0.0
0
LINE
8
0
6
CONTINUOUS
10
15.454680
20
-22.038481
30
0.0
11
15.982336
21
-22.038471
31
0.0
0
LINE
8
0
6
CONTINUOUS
10
15.999920
20
-21.338829
30
0.0
11
16.000000
21
19.456086
31
0.0
0
LINE
8
0
6
CONTINUOUS
10
7.721832
20
-22.038481
30
0.0
11
8.746086
21
-22.038481
31
0.0
0
LINE
8
0
6
CONTINUOUS
10
11.313402
20
-22.038481
30
0.0
11
13.856193
21
-22.038481
31
0.0
0
LINE
8
0
6
CONTINUOUS
10
-15.454750
20
20.129383
30
0.0
11
-15.982944
21
20.129383
31
0.0
0
LINE
8
0
6
CONTINUOUS
10
-16.000000
20
20.129383
30
0.0
11
-16.000000
21
19.456086
31
0.0
0
LINE
8
0
6
CONTINUOUS
10
9.846041
20
-22.038471
30
0.0
11
11.313402
21
-22.038481
31
0.0
0
LINE
8
0
6
CONTINUOUS
10
12.368894
20
20.129383
30
0.0
11
11.947459
21
20.129383
31
0.0
0
LINE
8
0
6
CONTINUOUS
10
11.947459
20
20.129383
30
0.0
11
10.711840
21
20.129383
31
0.0
0
LINE
8
0
6
CONTINUOUS
10
13.856273
20
20.129383
30
0.0
11
11.313502
21
20.129383
31
0.0
0
LINE
8
0
6
CONTINUOUS
10
11.313502
20
20.129383
30
0.0
11
9.846041
21
20.129393
31
0.0
0
LINE
8
0
6
CONTINUOUS
10
-16.000000
20
19.456086
30
0.0
11
-15.999920
21
-21.338819
31
0.0
0
LINE
8
0
6
CONTINUOUS
10
-9.543255
20
20.129393
30
0.0
11
-9.846041
21
20.129393
31
0.0
0
LINE
8
0
6
CONTINUOUS
10
-9.543255
20
19.456086
30
0.0
11
-9.543255
21
20.129393
31
0.0
0
LINE
8
0
6
CONTINUOUS
10
-9.543255
20
-21.338799
30
0.0
11
-9.543255
21
19.456086
31
0.0
0
LINE
8
0
6
CONTINUOUS
10
-13.856273
20
20.129373
30
0.0
11
-11.313492
21
20.129373
31
0.0
0
LINE
8
0
6
CONTINUOUS
10
-11.099782
20
20.129383
30
0.0
11
-13.468550
21
20.129383
31
0.0
0
LINE
8
0
6
CONTINUOUS
10
-9.846041
20
20.129393
30
0.0
11
-11.313492
21
20.129373
31
0.0
0
LINE
8
0
6
CONTINUOUS
10
-11.313392
20
-22.038481
30
0.0
11
-9.846041
21
-22.038471
31
0.0
0
LINE
8
0
6
CONTINUOUS
10
-15.982945
20
22.743834
30
0.0
11
-15.982944
21
20.129383
31
0.0
0
LINE
8
0
6
CONTINUOUS
10
-15.982935
20
-22.038481
30
0.0
11
-15.982935
21
-22.743834
31
0.0
0
LINE
8
0
6
CONTINUOUS
10
15.982336
20
-22.743834
30
0.0
11
15.982336
21
-22.038471
31
0.0
0
LINE
8
0
6
CONTINUOUS
10
15.982336
20
20.129383
30
0.0
11
15.982336
21
22.743834
31
0.0
0
LINE
8
0
6
CONTINUOUS
10
-7.991614
20
-24.025015
30
0.0
11
-7.722291
21
-24.025015
31
0.0
0
LINE
8
0
6
CONTINUOUS
10
-11.301733
20
-24.025015
30
0.0
11
-7.991614
21
-24.025015
31
0.0
0
LINE
8
0
6
CONTINUOUS
10
-13.841671
20
-24.025015
30
0.0
11
-11.301733
21
-24.025015
31
0.0
0
LINE
8
0
6
CONTINUOUS
10
-11.968833
20
24.025015
30
0.0
11
-13.841671
21
24.025015
31
0.0
0
LINE
8
0
6
CONTINUOUS
10
-15.438343
20
-24.025015
30
0.0
11
-13.841671
21
-24.025015
31
0.0
0
LINE
8
0
6
CONTINUOUS
10
-13.841671
20
24.025015
30
0.0
11
-15.438333
21
24.025015
31
0.0
0
LINE
8
0
6
CONTINUOUS
10
-15.982935
20
-24.025015
30
0.0
11
-15.438343
21
-24.025015
31
0.0
0
LINE
8
0
6
CONTINUOUS
10
-15.982935
20
-22.743834
30
0.0
11
-15.982935
21
-24.025015
31
0.0
0
LINE
8
0
6
CONTINUOUS
10
-15.982935
20
24.025025
30
0.0
11
-15.982945
21
22.743834
31
0.0
0
LINE
8
0
6
CONTINUOUS
10
-15.438333
20
24.025015
30
0.0
11
-15.982935
21
24.025025
31
0.0
0
LINE
8
0
6
CONTINUOUS
10
15.982336
20
-24.025025
30
0.0
11
15.982336
21
-22.743834
31
0.0
0
LINE
8
0
6
CONTINUOUS
10
15.437745
20
-24.025015
30
0.0
11
15.982336
21
-24.025025
31
0.0
0
LINE
8
0
6
CONTINUOUS
10
15.982336
20
24.025015
30
0.0
11
15.437745
21
24.025015
31
0.0
0
LINE
8
0
6
CONTINUOUS
10
15.982336
20
22.743834
30
0.0
11
15.982336
21
24.025015
31
0.0
0
LINE
8
0
6
CONTINUOUS
10
13.841072
20
-24.025015
30
0.0
11
15.437745
21
-24.025015
31
0.0
0
LINE
8
0
6
CONTINUOUS
10
15.437745
20
24.025015
30
0.0
11
13.841072
21
24.025015
31
0.0
0
LINE
8
0
6
CONTINUOUS
10
11.301134
20
-24.025015
30
0.0
11
13.841072
21
-24.025015
31
0.0
0
LINE
8
0
6
CONTINUOUS
10
13.841072
20
24.025015
30
0.0
11
11.968374
21
24.025015
31
0.0
0
LINE
8
0
6
CONTINUOUS
10
7.991026
20
-24.025015
30
0.0
11
11.301134
21
-24.025015
31
0.0
0
LINE
8
0
6
CONTINUOUS
10
7.721832
20
-24.025015
30
0.0
11
7.991026
21
-24.025015
31
0.0
0
LINE
8
0
6
CONTINUOUS
10
10.867671
20
189.738707
30
0.0
11
10.867671
21
190.437989
31
0.0
0
LINE
8
0
6
CONTINUOUS
10
9.418552
20
189.738707
30
0.0
11
9.418552
21
190.437989
31
0.0
0
LINE
8
0
6
CONTINUOUS
10
5.433963
20
189.738707
30
0.0
11
5.433963
21
190.437989
31
0.0
0
LINE
8
0
6
CONTINUOUS
10
-0.000234
20
190.437989
30
0.0
11
-0.000234
21
189.738707
31
0.0
0
LINE
8
0
6
CONTINUOUS
10
-5.434422
20
189.738707
30
0.0
11
-5.434422
21
190.437989
31
0.0
0
LINE
8
0
6
CONTINUOUS
10
-9.419011
20
189.738707
30
0.0
11
-9.419011
21
190.437989
31
0.0
0
LINE
8
0
6
CONTINUOUS
10
-10.868130
20
190.437989
30
0.0
11
-10.868130
21
189.738707
31
0.0
0
LINE
8
0
6
CONTINUOUS
10
-9.049470
20
20.204058
30
0.0
11
-9.049470
21
19.526190
31
0.0
0
LINE
8
0
6
CONTINUOUS
10
-5.221440
20
20.204058
30
0.0
11
-5.221440
21
19.526190
31
0.0
0
LINE
8
0
6
CONTINUOUS
10
9.049001
20
20.204058
30
0.0
11
9.049001
21
19.526190
31
0.0
0
LINE
8
0
6
CONTINUOUS
10
5.220971
20
19.526190
30
0.0
11
5.220971
21
20.204058
31
0.0
0
LINE
8
0
6
CONTINUOUS
10
-0.000234
20
20.204058
30
0.0
11
-0.000234
21
19.526190
31
0.0
0
LINE
8
0
6
CONTINUOUS
10
11.962101
20
491.499920
30
0.0
11
-0.000294
21
491.500000
31
0.0
0
LINE
8
0
6
CONTINUOUS
10
-0.000294
20
491.500000
30
0.0
11
-11.962679
21
491.499920
31
0.0
0
LINE
8
0
6
CONTINUOUS
10
12.467006
20
-458.066422
30
0.0
11
12.467006
21
-444.590403
31
0.0
0
LINE
8
0
6
CONTINUOUS
10
12.467006
20
458.066382
30
0.0
11
12.467006
21
459.027958
31
0.0
0
LINE
8
0
6
CONTINUOUS
10
-5.984539
20
-20.004067
30
0.0
11
-0.000234
21
-20.004067
31
0.0
0
LINE
8
0
6
CONTINUOUS
10
-5.984539
20
-20.004067
30
0.0
11
-5.984539
21
-19.504015
31
0.0
0
LINE
8
0
6
CONTINUOUS
10
-9.543255
20
-20.004067
30
0.0
11
-5.984539
21
-20.004067
31
0.0
0
LINE
8
0
6
CONTINUOUS
10
-0.000234
20
-20.004067
30
0.0
11
5.984080
21
-20.004067
31
0.0
0
LINE
8
0
6
CONTINUOUS
10
-0.000234
20
-19.504015
30
0.0
11
-0.000234
21
-20.004067
31
0.0
0
LINE
8
0
6
CONTINUOUS
10
5.984080
20
-20.004067
30
0.0
11
9.543255
21
-20.004067
31
0.0
0
LINE
8
0
6
CONTINUOUS
10
5.984080
20
-19.504015
30
0.0
11
5.984080
21
-20.004067
31
0.0
0
LINE
8
0
6
CONTINUOUS
10
-0.000234
20
19.703976
30
0.0
11
-5.984539
21
19.703976
31
0.0
0
LINE
8
0
6
CONTINUOUS
10
-5.984539
20
19.703976
30
0.0
11
-10.373028
21
19.703976
31
0.0
0
LINE
8
0
6
CONTINUOUS
10
-5.984539
20
19.427460
30
0.0
11
-5.984539
21
19.703976
31
0.0
0
LINE
8
0
6
CONTINUOUS
10
-0.000234
20
19.703976
30
0.0
11
-0.000234
21
19.427460
31
0.0
0
LINE
8
0
6
CONTINUOUS
10
5.984080
20
19.703976
30
0.0
11
-0.000234
21
19.703976
31
0.0
0
LINE
8
0
6
CONTINUOUS
10
5.984080
20
19.703976
30
0.0
11
5.984080
21
19.427460
31
0.0
0
LINE
8
0
6
CONTINUOUS
10
10.372560
20
19.703976
30
0.0
11
5.984080
21
19.703976
31
0.0
0
LINE
8
0
6
CONTINUOUS
10
-11.727596
20
190.558684
30
0.0
11
-11.727596
21
190.437989
31
0.0
0
LINE
8
0
6
CONTINUOUS
10
-11.727596
20
190.437989
30
0.0
11
-10.163947
21
190.437989
31
0.0
0
LINE
8
0
6
CONTINUOUS
10
5.863456
20
190.437989
30
0.0
11
10.163478
21
190.437989
31
0.0
0
LINE
8
0
6
CONTINUOUS
10
11.727137
20
190.437989
30
0.0
11
11.727137
21
190.558684
31
0.0
0
LINE
8
0
6
CONTINUOUS
10
10.163478
20
190.437989
30
0.0
11
11.727137
21
190.437989
31
0.0
0
LINE
8
0
6
CONTINUOUS
10
10.163478
20
190.558684
30
0.0
11
10.163478
21
190.437989
31
0.0
0
LINE
8
0
6
CONTINUOUS
10
5.863456
20
190.437989
30
0.0
11
5.863456
21
190.558684
31
0.0
0
LINE
8
0
6
CONTINUOUS
10
-0.000234
20
190.437989
30
0.0
11
5.863456
21
190.437989
31
0.0
0
LINE
8
0
6
CONTINUOUS
10
-0.000234
20
190.437989
30
0.0
11
-0.000234
21
190.558684
31
0.0
0
LINE
8
0
6
CONTINUOUS
10
-5.863915
20
190.437989
30
0.0
11
-0.000234
21
190.437989
31
0.0
0
LINE
8
0
6
CONTINUOUS
10
-5.863915
20
190.437989
30
0.0
11
-5.863915
21
190.558684
31
0.0
0
LINE
8
0
6
CONTINUOUS
10
-10.163947
20
190.437989
30
0.0
11
-5.863915
21
190.437989
31
0.0
0
LINE
8
0
6
CONTINUOUS
10
-10.163947
20
190.558684
30
0.0
11
-10.163947
21
190.437989
31
0.0
0
LINE
8
0
6
CONTINUOUS
10
-0.000234
20
190.038598
30
0.0
11
-5.984539
21
190.038598
31
0.0
0
LINE
8
0
6
CONTINUOUS
10
10.372560
20
190.038598
30
0.0
11
5.984080
21
190.038598
31
0.0
0
LINE
8
0
6
CONTINUOUS
10
-11.968833
20
190.038598
30
0.0
11
-11.968833
21
189.538506
31
0.0
0
LINE
8
0
6
CONTINUOUS
10
-10.373028
20
190.038598
30
0.0
11
-11.968833
21
190.038598
31
0.0
0
LINE
8
0
6
CONTINUOUS
10
11.968374
20
189.538506
30
0.0
11
11.968374
21
190.038598
31
0.0
0
LINE
8
0
6
CONTINUOUS
10
10.372560
20
190.038598
30
0.0
11
10.372560
21
189.538506
31
0.0
0
LINE
8
0
6
CONTINUOUS
10
11.968374
20
190.038598
30
0.0
11
10.372560
21
190.038598
31
0.0
0
LINE
8
0
6
CONTINUOUS
10
-5.984539
20
189.538506
30
0.0
11
-5.984539
21
190.038598
31
0.0
0
LINE
8
0
6
CONTINUOUS
10
-10.373028
20
190.038598
30
0.0
11
-10.373028
21
189.538506
31
0.0
0
LINE
8
0
6
CONTINUOUS
10
-5.984539
20
190.038598
30
0.0
11
-10.373028
21
190.038598
31
0.0
0
LINE
8
0
6
CONTINUOUS
10
-0.000234
20
190.038598
30
0.0
11
-0.000234
21
189.538506
31
0.0
0
LINE
8
0
6
CONTINUOUS
10
5.984080
20
190.038598
30
0.0
11
-0.000234
21
190.038598
31
0.0
0
LINE
8
0
6
CONTINUOUS
10
5.984080
20
189.538506
30
0.0
11
5.984080
21
190.038598
31
0.0
0
LINE
8
0
6
CONTINUOUS
10
10.163478
20
190.938991
30
0.0
11
5.863456
21
190.938991
31
0.0
0
LINE
8
0
6
CONTINUOUS
10
-0.000234
20
190.938991
30
0.0
11
-5.863915
21
190.938991
31
0.0
0
LINE
8
0
6
CONTINUOUS
10
-5.863915
20
190.818296
30
0.0
11
-5.863915
21
190.938991
31
0.0
0
LINE
8
0
6
CONTINUOUS
10
-5.863915
20
190.938991
30
0.0
11
-10.163947
21
190.938991
31
0.0
0
LINE
8
0
6
CONTINUOUS
10
11.727137
20
190.818296
30
0.0
11
11.727137
21
190.938991
31
0.0
0
LINE
8
0
6
CONTINUOUS
10
10.163478
20
190.938991
30
0.0
11
10.163478
21
190.818296
31
0.0
0
LINE
8
0
6
CONTINUOUS
10
11.727137
20
190.938991
30
0.0
11
10.163478
21
190.938991
31
0.0
0
LINE
8
0
6
CONTINUOUS
10
-11.727596
20
190.938991
30
0.0
11
-11.727596
21
190.818296
31
0.0
0
LINE
8
0
6
CONTINUOUS
10
-10.163947
20
190.938991
30
0.0
11
-11.727596
21
190.938991
31
0.0
0
LINE
8
0
6
CONTINUOUS
10
-10.163947
20
190.818296
30
0.0
11
-10.163947
21
190.938991
31
0.0
0
LINE
8
0
6
CONTINUOUS
10
-0.000234
20
190.938991
30
0.0
11
-0.000234
21
190.818296
31
0.0
0
LINE
8
0
6
CONTINUOUS
10
5.863456
20
190.938991
30
0.0
11
-0.000234
21
190.938991
31
0.0
0
LINE
8
0
6
CONTINUOUS
10
5.863456
20
190.818296
30
0.0
11
5.863456
21
190.938991
31
0.0
0
LINE
8
0
6
CONTINUOUS
10
5.984080
20
20.204058
30
0.0
11
10.372560
21
20.204058
31
0.0
0
LINE
8
0
6
CONTINUOUS
10
-11.968833
20
20.417531
30
0.0
11
-11.968833
21
20.204058
31
0.0
0
LINE
8
0
6
CONTINUOUS
10
-11.968833
20
20.204058
30
0.0
11
-10.373028
21
20.204058
31
0.0
0
LINE
8
0
6
CONTINUOUS
10
-10.373028
20
20.204058
30
0.0
11
-5.984539
21
20.204058
31
0.0
0
LINE
8
0
6
CONTINUOUS
10
-10.373028
20
20.417531
30
0.0
11
-10.373028
21
20.204058
31
0.0
0
LINE
8
0
6
CONTINUOUS
10
11.968374
20
20.204058
30
0.0
11
11.968374
21
20.417531
31
0.0
0
LINE
8
0
6
CONTINUOUS
10
10.372560
20
20.204058
30
0.0
11
11.968374
21
20.204058
31
0.0
0
LINE
8
0
6
CONTINUOUS
10
10.372560
20
20.417531
30
0.0
11
10.372560
21
20.204058
31
0.0
0
LINE
8
0
6
CONTINUOUS
10
-5.984539
20
20.204058
30
0.0
11
-0.000234
21
20.204058
31
0.0
0
LINE
8
0
6
CONTINUOUS
10
-5.984539
20
20.417531
30
0.0
11
-5.984539
21
20.204058
31
0.0
0
LINE
8
0
6
CONTINUOUS
10
-0.000234
20
20.417531
30
0.0
11
-0.000234
21
20.204058
31
0.0
0
LINE
8
0
6
CONTINUOUS
10
5.984080
20
20.204058
30
0.0
11
5.984080
21
20.417531
31
0.0
0
LINE
8
0
6
CONTINUOUS
10
-0.000234
20
20.204058
30
0.0
11
5.984080
21
20.204058
31
0.0
0
ENDSEC
0
EOF
