999
Erzeugt mit innoplus bad 
0
SECTION
2
HEADER
9
$ACADVER
1
AC1009
9
$DWGCODEPAGE
3
ISO8859-1
0
ENDSEC
0
SECTION
2
TABLES
0
TABLE
2
LAYER
70
1
0
LAYER
2
0
70
0
62
7
6
CONTINUOUS
0
ENDTAB
0
ENDSEC
0
SECTION
2
ENTITIES
0
LINE
8
0
6
CONTINUOUS
10
61.283305
20
-20.984200
30
0.0
11
60.738115
21
-16.843090
31
0.0
0
LINE
8
0
6
CONTINUOUS
10
83.965535
20
-31.089710
30
0.0
11
88.213985
21
-28.027350
31
0.0
0
LINE
8
0
6
CONTINUOUS
10
80.879215
20
-32.333000
30
0.0
11
83.965535
21
-31.089710
31
0.0
0
LINE
8
0
6
CONTINUOUS
10
76.738135
20
-32.843080
30
0.0
11
80.879215
21
-32.333000
31
0.0
0
LINE
8
0
6
CONTINUOUS
10
72.597005
20
-32.297900
30
0.0
11
76.738135
21
-32.843080
31
0.0
0
LINE
8
0
6
CONTINUOUS
10
68.738115
20
-30.699500
30
0.0
11
72.597005
21
-32.297900
31
0.0
0
LINE
8
0
6
CONTINUOUS
10
65.424415
20
-28.156800
30
0.0
11
68.738115
21
-30.699500
31
0.0
0
LINE
8
0
6
CONTINUOUS
10
62.881715
20
-24.843090
30
0.0
11
65.424415
21
-28.156800
31
0.0
0
LINE
8
0
6
CONTINUOUS
10
61.283305
20
-20.984200
30
0.0
11
62.881715
21
-24.843090
31
0.0
0
LINE
8
0
6
CONTINUOUS
10
60.293015
20
-6.248380
30
0.0
11
60.515565
21
-11.545740
31
0.0
0
LINE
8
0
6
CONTINUOUS
10
60.070465
20
-0.951030
30
0.0
11
60.293015
21
-6.248380
31
0.0
0
LINE
8
0
6
CONTINUOUS
10
60.515565
20
-11.545740
30
0.0
11
60.738115
21
-16.843090
31
0.0
0
LINE
8
0
6
CONTINUOUS
10
81.863195
20
-6.222560
30
0.0
11
81.920435
21
-6.103960
31
0.0
0
LINE
8
0
6
CONTINUOUS
10
89.801545
20
-24.981400
30
0.0
11
85.413805
21
-24.981400
31
0.0
0
LINE
8
0
6
CONTINUOUS
10
88.213985
20
-28.027350
30
0.0
11
90.153695
21
-25.297720
31
0.0
0
LINE
8
0
6
CONTINUOUS
10
80.964115
20
-25.202510
30
0.0
11
79.159505
21
-25.914910
31
0.0
0
LINE
8
0
6
CONTINUOUS
10
79.159505
20
-25.914910
30
0.0
11
76.738125
21
-26.198600
31
0.0
0
LINE
8
0
6
CONTINUOUS
10
76.738125
20
-26.198600
30
0.0
11
74.316725
21
-25.879810
31
0.0
0
LINE
8
0
6
CONTINUOUS
10
74.316725
20
-25.879810
30
0.0
11
72.060365
21
-24.945190
31
0.0
0
LINE
8
0
6
CONTINUOUS
10
72.060365
20
-24.945190
30
0.0
11
70.122765
21
-23.458430
31
0.0
0
LINE
8
0
6
CONTINUOUS
10
70.122765
20
-23.458430
30
0.0
11
68.636005
21
-21.520840
31
0.0
0
LINE
8
0
6
CONTINUOUS
10
68.636005
20
-21.520840
30
0.0
11
67.701385
21
-19.264470
31
0.0
0
LINE
8
0
6
CONTINUOUS
10
67.701385
20
-19.264470
30
0.0
11
67.382595
21
-16.843090
31
0.0
0
LINE
8
0
6
CONTINUOUS
10
67.382595
20
-16.843090
30
0.0
11
67.701385
21
-14.421710
31
0.0
0
LINE
8
0
6
CONTINUOUS
10
67.701385
20
-14.421710
30
0.0
11
68.635995
21
-12.165340
31
0.0
0
LINE
8
0
6
CONTINUOUS
10
68.635995
20
-12.165340
30
0.0
11
70.122765
21
-10.227750
31
0.0
0
LINE
8
0
6
CONTINUOUS
10
70.122765
20
-10.227750
30
0.0
11
72.060365
21
-8.740980
31
0.0
0
LINE
8
0
6
CONTINUOUS
10
72.060365
20
-8.740980
30
0.0
11
74.316725
21
-7.806370
31
0.0
0
LINE
8
0
6
CONTINUOUS
10
74.316725
20
-7.806370
30
0.0
11
76.738105
21
-7.487580
31
0.0
0
LINE
8
0
6
CONTINUOUS
10
79.159485
20
-7.806360
30
0.0
11
80.158245
21
-8.203110
31
0.0
0
LINE
8
0
6
CONTINUOUS
10
76.738105
20
-7.487580
30
0.0
11
79.159485
21
-7.806360
31
0.0
0
LINE
8
0
6
CONTINUOUS
10
81.261365
20
-25.083760
30
0.0
11
80.964115
21
-25.202510
31
0.0
0
LINE
8
0
6
CONTINUOUS
10
65.139685
20
-19.950890
30
0.0
11
64.730555
21
-16.843090
31
0.0
0
LINE
8
0
6
CONTINUOUS
10
70.734315
20
-6.444230
30
0.0
11
73.630295
21
-5.244670
31
0.0
0
LINE
8
0
6
CONTINUOUS
10
76.738095
20
-4.835510
30
0.0
11
79.845885
21
-5.244660
31
0.0
0
LINE
8
0
6
CONTINUOUS
10
84.046345
20
-8.856030
30
0.0
11
84.437985
21
-8.856030
31
0.0
0
LINE
8
0
6
CONTINUOUS
10
73.630295
20
-5.244670
30
0.0
11
76.738095
21
-4.835510
31
0.0
0
LINE
8
0
6
CONTINUOUS
10
83.728315
20
-26.258660
30
0.0
11
82.162095
21
-27.552310
31
0.0
0
LINE
8
0
6
CONTINUOUS
10
82.162095
20
-27.552310
30
0.0
11
79.845925
21
-28.476610
31
0.0
0
LINE
8
0
6
CONTINUOUS
10
79.845925
20
-28.476610
30
0.0
11
76.738135
21
-28.850660
31
0.0
0
LINE
8
0
6
CONTINUOUS
10
76.738135
20
-28.850660
30
0.0
11
73.630335
21
-28.441510
31
0.0
0
LINE
8
0
6
CONTINUOUS
10
73.630335
20
-28.441510
30
0.0
11
70.734335
21
-27.241950
31
0.0
0
LINE
8
0
6
CONTINUOUS
10
70.734335
20
-27.241950
30
0.0
11
68.247495
21
-25.333730
31
0.0
0
LINE
8
0
6
CONTINUOUS
10
68.247495
20
-25.333730
30
0.0
11
66.339245
21
-22.846880
31
0.0
0
LINE
8
0
6
CONTINUOUS
10
66.339245
20
-22.846880
30
0.0
11
65.139685
21
-19.950890
31
0.0
0
LINE
8
0
6
CONTINUOUS
10
65.139685
20
-13.735300
30
0.0
11
66.339225
21
-10.839310
31
0.0
0
LINE
8
0
6
CONTINUOUS
10
66.339225
20
-10.839310
30
0.0
11
68.247475
21
-8.352460
31
0.0
0
LINE
8
0
6
CONTINUOUS
10
79.845885
20
-5.244660
30
0.0
11
81.920435
21
-6.103960
31
0.0
0
LINE
8
0
6
CONTINUOUS
10
64.730555
20
-16.843090
30
0.0
11
65.139685
21
-13.735300
31
0.0
0
LINE
8
0
6
CONTINUOUS
10
68.247475
20
-8.352460
30
0.0
11
70.734315
21
-6.444230
31
0.0
0
LINE
8
0
6
CONTINUOUS
10
84.437985
20
-8.856030
30
0.0
11
92.030375
21
-8.856030
31
0.0
0
LINE
8
0
6
CONTINUOUS
10
59.818185
20
13.724140
30
0.0
11
60.070525
21
-0.951030
31
0.0
0
LINE
8
0
6
CONTINUOUS
10
93.086285
20
-8.095490
30
0.0
11
94.157395
21
13.724140
31
0.0
0
LINE
8
0
6
CONTINUOUS
10
92.030375
20
-8.856030
30
0.0
11
92.994925
21
-8.856030
31
0.0
0
LINE
8
0
6
CONTINUOUS
10
85.028765
20
-24.981400
30
0.0
11
84.857255
21
-24.981400
31
0.0
0
LINE
8
0
6
CONTINUOUS
10
59.847915
20
13.724140
30
0.0
11
60.070465
21
-0.951030
31
0.0
0
LINE
8
0
6
CONTINUOUS
10
84.857255
20
-24.981400
30
0.0
11
81.678455
21
-24.981400
31
0.0
0
LINE
8
0
6
CONTINUOUS
10
81.531135
20
-24.981400
30
0.0
11
81.396245
21
-25.032580
31
0.0
0
LINE
8
0
6
CONTINUOUS
10
81.678455
20
-24.981400
30
0.0
11
81.531135
21
-24.981400
31
0.0
0
LINE
8
0
6
CONTINUOUS
10
93.086285
20
-8.095490
30
0.0
11
92.994925
21
-8.856030
31
0.0
0
LINE
8
0
6
CONTINUOUS
10
83.722495
20
-7.955060
30
0.0
11
83.592075
21
-7.991280
31
0.0
0
LINE
8
0
6
CONTINUOUS
10
84.046345
20
-8.856030
30
0.0
11
83.722495
21
-7.955060
31
0.0
0
LINE
8
0
6
CONTINUOUS
10
83.915845
20
-8.856030
30
0.0
11
84.046345
21
-8.856030
31
0.0
0
LINE
8
0
6
CONTINUOUS
10
83.592075
20
-7.991280
30
0.0
11
81.560335
21
-8.856030
31
0.0
0
LINE
8
0
6
CONTINUOUS
10
81.560335
20
-8.856030
30
0.0
11
83.915845
21
-8.856030
31
0.0
0
LINE
8
0
6
CONTINUOUS
10
81.920435
20
-6.103960
30
0.0
11
83.722495
21
-7.955060
31
0.0
0
LINE
8
0
6
CONTINUOUS
10
93.453515
20
32.843070
30
0.0
11
-93.453685
21
32.843080
31
0.0
0
LINE
8
0
6
CONTINUOUS
10
-32.294645
20
13.850340
30
0.0
11
-16.828925
21
13.850340
31
0.0
0
LINE
8
0
6
CONTINUOUS
10
-47.760345
20
13.850340
30
0.0
11
-32.294645
21
13.850340
31
0.0
0
LINE
8
0
6
CONTINUOUS
10
-63.226055
20
13.850340
30
0.0
11
-47.760345
21
13.850340
31
0.0
0
LINE
8
0
6
CONTINUOUS
10
-78.691755
20
13.850340
30
0.0
11
-63.226055
21
13.850340
31
0.0
0
LINE
8
0
6
CONTINUOUS
10
-16.828925
20
13.850340
30
0.0
11
-1.493575
21
13.850340
31
0.0
0
LINE
8
0
6
CONTINUOUS
10
-1.493575
20
13.850340
30
0.0
11
13.841775
21
13.850340
31
0.0
0
LINE
8
0
6
CONTINUOUS
10
13.841775
20
13.850340
30
0.0
11
29.177125
21
13.850340
31
0.0
0
LINE
8
0
6
CONTINUOUS
10
29.177125
20
13.850340
30
0.0
11
44.512485
21
13.850340
31
0.0
0
LINE
8
0
6
CONTINUOUS
10
44.512485
20
13.850340
30
0.0
11
59.271545
21
13.850340
31
0.0
0
LINE
8
0
6
CONTINUOUS
10
94.157305
20
32.843070
30
0.0
11
93.453515
21
32.843070
31
0.0
0
LINE
8
0
6
CONTINUOUS
10
94.157305
20
32.073070
30
0.0
11
94.157305
21
32.843070
31
0.0
0
LINE
8
0
6
CONTINUOUS
10
94.157305
20
15.135360
30
0.0
11
94.157305
21
32.073070
31
0.0
0
LINE
8
0
6
CONTINUOUS
10
94.157305
20
13.850340
30
0.0
11
94.157305
21
15.135360
31
0.0
0
LINE
8
0
6
CONTINUOUS
10
93.455175
20
13.850340
30
0.0
11
94.157305
21
13.850340
31
0.0
0
LINE
8
0
6
CONTINUOUS
10
-94.157475
20
32.843080
30
0.0
11
-94.157475
21
32.073080
31
0.0
0
LINE
8
0
6
CONTINUOUS
10
-93.453685
20
32.843080
30
0.0
11
-94.157475
21
32.843080
31
0.0
0
LINE
8
0
6
CONTINUOUS
10
-94.157475
20
32.073080
30
0.0
11
-94.157475
21
15.135370
31
0.0
0
LINE
8
0
6
CONTINUOUS
10
-93.456195
20
13.850340
30
0.0
11
-78.691755
21
13.850340
31
0.0
0
LINE
8
0
6
CONTINUOUS
10
-94.157475
20
15.135370
30
0.0
11
-94.157475
21
13.850340
31
0.0
0
LINE
8
0
6
CONTINUOUS
10
-94.157475
20
13.850340
30
0.0
11
-93.456195
21
13.850340
31
0.0
0
LINE
8
0
6
CONTINUOUS
10
59.878385
20
13.850340
30
0.0
11
60.443735
21
13.850340
31
0.0
0
LINE
8
0
6
CONTINUOUS
10
85.644695
20
13.850340
30
0.0
11
93.455175
21
13.850340
31
0.0
0
LINE
8
0
6
CONTINUOUS
10
77.064165
20
13.850340
30
0.0
11
85.644695
21
13.850340
31
0.0
0
LINE
8
0
6
CONTINUOUS
10
68.483665
20
13.850340
30
0.0
11
77.064165
21
13.850340
31
0.0
0
LINE
8
0
6
CONTINUOUS
10
60.443735
20
13.850340
30
0.0
11
68.483665
21
13.850340
31
0.0
0
LINE
8
0
6
CONTINUOUS
10
59.847915
20
13.850340
30
0.0
11
59.847915
21
13.724140
31
0.0
0
LINE
8
0
6
CONTINUOUS
10
94.157395
20
13.724140
30
0.0
11
94.157395
21
13.850340
31
0.0
0
LINE
8
0
6
CONTINUOUS
10
59.816145
20
13.850340
30
0.0
11
59.818185
21
13.724140
31
0.0
0
LINE
8
0
6
CONTINUOUS
10
59.271545
20
13.850340
30
0.0
11
59.878385
21
13.850340
31
0.0
0
LINE
8
0
6
CONTINUOUS
10
81.106125
20
-8.700330
30
0.0
11
81.436355
21
-8.856030
31
0.0
0
LINE
8
0
6
CONTINUOUS
10
81.436355
20
-8.856030
30
0.0
11
81.560335
21
-8.856030
31
0.0
0
LINE
8
0
6
CONTINUOUS
10
80.158245
20
-8.203110
30
0.0
11
81.106125
21
-8.700330
31
0.0
0
LINE
8
0
6
CONTINUOUS
10
-21.269605
20
-3.101080
30
0.0
11
-21.118285
21
-1.951750
31
0.0
0
LINE
8
0
6
CONTINUOUS
10
-15.550685
20
1.669450
30
0.0
11
-16.828945
21
1.837730
31
0.0
0
LINE
8
0
6
CONTINUOUS
10
-16.828945
20
-8.039880
30
0.0
11
-15.550685
21
-7.871590
31
0.0
0
LINE
8
0
6
CONTINUOUS
10
-18.107195
20
-7.871590
30
0.0
11
-16.828945
21
-8.039880
31
0.0
0
LINE
8
0
6
CONTINUOUS
10
-12.551815
20
-0.631670
30
0.0
11
-13.336685
21
0.391190
31
0.0
0
LINE
8
0
6
CONTINUOUS
10
-21.767745
20
-3.101080
30
0.0
11
-21.599465
21
-4.379330
31
0.0
0
LINE
8
0
6
CONTINUOUS
10
-11.890135
20
-3.101080
30
0.0
11
-12.058425
21
-1.822810
31
0.0
0
LINE
8
0
6
CONTINUOUS
10
-14.608625
20
0.744650
30
0.0
11
-13.688925
21
0.038950
31
0.0
0
LINE
8
0
6
CONTINUOUS
10
-17.978275
20
-7.390430
30
0.0
11
-19.049265
21
-6.946800
31
0.0
0
LINE
8
0
6
CONTINUOUS
10
-16.828945
20
1.837730
30
0.0
11
-18.107195
21
1.669450
31
0.0
0
LINE
8
0
6
CONTINUOUS
10
-15.550685
20
-7.871590
30
0.0
11
-14.359545
21
-7.378210
31
0.0
0
LINE
8
0
6
CONTINUOUS
10
-12.058425
20
-1.822810
30
0.0
11
-12.551815
21
-0.631670
31
0.0
0
LINE
8
0
6
CONTINUOUS
10
-21.609835
20
-3.101080
30
0.0
11
-21.446945
21
-1.863690
31
0.0
0
LINE
8
0
6
CONTINUOUS
10
-21.599465
20
-1.822810
30
0.0
11
-21.767745
21
-3.101080
31
0.0
0
LINE
8
0
6
CONTINUOUS
10
-20.674665
20
-5.321400
30
0.0
11
-21.118285
21
-4.250400
31
0.0
0
LINE
8
0
6
CONTINUOUS
10
-19.049265
20
-6.946800
30
0.0
11
-19.968955
21
-6.241100
31
0.0
0
LINE
8
0
6
CONTINUOUS
10
-20.674665
20
-0.880740
30
0.0
11
-19.968955
21
0.038950
31
0.0
0
LINE
8
0
6
CONTINUOUS
10
-19.968955
20
-6.241100
30
0.0
11
-20.674665
21
-5.321400
31
0.0
0
LINE
8
0
6
CONTINUOUS
10
-12.388275
20
-3.101070
30
0.0
11
-12.539595
21
-4.250400
31
0.0
0
LINE
8
0
6
CONTINUOUS
10
-21.106075
20
-0.631680
30
0.0
11
-21.599465
21
-1.822810
31
0.0
0
LINE
8
0
6
CONTINUOUS
10
-21.118285
20
-1.951750
30
0.0
11
-20.674665
21
-0.880740
31
0.0
0
LINE
8
0
6
CONTINUOUS
10
-20.969325
20
-0.710630
30
0.0
11
-21.446945
21
-1.863690
31
0.0
0
LINE
8
0
6
CONTINUOUS
10
-20.969325
20
-0.710630
30
0.0
11
-20.209555
21
0.279530
31
0.0
0
LINE
8
0
6
CONTINUOUS
10
-20.321195
20
0.391190
30
0.0
11
-21.106075
21
-0.631680
31
0.0
0
LINE
8
0
6
CONTINUOUS
10
-20.969325
20
-5.491530
30
0.0
11
-21.446945
21
-4.338460
31
0.0
0
LINE
8
0
6
CONTINUOUS
10
-21.599465
20
-4.379330
30
0.0
11
-21.106075
21
-5.570480
31
0.0
0
LINE
8
0
6
CONTINUOUS
10
-14.438495
20
1.039310
30
0.0
11
-13.448345
21
0.279530
31
0.0
0
LINE
8
0
6
CONTINUOUS
10
-13.336685
20
0.391190
30
0.0
11
-14.359545
21
1.176060
31
0.0
0
LINE
8
0
6
CONTINUOUS
10
-21.118285
20
-4.250400
30
0.0
11
-21.269605
21
-3.101080
31
0.0
0
LINE
8
0
6
CONTINUOUS
10
-21.609835
20
-3.101080
30
0.0
11
-21.446945
21
-4.338460
31
0.0
0
LINE
8
0
6
CONTINUOUS
10
-19.049285
20
0.744650
30
0.0
11
-17.978275
21
1.188280
31
0.0
0
LINE
8
0
6
CONTINUOUS
10
-19.968955
20
0.038950
30
0.0
11
-19.049285
21
0.744650
31
0.0
0
LINE
8
0
6
CONTINUOUS
10
-13.688915
20
-6.241100
30
0.0
11
-14.608605
21
-6.946800
31
0.0
0
LINE
8
0
6
CONTINUOUS
10
-17.978275
20
1.188280
30
0.0
11
-16.828945
21
1.339590
31
0.0
0
LINE
8
0
6
CONTINUOUS
10
-16.828945
20
1.679830
30
0.0
11
-18.066335
21
1.516920
31
0.0
0
LINE
8
0
6
CONTINUOUS
10
-19.219395
20
-7.241450
30
0.0
11
-20.209555
21
-6.481680
31
0.0
0
LINE
8
0
6
CONTINUOUS
10
-20.321195
20
-6.593340
30
0.0
11
-19.298345
21
-7.378210
31
0.0
0
LINE
8
0
6
CONTINUOUS
10
-13.336675
20
-6.593340
30
0.0
11
-12.551815
21
-5.570480
31
0.0
0
LINE
8
0
6
CONTINUOUS
10
-13.448335
20
-6.481680
30
0.0
11
-14.438485
21
-7.241450
31
0.0
0
LINE
8
0
6
CONTINUOUS
10
-14.359545
20
-7.378210
30
0.0
11
-13.336675
21
-6.593340
31
0.0
0
LINE
8
0
6
CONTINUOUS
10
-14.359545
20
1.176060
30
0.0
11
-15.550685
21
1.669450
31
0.0
0
LINE
8
0
6
CONTINUOUS
10
-20.209555
20
-6.481680
30
0.0
11
-20.969325
21
-5.491530
31
0.0
0
LINE
8
0
6
CONTINUOUS
10
-21.106075
20
-5.570480
30
0.0
11
-20.321195
21
-6.593340
31
0.0
0
LINE
8
0
6
CONTINUOUS
10
-18.066335
20
-7.719070
30
0.0
11
-19.219395
21
-7.241450
31
0.0
0
LINE
8
0
6
CONTINUOUS
10
-19.298345
20
-7.378210
30
0.0
11
-18.107195
21
-7.871590
31
0.0
0
LINE
8
0
6
CONTINUOUS
10
-38.696365
20
-18.998580
30
0.0
11
-38.482445
21
-19.521770
31
0.0
0
LINE
8
0
6
CONTINUOUS
10
-37.991335
20
-19.834150
30
0.0
11
-37.460775
21
-19.834150
31
0.0
0
LINE
8
0
6
CONTINUOUS
10
-38.482445
20
-19.521770
30
0.0
11
-37.991335
21
-19.834150
31
0.0
0
LINE
8
0
6
CONTINUOUS
10
-37.939555
20
-19.521770
30
0.0
11
-38.482445
21
-19.521770
31
0.0
0
LINE
8
0
6
CONTINUOUS
10
-16.828945
20
-19.834130
30
0.0
11
-12.119865
21
-19.834130
31
0.0
0
LINE
8
0
6
CONTINUOUS
10
-12.010585
20
-19.521770
30
0.0
11
-16.828945
21
-19.521770
31
0.0
0
LINE
8
0
6
CONTINUOUS
10
-35.895645
20
-19.834150
30
0.0
11
-33.374395
21
-19.834150
31
0.0
0
LINE
8
0
6
CONTINUOUS
10
-0.283485
20
-19.834150
30
0.0
11
2.237745
21
-19.834150
31
0.0
0
LINE
8
0
6
CONTINUOUS
10
-26.010995
20
-19.834130
30
0.0
11
-21.538035
21
-19.834130
31
0.0
0
LINE
8
0
6
CONTINUOUS
10
-12.119865
20
-19.834130
30
0.0
11
-7.646905
21
-19.834130
31
0.0
0
LINE
8
0
6
CONTINUOUS
10
-26.224055
20
-19.521750
30
0.0
11
-21.647295
21
-19.521770
31
0.0
0
LINE
8
0
6
CONTINUOUS
10
0.100465
20
-19.521770
30
0.0
11
2.680205
21
-19.521780
31
0.0
0
LINE
8
0
6
CONTINUOUS
10
-37.460775
20
-19.834150
30
0.0
11
-35.895645
21
-19.834150
31
0.0
0
LINE
8
0
6
CONTINUOUS
10
3.802895
20
-19.834150
30
0.0
11
4.333485
21
-19.834150
31
0.0
0
LINE
8
0
6
CONTINUOUS
10
4.333485
20
-19.834150
30
0.0
11
4.824585
21
-19.521790
31
0.0
0
LINE
8
0
6
CONTINUOUS
10
3.104525
20
12.351180
30
0.0
11
3.104525
21
12.659270
31
0.0
0
LINE
8
0
6
CONTINUOUS
10
-21.264545
20
12.351200
30
0.0
11
-16.828945
21
12.351200
31
0.0
0
LINE
8
0
6
CONTINUOUS
10
-38.696365
20
12.108200
30
0.0
11
-38.696365
21
-18.930850
31
0.0
0
LINE
8
0
6
CONTINUOUS
10
5.038495
20
-18.930870
30
0.0
11
5.038515
21
12.108200
31
0.0
0
LINE
8
0
6
CONTINUOUS
10
-0.283485
20
-19.834150
30
0.0
11
-3.634385
21
-19.834130
31
0.0
0
LINE
8
0
6
CONTINUOUS
10
2.872955
20
12.351180
30
0.0
11
0.267715
21
12.351190
31
0.0
0
LINE
8
0
6
CONTINUOUS
10
-30.463075
20
12.351200
30
0.0
11
-33.925605
21
12.351190
31
0.0
0
LINE
8
0
6
CONTINUOUS
10
4.490255
20
12.351180
30
0.0
11
2.872955
21
12.351180
31
0.0
0
LINE
8
0
6
CONTINUOUS
10
-7.341025
20
12.351200
30
0.0
11
-11.962975
21
12.351200
31
0.0
0
LINE
8
0
6
CONTINUOUS
10
-38.696365
20
12.351180
30
0.0
11
-38.696365
21
12.108200
31
0.0
0
LINE
8
0
6
CONTINUOUS
10
-38.148115
20
12.351180
30
0.0
11
-38.696365
21
12.351180
31
0.0
0
LINE
8
0
6
CONTINUOUS
10
-21.694905
20
12.351200
30
0.0
11
-26.316875
21
12.351200
31
0.0
0
LINE
8
0
6
CONTINUOUS
10
5.038515
20
12.108200
30
0.0
11
5.038515
21
12.351180
31
0.0
0
LINE
8
0
6
CONTINUOUS
10
5.038515
20
12.351180
30
0.0
11
4.490255
21
12.351180
31
0.0
0
LINE
8
0
6
CONTINUOUS
10
-36.530815
20
12.351180
30
0.0
11
-38.148115
21
12.351180
31
0.0
0
LINE
8
0
6
CONTINUOUS
10
0.267715
20
12.351190
30
0.0
11
-3.194815
21
12.351190
31
0.0
0
LINE
8
0
6
CONTINUOUS
10
-16.828945
20
12.351200
30
0.0
11
-21.694905
21
12.351200
31
0.0
0
LINE
8
0
6
CONTINUOUS
10
-33.925605
20
12.351190
30
0.0
11
-36.530815
21
12.351180
31
0.0
0
LINE
8
0
6
CONTINUOUS
10
-11.962975
20
12.351200
30
0.0
11
-16.828945
21
12.351200
31
0.0
0
LINE
8
0
6
CONTINUOUS
10
-3.328195
20
-19.521770
30
0.0
11
-7.433835
21
-19.521770
31
0.0
0
LINE
8
0
6
CONTINUOUS
10
-7.646905
20
-19.834130
30
0.0
11
-3.634385
21
-19.834130
31
0.0
0
LINE
8
0
6
CONTINUOUS
10
-33.374395
20
-19.834150
30
0.0
11
-30.023505
21
-19.834130
31
0.0
0
LINE
8
0
6
CONTINUOUS
10
-33.758345
20
-19.521770
30
0.0
11
-30.329695
21
-19.521760
31
0.0
0
LINE
8
0
6
CONTINUOUS
10
-3.328195
20
-19.521770
30
0.0
11
0.100465
21
-19.521770
31
0.0
0
LINE
8
0
6
CONTINUOUS
10
2.237745
20
-19.834150
30
0.0
11
3.802895
21
-19.834150
31
0.0
0
LINE
8
0
6
CONTINUOUS
10
4.281695
20
-19.521780
30
0.0
11
2.680205
21
-19.521780
31
0.0
0
LINE
8
0
6
CONTINUOUS
10
-21.538035
20
-19.834130
30
0.0
11
-16.828945
21
-19.834130
31
0.0
0
LINE
8
0
6
CONTINUOUS
10
-21.647295
20
-19.521770
30
0.0
11
-16.828945
21
-19.521770
31
0.0
0
LINE
8
0
6
CONTINUOUS
10
4.824585
20
-19.521790
30
0.0
11
5.038495
21
-18.998600
31
0.0
0
LINE
8
0
6
CONTINUOUS
10
4.281695
20
-19.521780
30
0.0
11
4.824585
21
-19.521790
31
0.0
0
LINE
8
0
6
CONTINUOUS
10
-36.338095
20
-19.521770
30
0.0
11
-33.758345
21
-19.521770
31
0.0
0
LINE
8
0
6
CONTINUOUS
10
-30.023505
20
-19.834130
30
0.0
11
-26.010995
21
-19.834130
31
0.0
0
LINE
8
0
6
CONTINUOUS
10
-37.939555
20
-19.521770
30
0.0
11
-36.338095
21
-19.521770
31
0.0
0
LINE
8
0
6
CONTINUOUS
10
-12.010585
20
-19.521770
30
0.0
11
-7.433835
21
-19.521770
31
0.0
0
LINE
8
0
6
CONTINUOUS
10
-26.316875
20
12.351200
30
0.0
11
-30.463075
21
12.351200
31
0.0
0
LINE
8
0
6
CONTINUOUS
10
-38.696365
20
-18.930850
30
0.0
11
-38.696365
21
-18.998580
31
0.0
0
LINE
8
0
6
CONTINUOUS
10
-3.194815
20
12.351190
30
0.0
11
-7.341025
21
12.351200
31
0.0
0
LINE
8
0
6
CONTINUOUS
10
5.038495
20
-18.998600
30
0.0
11
5.038495
21
-18.930870
31
0.0
0
LINE
8
0
6
CONTINUOUS
10
-36.762375
20
12.659270
30
0.0
11
-36.762375
21
12.351180
31
0.0
0
LINE
8
0
6
CONTINUOUS
10
-25.477735
20
12.351200
30
0.0
11
-21.264545
21
12.351200
31
0.0
0
LINE
8
0
6
CONTINUOUS
10
-16.828945
20
12.351200
30
0.0
11
-12.393315
21
12.351200
31
0.0
0
LINE
8
0
6
CONTINUOUS
10
-12.393315
20
12.351200
30
0.0
11
-8.180135
21
12.351200
31
0.0
0
LINE
8
0
6
CONTINUOUS
10
-4.400635
20
12.351190
30
0.0
11
-1.244335
21
12.351190
31
0.0
0
LINE
8
0
6
CONTINUOUS
10
-33.926895
20
12.659280
30
0.0
11
-30.464095
21
12.659280
31
0.0
0
LINE
8
0
6
CONTINUOUS
10
-3.193795
20
12.659280
30
0.0
11
0.268995
21
12.659280
31
0.0
0
LINE
8
0
6
CONTINUOUS
10
-11.962605
20
12.659280
30
0.0
11
-7.340305
21
12.659280
31
0.0
0
LINE
8
0
6
CONTINUOUS
10
5.040145
20
12.659270
30
0.0
11
5.040145
21
12.975010
31
0.0
0
LINE
8
0
6
CONTINUOUS
10
4.491845
20
12.659270
30
0.0
11
5.040145
21
12.659270
31
0.0
0
LINE
8
0
6
CONTINUOUS
10
0.268995
20
12.659280
30
0.0
11
2.874435
21
12.659270
31
0.0
0
LINE
8
0
6
CONTINUOUS
10
-38.149705
20
12.659270
30
0.0
11
-36.532285
21
12.659270
31
0.0
0
LINE
8
0
6
CONTINUOUS
10
2.874435
20
12.659270
30
0.0
11
4.491845
21
12.659270
31
0.0
0
LINE
8
0
6
CONTINUOUS
10
-36.532285
20
12.659270
30
0.0
11
-33.926895
21
12.659280
31
0.0
0
LINE
8
0
6
CONTINUOUS
10
-16.828945
20
12.659280
30
0.0
11
-11.962605
21
12.659280
31
0.0
0
LINE
8
0
6
CONTINUOUS
10
-26.317575
20
12.659280
30
0.0
11
-21.695275
21
12.659280
31
0.0
0
LINE
8
0
6
CONTINUOUS
10
-30.464095
20
12.659280
30
0.0
11
-26.317575
21
12.659280
31
0.0
0
LINE
8
0
6
CONTINUOUS
10
-7.340305
20
12.659280
30
0.0
11
-3.193795
21
12.659280
31
0.0
0
LINE
8
0
6
CONTINUOUS
10
-21.695275
20
12.659280
30
0.0
11
-16.828945
21
12.659280
31
0.0
0
LINE
8
0
6
CONTINUOUS
10
-38.697995
20
12.975010
30
0.0
11
-38.697995
21
12.659270
31
0.0
0
LINE
8
0
6
CONTINUOUS
10
-38.697995
20
12.659270
30
0.0
11
-38.149705
21
12.659270
31
0.0
0
LINE
8
0
6
CONTINUOUS
10
5.040145
20
12.975010
30
0.0
11
5.040145
21
13.850340
31
0.0
0
LINE
8
0
6
CONTINUOUS
10
-38.697995
20
13.852070
30
0.0
11
-38.697995
21
12.975010
31
0.0
0
LINE
8
0
6
CONTINUOUS
10
-30.329695
20
-19.521760
30
0.0
11
-26.224055
21
-19.521750
31
0.0
0
LINE
8
0
6
CONTINUOUS
10
-13.688925
20
0.038950
30
0.0
11
-12.983215
21
-0.880740
31
0.0
0
LINE
8
0
6
CONTINUOUS
10
-12.688565
20
-0.710630
30
0.0
11
-13.448345
21
0.279530
31
0.0
0
LINE
8
0
6
CONTINUOUS
10
-12.983215
20
-0.880740
30
0.0
11
-12.539595
21
-1.951750
31
0.0
0
LINE
8
0
6
CONTINUOUS
10
-12.210955
20
-1.863680
30
0.0
11
-12.688565
21
-0.710630
31
0.0
0
LINE
8
0
6
CONTINUOUS
10
-12.551815
20
-5.570480
30
0.0
11
-12.058425
21
-4.379330
31
0.0
0
LINE
8
0
6
CONTINUOUS
10
-16.828945
20
-7.541740
30
0.0
11
-17.978275
21
-7.390430
31
0.0
0
LINE
8
0
6
CONTINUOUS
10
-18.066335
20
-7.719070
30
0.0
11
-16.828945
21
-7.881970
31
0.0
0
LINE
8
0
6
CONTINUOUS
10
-12.539595
20
-4.250400
30
0.0
11
-12.983215
21
-5.321400
31
0.0
0
LINE
8
0
6
CONTINUOUS
10
-12.688565
20
-5.491520
30
0.0
11
-12.210945
21
-4.338460
31
0.0
0
LINE
8
0
6
CONTINUOUS
10
-19.219395
20
1.039310
30
0.0
11
-18.066335
21
1.516920
31
0.0
0
LINE
8
0
6
CONTINUOUS
10
-18.107195
20
1.669450
30
0.0
11
-19.298345
21
1.176050
31
0.0
0
LINE
8
0
6
CONTINUOUS
10
-16.828945
20
1.339590
30
0.0
11
-15.679605
21
1.188280
31
0.0
0
LINE
8
0
6
CONTINUOUS
10
-15.591555
20
1.516920
30
0.0
11
-16.828945
21
1.679830
31
0.0
0
LINE
8
0
6
CONTINUOUS
10
-12.983215
20
-5.321400
30
0.0
11
-13.688915
21
-6.241100
31
0.0
0
LINE
8
0
6
CONTINUOUS
10
-13.448335
20
-6.481680
30
0.0
11
-12.688565
21
-5.491520
31
0.0
0
LINE
8
0
6
CONTINUOUS
10
-15.679605
20
-7.390430
30
0.0
11
-16.828945
21
-7.541740
31
0.0
0
LINE
8
0
6
CONTINUOUS
10
-16.828945
20
-7.881970
30
0.0
11
-15.591555
21
-7.719070
31
0.0
0
LINE
8
0
6
CONTINUOUS
10
-12.048045
20
-3.101070
30
0.0
11
-12.210945
21
-4.338460
31
0.0
0
LINE
8
0
6
CONTINUOUS
10
-12.058425
20
-4.379330
30
0.0
11
-11.890135
21
-3.101080
31
0.0
0
LINE
8
0
6
CONTINUOUS
10
-15.679605
20
1.188280
30
0.0
11
-14.608625
21
0.744650
31
0.0
0
LINE
8
0
6
CONTINUOUS
10
-14.438495
20
1.039310
30
0.0
11
-15.591555
21
1.516920
31
0.0
0
LINE
8
0
6
CONTINUOUS
10
-14.608605
20
-6.946800
30
0.0
11
-15.679605
21
-7.390430
31
0.0
0
LINE
8
0
6
CONTINUOUS
10
-15.591555
20
-7.719070
30
0.0
11
-14.438485
21
-7.241450
31
0.0
0
LINE
8
0
6
CONTINUOUS
10
-12.539595
20
-1.951750
30
0.0
11
-12.388275
21
-3.101070
31
0.0
0
LINE
8
0
6
CONTINUOUS
10
-12.048045
20
-3.101070
30
0.0
11
-12.210955
21
-1.863680
31
0.0
0
LINE
8
0
6
CONTINUOUS
10
-20.209555
20
0.279530
30
0.0
11
-19.219395
21
1.039310
31
0.0
0
LINE
8
0
6
CONTINUOUS
10
-19.298345
20
1.176050
30
0.0
11
-20.321195
21
0.391190
31
0.0
0
LINE
8
0
6
CONTINUOUS
10
81.396245
20
-25.032580
30
0.0
11
81.261365
21
-25.083760
31
0.0
0
LINE
8
0
6
CONTINUOUS
10
83.728315
20
-26.258660
30
0.0
11
84.833705
21
-25.172990
31
0.0
0
LINE
8
0
6
CONTINUOUS
10
90.378475
20
-24.981400
30
0.0
11
89.801545
21
-24.981400
31
0.0
0
LINE
8
0
6
CONTINUOUS
10
90.153695
20
-25.297720
30
0.0
11
90.378475
21
-24.981400
31
0.0
0
LINE
8
0
6
CONTINUOUS
10
85.413805
20
-24.981400
30
0.0
11
85.028765
21
-24.981400
31
0.0
0
LINE
8
0
6
CONTINUOUS
10
85.028765
20
-24.981400
30
0.0
11
84.833705
21
-25.172990
31
0.0
0
ENDSEC
0
EOF
