999
Erzeugt mit innoplus bad 
0
SECTION
2
HEADER
9
$ACADVER
1
AC1009
9
$DWGCODEPAGE
3
ISO8859-1
0
ENDSEC
0
SECTION
2
TABLES
0
TABLE
2
LAYER
70
1
0
LAYER
2
0
70
0
62
7
6
CONTINUOUS
0
ENDTAB
0
ENDSEC
0
SECTION
2
ENTITIES
0
LINE
8
0
6
CONTINUOUS
10
-28.027350
20
-12.005470
30
0.0
11
-31.089710
21
-12.005470
31
0.0
0
LINE
8
0
6
CONTINUOUS
10
-31.089710
20
-12.005470
30
0.0
11
-32.333000
21
-12.005470
31
0.0
0
LINE
8
0
6
CONTINUOUS
10
-32.843080
20
-12.005460
30
0.0
11
-32.843080
21
-13.270810
31
0.0
0
LINE
8
0
6
CONTINUOUS
10
-27.241950
20
-12.005460
30
0.0
11
-28.441510
21
-12.005450
31
0.0
0
LINE
8
0
6
CONTINUOUS
10
-25.333730
20
-12.005460
30
0.0
11
-27.241950
21
-12.005460
31
0.0
0
LINE
8
0
6
CONTINUOUS
10
-22.846880
20
-12.005460
30
0.0
11
-25.333730
21
-12.005460
31
0.0
0
LINE
8
0
6
CONTINUOUS
10
-19.950890
20
-12.005460
30
0.0
11
-22.846880
21
-12.005460
31
0.0
0
LINE
8
0
6
CONTINUOUS
10
-16.843090
20
-12.005460
30
0.0
11
-19.950890
21
-12.005460
31
0.0
0
LINE
8
0
6
CONTINUOUS
10
-32.843080
20
-12.005460
30
0.0
11
-32.333000
21
-12.005470
31
0.0
0
LINE
8
0
6
CONTINUOUS
10
-32.424640
20
-12.005460
30
0.0
11
-32.843080
21
-12.005460
31
0.0
0
LINE
8
0
6
CONTINUOUS
10
-6.248380
20
-11.399370
30
0.0
11
-11.545740
21
-11.702420
31
0.0
0
LINE
8
0
6
CONTINUOUS
10
-0.951030
20
-11.096320
30
0.0
11
-6.248380
21
-11.399370
31
0.0
0
LINE
8
0
6
CONTINUOUS
10
-11.545740
20
-11.702420
30
0.0
11
-16.843090
21
-12.005470
31
0.0
0
LINE
8
0
6
CONTINUOUS
10
-24.981400
20
-12.005460
30
0.0
11
-25.265580
21
-12.005460
31
0.0
0
LINE
8
0
6
CONTINUOUS
10
-25.297720
20
-12.005470
30
0.0
11
-28.027350
21
-12.005470
31
0.0
0
LINE
8
0
6
CONTINUOUS
10
-32.843080
20
-13.270810
30
0.0
11
-32.843080
21
-70.904020
31
0.0
0
LINE
8
0
6
CONTINUOUS
10
-31.089710
20
-71.744540
30
0.0
11
-28.027350
21
-71.744540
31
0.0
0
LINE
8
0
6
CONTINUOUS
10
-32.332990
20
-71.744540
30
0.0
11
-31.089710
21
-71.744540
31
0.0
0
LINE
8
0
6
CONTINUOUS
10
-32.843080
20
-71.744540
30
0.0
11
-32.332990
21
-71.744540
31
0.0
0
LINE
8
0
6
CONTINUOUS
10
-32.843080
20
-70.904020
30
0.0
11
-32.843080
21
-71.744540
31
0.0
0
LINE
8
0
6
CONTINUOUS
10
-24.945190
20
-71.744540
30
0.0
11
-23.458430
21
-71.744540
31
0.0
0
LINE
8
0
6
CONTINUOUS
10
-23.458430
20
-71.744540
30
0.0
11
-21.520840
21
-71.744540
31
0.0
0
LINE
8
0
6
CONTINUOUS
10
-21.520840
20
-71.744540
30
0.0
11
-19.264470
21
-71.744540
31
0.0
0
LINE
8
0
6
CONTINUOUS
10
-19.264470
20
-71.744540
30
0.0
11
-16.843090
21
-71.744540
31
0.0
0
LINE
8
0
6
CONTINUOUS
10
-16.843090
20
-71.744540
30
0.0
11
-14.421710
21
-71.744540
31
0.0
0
LINE
8
0
6
CONTINUOUS
10
-14.421710
20
-71.744540
30
0.0
11
-12.165340
21
-71.744540
31
0.0
0
LINE
8
0
6
CONTINUOUS
10
-12.165340
20
-71.744540
30
0.0
11
-10.227750
21
-71.744540
31
0.0
0
LINE
8
0
6
CONTINUOUS
10
-10.227750
20
-71.744540
30
0.0
11
-8.740980
21
-71.744540
31
0.0
0
LINE
8
0
6
CONTINUOUS
10
-29.242290
20
-12.005460
30
0.0
11
-28.850660
21
-12.005460
31
0.0
0
LINE
8
0
6
CONTINUOUS
10
-28.441510
20
-12.005450
30
0.0
11
-28.819790
21
-12.005450
31
0.0
0
LINE
8
0
6
CONTINUOUS
10
-28.850660
20
-12.005460
30
0.0
11
-28.441510
21
-12.005450
31
0.0
0
LINE
8
0
6
CONTINUOUS
10
-13.735300
20
-12.005460
30
0.0
11
-10.839310
21
-12.005460
31
0.0
0
LINE
8
0
6
CONTINUOUS
10
-10.839310
20
-12.005460
30
0.0
11
-8.352460
21
-12.005450
31
0.0
0
LINE
8
0
6
CONTINUOUS
10
-13.568000
20
-11.982300
30
0.0
11
-16.843090
21
-12.005460
31
0.0
0
LINE
8
0
6
CONTINUOUS
10
-16.843090
20
-12.005460
30
0.0
11
-13.735300
21
-12.005460
31
0.0
0
LINE
8
0
6
CONTINUOUS
10
-26.402310
20
-12.005460
30
0.0
11
-27.901210
21
-12.005460
31
0.0
0
LINE
8
0
6
CONTINUOUS
10
-27.901210
20
-12.005460
30
0.0
11
-28.854890
21
-12.005460
31
0.0
0
LINE
8
0
6
CONTINUOUS
10
-28.854890
20
-12.005460
30
0.0
11
-29.242290
21
-12.005460
31
0.0
0
LINE
8
0
6
CONTINUOUS
10
-31.893720
20
-12.005460
30
0.0
11
-32.424640
21
-12.005460
31
0.0
0
LINE
8
0
6
CONTINUOUS
10
-28.819790
20
-12.005450
30
0.0
11
-31.893720
21
-12.005460
31
0.0
0
LINE
8
0
6
CONTINUOUS
10
-11.780740
20
-11.734940
30
0.0
11
-16.843090
21
-12.005460
31
0.0
0
LINE
8
0
6
CONTINUOUS
10
-28.027350
20
-71.744540
30
0.0
11
-25.297720
21
-71.744540
31
0.0
0
LINE
8
0
6
CONTINUOUS
10
-8.095490
20
-11.927440
30
0.0
11
13.722544
21
-10.793303
31
0.0
0
LINE
8
0
6
CONTINUOUS
10
-25.265580
20
-12.005460
30
0.0
11
-26.402310
21
-12.005460
31
0.0
0
LINE
8
0
6
CONTINUOUS
10
13.724140
20
-10.793270
30
0.0
11
-0.951030
21
-11.096320
31
0.0
0
LINE
8
0
6
CONTINUOUS
10
13.724140
20
-10.793270
30
0.0
11
-1.942280
21
-11.218080
31
0.0
0
LINE
8
0
6
CONTINUOUS
10
-8.091750
20
-71.744540
30
0.0
11
13.724140
21
-71.744540
31
0.0
0
LINE
8
0
6
CONTINUOUS
10
-8.856030
20
-12.005460
30
0.0
11
-8.856030
21
-13.270800
31
0.0
0
LINE
8
0
6
CONTINUOUS
10
-8.095490
20
-11.927440
30
0.0
11
-8.856030
21
-12.005460
31
0.0
0
LINE
8
0
6
CONTINUOUS
10
-8.856030
20
-13.270800
30
0.0
11
-8.856030
21
-70.904020
31
0.0
0
LINE
8
0
6
CONTINUOUS
10
-8.856030
20
-70.904020
30
0.0
11
-8.856030
21
-71.744540
31
0.0
0
LINE
8
0
6
CONTINUOUS
10
-8.856030
20
-71.744540
30
0.0
11
-8.091750
21
-71.744540
31
0.0
0
LINE
8
0
6
CONTINUOUS
10
15.135360
20
83.255440
30
0.0
11
13.850340
21
83.255440
31
0.0
0
LINE
8
0
6
CONTINUOUS
10
13.850340
20
83.255440
30
0.0
11
13.850340
21
82.553640
31
0.0
0
LINE
8
0
6
CONTINUOUS
10
15.135360
20
-71.744540
30
0.0
11
32.073070
21
-71.744540
31
0.0
0
LINE
8
0
6
CONTINUOUS
10
32.843070
20
-71.040730
30
0.0
11
32.843070
21
82.551650
31
0.0
0
LINE
8
0
6
CONTINUOUS
10
13.850340
20
22.969010
30
0.0
11
13.850340
21
10.911720
31
0.0
0
LINE
8
0
6
CONTINUOUS
10
13.850340
20
71.198160
30
0.0
11
13.850340
21
59.140870
31
0.0
0
LINE
8
0
6
CONTINUOUS
10
13.850340
20
59.140870
30
0.0
11
13.850340
21
47.083580
31
0.0
0
LINE
8
0
6
CONTINUOUS
10
13.850340
20
47.083580
30
0.0
11
13.850340
21
35.026290
31
0.0
0
LINE
8
0
6
CONTINUOUS
10
13.850340
20
35.026290
30
0.0
11
13.850340
21
22.969010
31
0.0
0
LINE
8
0
6
CONTINUOUS
10
13.850340
20
82.553640
30
0.0
11
13.850340
21
71.198160
31
0.0
0
LINE
8
0
6
CONTINUOUS
10
32.073070
20
83.255440
30
0.0
11
15.135360
21
83.255440
31
0.0
0
LINE
8
0
6
CONTINUOUS
10
32.843070
20
83.255440
30
0.0
11
32.073070
21
83.255440
31
0.0
0
LINE
8
0
6
CONTINUOUS
10
32.843070
20
82.551650
30
0.0
11
32.843070
21
83.255440
31
0.0
0
LINE
8
0
6
CONTINUOUS
10
32.073070
20
-71.744540
30
0.0
11
32.843070
21
-71.744540
31
0.0
0
LINE
8
0
6
CONTINUOUS
10
32.843070
20
-71.744540
30
0.0
11
32.843070
21
-71.040730
31
0.0
0
LINE
8
0
6
CONTINUOUS
10
13.850340
20
10.911720
30
0.0
11
13.850340
21
-9.621020
31
0.0
0
LINE
8
0
6
CONTINUOUS
10
14.365360
20
-71.744540
30
0.0
11
15.135360
21
-71.744540
31
0.0
0
LINE
8
0
6
CONTINUOUS
10
13.850340
20
-10.793220
30
0.0
11
13.724140
21
-10.793220
31
0.0
0
LINE
8
0
6
CONTINUOUS
10
13.724140
20
-71.744540
30
0.0
11
14.365360
21
-71.744540
31
0.0
0
LINE
8
0
6
CONTINUOUS
10
13.850340
20
-9.621020
30
0.0
11
13.850340
21
-10.793220
31
0.0
0
LINE
8
0
6
CONTINUOUS
10
23.026270
20
-83.176610
30
0.0
11
23.089170
21
-83.045580
31
0.0
0
LINE
8
0
6
CONTINUOUS
10
4.114570
20
-72.195460
30
0.0
11
4.114570
21
-72.319190
31
0.0
0
LINE
8
0
6
CONTINUOUS
10
20.834110
20
-83.255430
30
0.0
11
22.147750
21
-83.255400
31
0.0
0
LINE
8
0
6
CONTINUOUS
10
16.209940
20
-83.255410
30
0.0
11
18.788110
21
-83.255410
31
0.0
0
LINE
8
0
6
CONTINUOUS
10
13.352050
20
-83.255410
30
0.0
11
16.209940
21
-83.255410
31
0.0
0
LINE
8
0
6
CONTINUOUS
10
10.494190
20
-83.255410
30
0.0
11
13.352050
21
-83.255410
31
0.0
0
LINE
8
0
6
CONTINUOUS
10
7.916040
20
-83.255410
30
0.0
11
10.494190
21
-83.255410
31
0.0
0
LINE
8
0
6
CONTINUOUS
10
4.556370
20
-83.255400
30
0.0
11
5.870020
21
-83.255430
31
0.0
0
LINE
8
0
6
CONTINUOUS
10
3.677850
20
-83.176610
30
0.0
11
4.103740
21
-83.255420
31
0.0
0
LINE
8
0
6
CONTINUOUS
10
22.600400
20
-83.255420
30
0.0
11
23.026270
21
-83.176610
31
0.0
0
LINE
8
0
6
CONTINUOUS
10
23.026270
20
-83.176610
30
0.0
11
22.552750
21
-83.176590
31
0.0
0
LINE
8
0
6
CONTINUOUS
10
3.677850
20
-83.176610
30
0.0
11
4.151370
21
-83.176590
31
0.0
0
LINE
8
0
6
CONTINUOUS
10
3.614960
20
-83.045580
30
0.0
11
3.677850
21
-83.176610
31
0.0
0
LINE
8
0
6
CONTINUOUS
10
4.151370
20
-83.176590
30
0.0
11
5.525460
21
-83.176600
31
0.0
0
LINE
8
0
6
CONTINUOUS
10
5.525460
20
-83.176600
30
0.0
11
7.665700
21
-83.176600
31
0.0
0
LINE
8
0
6
CONTINUOUS
10
7.665700
20
-83.176600
30
0.0
11
10.362590
21
-83.176600
31
0.0
0
LINE
8
0
6
CONTINUOUS
10
10.362590
20
-83.176600
30
0.0
11
13.352050
21
-83.176600
31
0.0
0
LINE
8
0
6
CONTINUOUS
10
13.352050
20
-83.176600
30
0.0
11
16.341560
21
-83.176600
31
0.0
0
LINE
8
0
6
CONTINUOUS
10
16.341560
20
-83.176600
30
0.0
11
19.038390
21
-83.176600
31
0.0
0
LINE
8
0
6
CONTINUOUS
10
19.038390
20
-83.176600
30
0.0
11
21.178660
21
-83.176600
31
0.0
0
LINE
8
0
6
CONTINUOUS
10
21.178660
20
-83.176600
30
0.0
11
22.552750
21
-83.176590
31
0.0
0
LINE
8
0
6
CONTINUOUS
10
22.589560
20
-72.319190
30
0.0
11
22.589560
21
-72.195460
31
0.0
0
LINE
8
0
6
CONTINUOUS
10
23.089170
20
-83.045580
30
0.0
11
23.700020
21
-82.196920
31
0.0
0
LINE
8
0
6
CONTINUOUS
10
3.004090
20
-82.196920
30
0.0
11
3.614960
21
-83.045580
31
0.0
0
LINE
8
0
6
CONTINUOUS
10
22.679740
20
-74.281910
30
0.0
11
22.589560
21
-74.195460
31
0.0
0
LINE
8
0
6
CONTINUOUS
10
4.114570
20
-74.195470
30
0.0
11
4.024340
21
-74.281910
31
0.0
0
LINE
8
0
6
CONTINUOUS
10
23.827040
20
-82.020450
30
0.0
11
23.827040
21
-81.805590
31
0.0
0
LINE
8
0
6
CONTINUOUS
10
2.877050
20
-81.805590
30
0.0
11
2.877050
21
-82.020450
31
0.0
0
LINE
8
0
6
CONTINUOUS
10
23.827040
20
-81.805590
30
0.0
11
23.867480
21
-75.615120
31
0.0
0
LINE
8
0
6
CONTINUOUS
10
23.867480
20
-75.615120
30
0.0
11
23.867480
21
-75.420450
31
0.0
0
LINE
8
0
6
CONTINUOUS
10
2.836650
20
-75.615120
30
0.0
11
2.877050
21
-81.805590
31
0.0
0
LINE
8
0
6
CONTINUOUS
10
2.836650
20
-75.420450
30
0.0
11
2.836650
21
-75.615120
31
0.0
0
LINE
8
0
6
CONTINUOUS
10
6.445580
20
-72.195420
30
0.0
11
9.721100
21
-72.195420
31
0.0
0
LINE
8
0
6
CONTINUOUS
10
25.102070
20
-72.195460
30
0.0
11
25.102070
21
-72.029670
31
0.0
0
LINE
8
0
6
CONTINUOUS
10
24.526970
20
-72.195440
30
0.0
11
25.102070
21
-72.195460
31
0.0
0
LINE
8
0
6
CONTINUOUS
10
25.102070
20
-72.029670
30
0.0
11
25.102070
21
-71.744540
31
0.0
0
LINE
8
0
6
CONTINUOUS
10
20.258560
20
-72.195420
30
0.0
11
22.858010
21
-72.195440
31
0.0
0
LINE
8
0
6
CONTINUOUS
10
2.177160
20
-72.195440
30
0.0
11
3.846130
21
-72.195440
31
0.0
0
LINE
8
0
6
CONTINUOUS
10
16.983030
20
-72.195420
30
0.0
11
20.258560
21
-72.195420
31
0.0
0
LINE
8
0
6
CONTINUOUS
10
1.602050
20
-72.029670
30
0.0
11
1.602050
21
-72.195460
31
0.0
0
LINE
8
0
6
CONTINUOUS
10
1.602050
20
-72.195460
30
0.0
11
2.177160
21
-72.195440
31
0.0
0
LINE
8
0
6
CONTINUOUS
10
1.602050
20
-71.744540
30
0.0
11
1.602050
21
-72.029670
31
0.0
0
LINE
8
0
6
CONTINUOUS
10
13.352050
20
-72.195420
30
0.0
11
16.983030
21
-72.195420
31
0.0
0
LINE
8
0
6
CONTINUOUS
10
9.721100
20
-72.195420
30
0.0
11
13.352050
21
-72.195420
31
0.0
0
LINE
8
0
6
CONTINUOUS
10
3.846130
20
-72.195440
30
0.0
11
6.445580
21
-72.195420
31
0.0
0
LINE
8
0
6
CONTINUOUS
10
22.858010
20
-72.195440
30
0.0
11
24.526970
21
-72.195440
31
0.0
0
LINE
8
0
6
CONTINUOUS
10
4.566680
20
-74.195450
30
0.0
11
5.878790
21
-74.195440
31
0.0
0
LINE
8
0
6
CONTINUOUS
10
18.781740
20
-74.195450
30
0.0
11
20.825380
21
-74.195440
31
0.0
0
LINE
8
0
6
CONTINUOUS
10
10.497500
20
-74.195440
30
0.0
11
13.352050
21
-74.195440
31
0.0
0
LINE
8
0
6
CONTINUOUS
10
4.114570
20
-74.071720
30
0.0
11
4.114570
21
-74.195470
31
0.0
0
LINE
8
0
6
CONTINUOUS
10
4.114570
20
-74.195470
30
0.0
11
4.566680
21
-74.195450
31
0.0
0
LINE
8
0
6
CONTINUOUS
10
4.114570
20
-72.319190
30
0.0
11
4.114570
21
-74.071720
31
0.0
0
LINE
8
0
6
CONTINUOUS
10
5.878790
20
-74.195440
30
0.0
11
7.922400
21
-74.195450
31
0.0
0
LINE
8
0
6
CONTINUOUS
10
7.922400
20
-74.195450
30
0.0
11
10.497500
21
-74.195440
31
0.0
0
LINE
8
0
6
CONTINUOUS
10
13.352050
20
-74.195440
30
0.0
11
16.206620
21
-74.195440
31
0.0
0
LINE
8
0
6
CONTINUOUS
10
16.206620
20
-74.195440
30
0.0
11
18.781740
21
-74.195450
31
0.0
0
LINE
8
0
6
CONTINUOUS
10
22.589560
20
-74.195460
30
0.0
11
22.589560
21
-74.071720
31
0.0
0
LINE
8
0
6
CONTINUOUS
10
22.137450
20
-74.195450
30
0.0
11
22.589560
21
-74.195460
31
0.0
0
LINE
8
0
6
CONTINUOUS
10
22.589560
20
-74.071720
30
0.0
11
22.589560
21
-72.319190
31
0.0
0
LINE
8
0
6
CONTINUOUS
10
20.825380
20
-74.195440
30
0.0
11
22.137450
21
-74.195450
31
0.0
0
LINE
8
0
6
CONTINUOUS
10
23.867480
20
-75.420450
30
0.0
11
23.712570
21
-75.271950
31
0.0
0
LINE
8
0
6
CONTINUOUS
10
23.352800
20
-75.420440
30
0.0
11
23.867480
21
-75.420450
31
0.0
0
LINE
8
0
6
CONTINUOUS
10
21.859240
20
-75.420450
30
0.0
11
23.352800
21
-75.420440
31
0.0
0
LINE
8
0
6
CONTINUOUS
10
19.532880
20
-75.420440
30
0.0
11
21.859240
21
-75.420450
31
0.0
0
LINE
8
0
6
CONTINUOUS
10
16.601520
20
-75.420440
30
0.0
11
19.532880
21
-75.420440
31
0.0
0
LINE
8
0
6
CONTINUOUS
10
13.352050
20
-75.420440
30
0.0
11
16.601520
21
-75.420440
31
0.0
0
LINE
8
0
6
CONTINUOUS
10
10.102620
20
-75.420440
30
0.0
11
13.352050
21
-75.420440
31
0.0
0
LINE
8
0
6
CONTINUOUS
10
7.171250
20
-75.420440
30
0.0
11
10.102620
21
-75.420440
31
0.0
0
LINE
8
0
6
CONTINUOUS
10
4.844940
20
-75.420450
30
0.0
11
7.171250
21
-75.420440
31
0.0
0
LINE
8
0
6
CONTINUOUS
10
3.351270
20
-75.420440
30
0.0
11
4.844940
21
-75.420450
31
0.0
0
LINE
8
0
6
CONTINUOUS
10
2.991550
20
-75.271950
30
0.0
11
2.836650
21
-75.420450
31
0.0
0
LINE
8
0
6
CONTINUOUS
10
2.836650
20
-75.420450
30
0.0
11
3.351270
21
-75.420440
31
0.0
0
LINE
8
0
6
CONTINUOUS
10
23.712570
20
-75.271950
30
0.0
11
22.679740
21
-74.281910
31
0.0
0
LINE
8
0
6
CONTINUOUS
10
4.024340
20
-74.281910
30
0.0
11
2.991550
21
-75.271950
31
0.0
0
LINE
8
0
6
CONTINUOUS
10
23.700020
20
-82.196920
30
0.0
11
23.827040
21
-82.020450
31
0.0
0
LINE
8
0
6
CONTINUOUS
10
23.827040
20
-82.020450
30
0.0
11
23.314400
21
-82.020430
31
0.0
0
LINE
8
0
6
CONTINUOUS
10
2.877050
20
-82.020450
30
0.0
11
3.004090
21
-82.196920
31
0.0
0
LINE
8
0
6
CONTINUOUS
10
3.389740
20
-82.020430
30
0.0
11
2.877050
21
-82.020450
31
0.0
0
LINE
8
0
6
CONTINUOUS
10
4.877620
20
-82.020440
30
0.0
11
3.389740
21
-82.020430
31
0.0
0
LINE
8
0
6
CONTINUOUS
10
7.195010
20
-82.020440
30
0.0
11
4.877620
21
-82.020440
31
0.0
0
LINE
8
0
6
CONTINUOUS
10
10.115130
20
-82.020440
30
0.0
11
7.195010
21
-82.020440
31
0.0
0
LINE
8
0
6
CONTINUOUS
10
13.352050
20
-82.020440
30
0.0
11
10.115130
21
-82.020440
31
0.0
0
LINE
8
0
6
CONTINUOUS
10
16.589010
20
-82.020440
30
0.0
11
13.352050
21
-82.020440
31
0.0
0
LINE
8
0
6
CONTINUOUS
10
19.509120
20
-82.020440
30
0.0
11
16.589010
21
-82.020440
31
0.0
0
LINE
8
0
6
CONTINUOUS
10
21.826510
20
-82.020440
30
0.0
11
19.509120
21
-82.020440
31
0.0
0
LINE
8
0
6
CONTINUOUS
10
23.314400
20
-82.020430
30
0.0
11
21.826510
21
-82.020440
31
0.0
0
LINE
8
0
6
CONTINUOUS
10
1.837726
20
-3.462683
30
0.0
11
1.837730
21
0.535760
31
0.0
0
LINE
8
0
6
CONTINUOUS
10
-8.039880
20
0.535780
30
0.0
11
-8.039887
21
-3.462668
31
0.0
0
LINE
8
0
6
CONTINUOUS
10
1.837730
20
0.594890
30
0.0
11
1.679830
21
0.932230
31
0.0
0
LINE
8
0
6
CONTINUOUS
10
-7.881970
20
0.932240
30
0.0
11
-8.039880
21
0.594910
31
0.0
0
LINE
8
0
6
CONTINUOUS
10
0.744650
20
1.088790
30
0.0
11
0.038950
21
1.088790
31
0.0
0
LINE
8
0
6
CONTINUOUS
10
-3.101070
20
1.088790
30
0.0
11
-4.250400
21
1.088790
31
0.0
0
LINE
8
0
6
CONTINUOUS
10
1.039310
20
0.932230
30
0.0
11
0.279530
21
0.932230
31
0.0
0
LINE
8
0
6
CONTINUOUS
10
-7.378210
20
0.594910
30
0.0
11
-7.871590
21
0.594910
31
0.0
0
LINE
8
0
6
CONTINUOUS
10
-1.822810
20
0.594910
30
0.0
11
-3.101080
21
0.594910
31
0.0
0
LINE
8
0
6
CONTINUOUS
10
-0.631670
20
0.594910
30
0.0
11
-1.822810
21
0.594910
31
0.0
0
LINE
8
0
6
CONTINUOUS
10
0.391190
20
0.594910
30
0.0
11
-0.631670
21
0.594910
31
0.0
0
LINE
8
0
6
CONTINUOUS
10
1.176060
20
0.594910
30
0.0
11
0.391190
21
0.594910
31
0.0
0
LINE
8
0
6
CONTINUOUS
10
1.837730
20
0.594890
30
0.0
11
1.669450
21
0.594890
31
0.0
0
LINE
8
0
6
CONTINUOUS
10
1.837730
20
0.535760
30
0.0
11
1.837730
21
0.594890
31
0.0
0
LINE
8
0
6
CONTINUOUS
10
-8.039880
20
0.594910
30
0.0
11
-8.039880
21
0.535780
31
0.0
0
LINE
8
0
6
CONTINUOUS
10
-7.871590
20
0.594910
30
0.0
11
-8.039880
21
0.594910
31
0.0
0
LINE
8
0
6
CONTINUOUS
10
-6.241100
20
1.088790
30
0.0
11
-6.946800
21
1.088790
31
0.0
0
LINE
8
0
6
CONTINUOUS
10
-6.593340
20
0.594910
30
0.0
11
-5.570480
21
0.594910
31
0.0
0
LINE
8
0
6
CONTINUOUS
10
-6.481680
20
0.932240
30
0.0
11
-7.241450
21
0.932240
31
0.0
0
LINE
8
0
6
CONTINUOUS
10
-7.378210
20
0.594910
30
0.0
11
-6.593340
21
0.594910
31
0.0
0
LINE
8
0
6
CONTINUOUS
10
1.176060
20
0.594910
30
0.0
11
1.669450
21
0.594890
31
0.0
0
LINE
8
0
6
CONTINUOUS
10
-18.998560
20
-3.462650
30
0.0
11
-19.521770
21
-3.676560
31
0.0
0
LINE
8
0
6
CONTINUOUS
10
-19.834130
20
-8.784630
30
0.0
11
-19.834149
21
-12.005460
31
0.0
0
LINE
8
0
6
CONTINUOUS
10
-19.834130
20
-4.167660
30
0.0
11
-19.834130
21
-4.698250
31
0.0
0
LINE
8
0
6
CONTINUOUS
10
-19.521770
20
-3.676560
30
0.0
11
-19.834130
21
-4.167660
31
0.0
0
LINE
8
0
6
CONTINUOUS
10
-19.521770
20
-4.219470
30
0.0
11
-19.521770
21
-3.676560
31
0.0
0
LINE
8
0
6
CONTINUOUS
10
-19.834130
20
-4.698250
30
0.0
11
-19.834130
21
-6.263390
31
0.0
0
LINE
8
0
6
CONTINUOUS
10
-19.521770
20
-11.829330
30
0.0
11
-19.521770
21
-12.005460
31
0.0
0
LINE
8
0
6
CONTINUOUS
10
12.108220
20
-3.462700
30
0.0
11
1.837726
21
-3.462683
31
0.0
0
LINE
8
0
6
CONTINUOUS
10
-8.039887
20
-3.462668
30
0.0
11
-18.930840
21
-3.462650
31
0.0
0
LINE
8
0
6
CONTINUOUS
10
12.351200
20
-5.628240
30
0.0
11
12.351200
21
-4.010960
31
0.0
0
LINE
8
0
6
CONTINUOUS
10
12.351190
20
-10.830499
30
0.0
11
12.351190
21
-8.233460
31
0.0
0
LINE
8
0
6
CONTINUOUS
10
12.351200
20
-3.462700
30
0.0
11
12.108220
21
-3.462700
31
0.0
0
LINE
8
0
6
CONTINUOUS
10
12.351200
20
-4.010960
30
0.0
11
12.351200
21
-3.462700
31
0.0
0
LINE
8
0
6
CONTINUOUS
10
-19.521770
20
-8.400670
30
0.0
11
-19.521770
21
-5.820940
31
0.0
0
LINE
8
0
6
CONTINUOUS
10
-19.834130
20
-6.263390
30
0.0
11
-19.834130
21
-8.784630
31
0.0
0
LINE
8
0
6
CONTINUOUS
10
-19.521770
20
-8.400670
30
0.0
11
-19.521770
21
-11.829330
31
0.0
0
LINE
8
0
6
CONTINUOUS
10
-19.521770
20
-4.219470
30
0.0
11
-19.521770
21
-5.820940
31
0.0
0
LINE
8
0
6
CONTINUOUS
10
12.351190
20
-8.233460
30
0.0
11
12.351200
21
-5.628240
31
0.0
0
LINE
8
0
6
CONTINUOUS
10
-18.930840
20
-3.462650
30
0.0
11
-18.998560
21
-3.462650
31
0.0
0
LINE
8
0
6
CONTINUOUS
10
12.659280
20
-5.396680
30
0.0
11
12.351200
21
-5.396680
31
0.0
0
LINE
8
0
6
CONTINUOUS
10
12.659280
20
-8.232180
30
0.0
11
12.659280
21
-10.815260
31
0.0
0
LINE
8
0
6
CONTINUOUS
10
12.659280
20
-4.009340
30
0.0
11
12.659280
21
-5.626760
31
0.0
0
LINE
8
0
6
CONTINUOUS
10
12.975020
20
-3.461060
30
0.0
11
12.659280
21
-3.461060
31
0.0
0
LINE
8
0
6
CONTINUOUS
10
12.659280
20
-3.461060
30
0.0
11
12.659280
21
-4.009340
31
0.0
0
LINE
8
0
6
CONTINUOUS
10
12.659280
20
-5.626760
30
0.0
11
12.659280
21
-8.232180
31
0.0
0
LINE
8
0
6
CONTINUOUS
10
13.850340
20
-3.461060
30
0.0
11
12.975020
21
-3.461060
31
0.0
0
LINE
8
0
6
CONTINUOUS
10
0.679630
20
1.088790
30
0.0
11
-3.101080
21
1.088800
31
0.0
0
LINE
8
0
6
CONTINUOUS
10
-0.918280
20
1.088790
30
0.0
11
-3.101080
21
1.088800
31
0.0
0
LINE
8
0
6
CONTINUOUS
10
-3.101080
20
1.088800
30
0.0
11
-6.881780
21
1.088790
31
0.0
0
LINE
8
0
6
CONTINUOUS
10
0.038950
20
1.088790
30
0.0
11
-0.880740
21
1.088790
31
0.0
0
LINE
8
0
6
CONTINUOUS
10
-0.710630
20
0.932240
30
0.0
11
0.279530
21
0.932230
31
0.0
0
LINE
8
0
6
CONTINUOUS
10
-0.880740
20
1.088790
30
0.0
11
-1.951750
21
1.088790
31
0.0
0
LINE
8
0
6
CONTINUOUS
10
-1.863680
20
0.932240
30
0.0
11
-0.710630
21
0.932240
31
0.0
0
LINE
8
0
6
CONTINUOUS
10
-5.570480
20
0.594910
30
0.0
11
-4.379330
21
0.594910
31
0.0
0
LINE
8
0
6
CONTINUOUS
10
-4.250400
20
1.088790
30
0.0
11
-5.321400
21
1.088790
31
0.0
0
LINE
8
0
6
CONTINUOUS
10
-5.491520
20
0.932240
30
0.0
11
-4.338460
21
0.932240
31
0.0
0
LINE
8
0
6
CONTINUOUS
10
1.339590
20
1.088790
30
0.0
11
1.188280
21
1.088790
31
0.0
0
LINE
8
0
6
CONTINUOUS
10
1.679830
20
0.932230
30
0.0
11
1.339590
21
1.088790
31
0.0
0
LINE
8
0
6
CONTINUOUS
10
1.516920
20
0.932230
30
0.0
11
1.679830
21
0.932230
31
0.0
0
LINE
8
0
6
CONTINUOUS
10
-5.321400
20
1.088790
30
0.0
11
-6.241100
21
1.088790
31
0.0
0
LINE
8
0
6
CONTINUOUS
10
-6.481680
20
0.932240
30
0.0
11
-5.491520
21
0.932240
31
0.0
0
LINE
8
0
6
CONTINUOUS
10
-7.541740
20
1.088790
30
0.0
11
-7.881970
21
0.932240
31
0.0
0
LINE
8
0
6
CONTINUOUS
10
-7.390430
20
1.088790
30
0.0
11
-7.541740
21
1.088790
31
0.0
0
LINE
8
0
6
CONTINUOUS
10
-7.881970
20
0.932240
30
0.0
11
-7.719070
21
0.932240
31
0.0
0
LINE
8
0
6
CONTINUOUS
10
-3.101070
20
0.932240
30
0.0
11
-4.338460
21
0.932240
31
0.0
0
LINE
8
0
6
CONTINUOUS
10
-4.379330
20
0.594910
30
0.0
11
-3.101080
21
0.594910
31
0.0
0
LINE
8
0
6
CONTINUOUS
10
1.188280
20
1.088790
30
0.0
11
0.744650
21
1.088790
31
0.0
0
LINE
8
0
6
CONTINUOUS
10
1.039310
20
0.932230
30
0.0
11
1.516920
21
0.932230
31
0.0
0
LINE
8
0
6
CONTINUOUS
10
-6.946800
20
1.088790
30
0.0
11
-7.390430
21
1.088790
31
0.0
0
LINE
8
0
6
CONTINUOUS
10
-7.719070
20
0.932240
30
0.0
11
-7.241450
21
0.932240
31
0.0
0
LINE
8
0
6
CONTINUOUS
10
-1.951750
20
1.088790
30
0.0
11
-3.101070
21
1.088790
31
0.0
0
LINE
8
0
6
CONTINUOUS
10
-3.101070
20
0.932240
30
0.0
11
-1.863680
21
0.932240
31
0.0
0
LINE
8
0
6
CONTINUOUS
10
-24.981400
20
-12.005470
30
0.0
11
-25.297720
21
-12.005470
31
0.0
0
LINE
8
0
6
CONTINUOUS
10
-24.981400
20
-13.270810
30
0.0
11
-24.981400
21
-12.005470
31
0.0
0
LINE
8
0
6
CONTINUOUS
10
-24.981400
20
-70.904020
30
0.0
11
-24.981400
21
-13.270810
31
0.0
0
LINE
8
0
6
CONTINUOUS
10
-25.297720
20
-71.744540
30
0.0
11
-24.981400
21
-71.744540
31
0.0
0
LINE
8
0
6
CONTINUOUS
10
-24.981400
20
-71.744540
30
0.0
11
-24.981400
21
-70.904020
31
0.0
0
ENDSEC
0
EOF
