999
Erzeugt mit innoplus bad 
0
SECTION
2
HEADER
9
$ACADVER
1
AC1009
9
$DWGCODEPAGE
3
ISO8859-1
0
ENDSEC
0
SECTION
2
TABLES
0
TABLE
2
LAYER
70
1
0
LAYER
2
0
70
0
62
7
6
CONTINUOUS
0
ENDTAB
0
ENDSEC
0
SECTION
2
ENTITIES
0
LINE
8
0
6
CONTINUOUS
10
74.928815
20
11.500000
30
0.0
11
-74.928815
21
11.500000
31
0.0
0
LINE
8
0
6
CONTINUOUS
10
75.000000
20
-11.430794
30
0.0
11
75.000000
21
11.430794
31
0.0
0
LINE
8
0
6
CONTINUOUS
10
-75.000000
20
11.430794
30
0.0
11
-75.000000
21
-11.430794
31
0.0
0
LINE
8
0
6
CONTINUOUS
10
-74.928815
20
-11.500000
30
0.0
11
74.928815
21
-11.500000
31
0.0
0
LINE
8
0
6
CONTINUOUS
10
75.000000
20
-11.500000
30
0.0
11
75.000000
21
-11.430794
31
0.0
0
LINE
8
0
6
CONTINUOUS
10
74.928815
20
-11.500000
30
0.0
11
75.000000
21
-11.500000
31
0.0
0
LINE
8
0
6
CONTINUOUS
10
-75.000000
20
-11.500000
30
0.0
11
-74.928815
21
-11.500000
31
0.0
0
LINE
8
0
6
CONTINUOUS
10
-75.000000
20
-11.430794
30
0.0
11
-75.000000
21
-11.500000
31
0.0
0
LINE
8
0
6
CONTINUOUS
10
75.000000
20
11.500000
30
0.0
11
74.928815
21
11.500000
31
0.0
0
LINE
8
0
6
CONTINUOUS
10
75.000000
20
11.430794
30
0.0
11
75.000000
21
11.500000
31
0.0
0
LINE
8
0
6
CONTINUOUS
10
-75.000000
20
11.500000
30
0.0
11
-75.000000
21
11.430794
31
0.0
0
LINE
8
0
6
CONTINUOUS
10
-74.928815
20
11.500000
30
0.0
11
-75.000000
21
11.500000
31
0.0
0
ENDSEC
0
EOF
