999
Erzeugt mit innoplus bad 
0
SECTION
2
HEADER
9
$ACADVER
1
AC1009
9
$DWGCODEPAGE
3
ISO8859-1
0
ENDSEC
0
SECTION
2
TABLES
0
TABLE
2
LAYER
70
1
0
LAYER
2
0
70
0
62
7
6
CONTINUOUS
0
ENDTAB
0
ENDSEC
0
SECTION
2
ENTITIES
0
LINE
8
0
6
CONTINUOUS
10
23.457255
20
-12.909286
30
0.0
11
15.072141
21
-12.909299
31
0.0
0
LINE
8
0
6
CONTINUOUS
10
15.072180
20
-39.529909
30
0.0
11
23.374830
21
-39.529896
31
0.0
0
LINE
8
0
6
CONTINUOUS
10
47.435843
20
-41.579646
30
0.0
11
50.691056
21
-41.579646
31
0.0
0
LINE
8
0
6
CONTINUOUS
10
46.601709
20
-52.376193
30
0.0
11
49.700348
21
-51.194449
31
0.0
0
LINE
8
0
6
CONTINUOUS
10
49.700348
20
-51.194449
30
0.0
11
51.069452
21
-50.352912
31
0.0
0
LINE
8
0
6
CONTINUOUS
10
42.728879
20
-53.128192
30
0.0
11
46.601709
21
-52.376193
31
0.0
0
LINE
8
0
6
CONTINUOUS
10
38.745029
20
-53.396753
30
0.0
11
42.728879
21
-53.128192
31
0.0
0
LINE
8
0
6
CONTINUOUS
10
34.761169
20
-53.128202
30
0.0
11
38.745029
21
-53.396753
31
0.0
0
LINE
8
0
6
CONTINUOUS
10
30.998345
20
-52.376203
30
0.0
11
34.761169
21
-53.128202
31
0.0
0
LINE
8
0
6
CONTINUOUS
10
27.678649
20
-51.248203
30
0.0
11
30.998345
21
-52.376203
31
0.0
0
LINE
8
0
6
CONTINUOUS
10
25.509190
20
-49.728414
30
0.0
11
27.678649
21
-51.248203
31
0.0
0
LINE
8
0
6
CONTINUOUS
10
23.893810
20
-48.046041
30
0.0
11
25.509190
21
-49.728414
31
0.0
0
LINE
8
0
6
CONTINUOUS
10
23.354710
20
-46.027183
30
0.0
11
23.893810
21
-48.046041
31
0.0
0
LINE
8
0
6
CONTINUOUS
10
51.069452
20
-50.352912
30
0.0
11
51.360704
21
-50.173888
31
0.0
0
LINE
8
0
6
CONTINUOUS
10
50.691056
20
-41.579646
30
0.0
11
51.360684
21
-41.579646
31
0.0
0
LINE
8
0
6
CONTINUOUS
10
14.159023
20
-12.909299
30
0.0
11
13.795566
21
-12.909299
31
0.0
0
LINE
8
0
6
CONTINUOUS
10
14.159023
20
-13.388475
30
0.0
11
14.159023
21
-12.909299
31
0.0
0
LINE
8
0
6
CONTINUOUS
10
14.159023
20
-16.795898
30
0.0
11
14.159023
21
-14.666260
31
0.0
0
LINE
8
0
6
CONTINUOUS
10
14.159043
20
-22.812155
30
0.0
11
14.159033
21
-19.617688
31
0.0
0
LINE
8
0
6
CONTINUOUS
10
14.159043
20
-26.219599
30
0.0
11
14.159043
21
-22.812155
31
0.0
0
LINE
8
0
6
CONTINUOUS
10
13.795596
20
-39.529909
30
0.0
11
14.159053
21
-39.529909
31
0.0
0
LINE
8
0
6
CONTINUOUS
10
14.159053
20
-39.050733
30
0.0
11
14.159053
21
-37.772948
31
0.0
0
LINE
8
0
6
CONTINUOUS
10
14.159053
20
-35.643300
30
0.0
11
14.159043
21
-32.821510
31
0.0
0
LINE
8
0
6
CONTINUOUS
10
14.159043
20
-32.821510
30
0.0
11
14.159043
21
-29.627032
31
0.0
0
LINE
8
0
6
CONTINUOUS
10
14.938936
20
-13.275282
30
0.0
11
14.169901
21
-13.275282
31
0.0
0
LINE
8
0
6
CONTINUOUS
10
14.169901
20
-13.275282
30
0.0
11
14.169901
21
-13.741280
31
0.0
0
LINE
8
0
6
CONTINUOUS
10
14.938936
20
-14.983922
30
0.0
11
14.938936
21
-13.741280
31
0.0
0
LINE
8
0
6
CONTINUOUS
10
14.938936
20
-17.055013
30
0.0
11
14.938936
21
-14.983922
31
0.0
0
LINE
8
0
6
CONTINUOUS
10
14.169901
20
-14.983932
30
0.0
11
14.169901
21
-17.055013
31
0.0
0
LINE
8
0
6
CONTINUOUS
10
14.938955
20
-22.905845
30
0.0
11
14.938946
21
-19.799214
31
0.0
0
LINE
8
0
6
CONTINUOUS
10
14.169901
20
-19.799214
30
0.0
11
14.169911
21
-22.905845
31
0.0
0
LINE
8
0
6
CONTINUOUS
10
14.169911
20
-22.905845
30
0.0
11
14.169911
21
-26.219599
31
0.0
0
LINE
8
0
6
CONTINUOUS
10
14.938975
20
-39.163925
30
0.0
11
14.938965
21
-38.697928
31
0.0
0
LINE
8
0
6
CONTINUOUS
10
14.169931
20
-39.163925
30
0.0
11
14.938975
21
-39.163925
31
0.0
0
LINE
8
0
6
CONTINUOUS
10
14.169921
20
-37.455275
30
0.0
11
14.169931
21
-38.697928
31
0.0
0
LINE
8
0
6
CONTINUOUS
10
14.938965
20
-35.384184
30
0.0
11
14.938965
21
-32.639974
31
0.0
0
LINE
8
0
6
CONTINUOUS
10
14.169921
20
-32.639974
30
0.0
11
14.169931
21
-35.384184
31
0.0
0
LINE
8
0
6
CONTINUOUS
10
14.169911
20
-29.533342
30
0.0
11
14.169921
21
-32.639974
31
0.0
0
LINE
8
0
6
CONTINUOUS
10
14.938955
20
-29.533342
30
0.0
11
14.938955
21
-26.219599
31
0.0
0
LINE
8
0
6
CONTINUOUS
10
14.938965
20
-37.455275
30
0.0
11
14.938965
21
-38.697928
31
0.0
0
LINE
8
0
6
CONTINUOUS
10
14.159023
20
-16.795898
30
0.0
11
14.159033
21
-19.617688
31
0.0
0
LINE
8
0
6
CONTINUOUS
10
14.169901
20
-19.799214
30
0.0
11
14.169901
21
-17.055013
31
0.0
0
LINE
8
0
6
CONTINUOUS
10
14.938936
20
-13.275282
30
0.0
11
14.938936
21
-13.741280
31
0.0
0
LINE
8
0
6
CONTINUOUS
10
14.159053
20
-35.643300
30
0.0
11
14.159053
21
-37.772948
31
0.0
0
LINE
8
0
6
CONTINUOUS
10
14.169921
20
-37.455275
30
0.0
11
14.169931
21
-35.384184
31
0.0
0
LINE
8
0
6
CONTINUOUS
10
14.938955
20
-22.905845
30
0.0
11
14.938955
21
-26.219599
31
0.0
0
LINE
8
0
6
CONTINUOUS
10
14.938955
20
-29.533342
30
0.0
11
14.938965
21
-32.639974
31
0.0
0
LINE
8
0
6
CONTINUOUS
10
14.159023
20
-13.388475
30
0.0
11
14.159023
21
-14.666260
31
0.0
0
LINE
8
0
6
CONTINUOUS
10
14.169901
20
-14.983932
30
0.0
11
14.169901
21
-13.741280
31
0.0
0
LINE
8
0
6
CONTINUOUS
10
14.159053
20
-39.050733
30
0.0
11
14.159053
21
-39.529909
31
0.0
0
LINE
8
0
6
CONTINUOUS
10
14.169931
20
-39.163925
30
0.0
11
14.169931
21
-38.697928
31
0.0
0
LINE
8
0
6
CONTINUOUS
10
14.938936
20
-17.055013
30
0.0
11
14.938946
21
-19.799214
31
0.0
0
LINE
8
0
6
CONTINUOUS
10
14.159043
20
-26.219599
30
0.0
11
14.159043
21
-29.627032
31
0.0
0
LINE
8
0
6
CONTINUOUS
10
14.169911
20
-29.533342
30
0.0
11
14.169911
21
-26.219599
31
0.0
0
LINE
8
0
6
CONTINUOUS
10
14.938965
20
-35.384184
30
0.0
11
14.938965
21
-37.455275
31
0.0
0
LINE
8
0
6
CONTINUOUS
10
15.072141
20
-12.909299
30
0.0
11
14.949804
21
-12.909299
31
0.0
0
LINE
8
0
6
CONTINUOUS
10
14.949804
20
-12.909299
30
0.0
11
14.949804
21
-13.388475
31
0.0
0
LINE
8
0
6
CONTINUOUS
10
14.949804
20
-13.388475
30
0.0
11
14.949814
21
-14.666260
31
0.0
0
LINE
8
0
6
CONTINUOUS
10
14.949814
20
-14.666260
30
0.0
11
14.949814
21
-16.795898
31
0.0
0
LINE
8
0
6
CONTINUOUS
10
14.949814
20
-16.795898
30
0.0
11
14.949814
21
-19.617688
31
0.0
0
LINE
8
0
6
CONTINUOUS
10
14.949814
20
-19.617688
30
0.0
11
14.949824
21
-22.812155
31
0.0
0
LINE
8
0
6
CONTINUOUS
10
14.949824
20
-22.812155
30
0.0
11
14.949824
21
-26.219599
31
0.0
0
LINE
8
0
6
CONTINUOUS
10
14.949844
20
-39.529909
30
0.0
11
15.072180
21
-39.529909
31
0.0
0
LINE
8
0
6
CONTINUOUS
10
14.949844
20
-39.050733
30
0.0
11
14.949844
21
-39.529909
31
0.0
0
LINE
8
0
6
CONTINUOUS
10
14.949834
20
-37.772948
30
0.0
11
14.949844
21
-39.050733
31
0.0
0
LINE
8
0
6
CONTINUOUS
10
14.949844
20
-35.643300
30
0.0
11
14.949834
21
-37.772948
31
0.0
0
LINE
8
0
6
CONTINUOUS
10
14.949834
20
-32.821510
30
0.0
11
14.949844
21
-35.643300
31
0.0
0
LINE
8
0
6
CONTINUOUS
10
14.949824
20
-29.627032
30
0.0
11
14.949834
21
-32.821510
31
0.0
0
LINE
8
0
6
CONTINUOUS
10
14.949824
20
-26.219599
30
0.0
11
14.949824
21
-29.627032
31
0.0
0
LINE
8
0
6
CONTINUOUS
10
13.795566
20
-12.909299
30
0.0
11
0.454670
21
-12.909315
31
0.0
0
LINE
8
0
6
CONTINUOUS
10
-2.485000
20
-39.529929
30
0.0
11
13.795596
21
-39.529909
31
0.0
0
LINE
8
0
6
CONTINUOUS
10
-2.485000
20
-39.050753
30
0.0
11
-2.485000
21
-39.529929
31
0.0
0
LINE
8
0
6
CONTINUOUS
10
44.871775
20
-41.472268
30
0.0
11
45.954245
21
-41.456498
31
0.0
0
LINE
8
0
6
CONTINUOUS
10
47.044777
20
-41.579646
30
0.0
11
47.435843
21
-41.579646
31
0.0
0
LINE
8
0
6
CONTINUOUS
10
46.677557
20
-41.445971
30
0.0
11
47.044777
21
-41.579646
31
0.0
0
LINE
8
0
6
CONTINUOUS
10
42.030787
20
-41.513614
30
0.0
11
44.871775
21
-41.472268
31
0.0
0
LINE
8
0
6
CONTINUOUS
10
38.857612
20
-41.559803
30
0.0
11
42.030787
21
-41.513614
31
0.0
0
LINE
8
0
6
CONTINUOUS
10
35.614700
20
-41.607014
30
0.0
11
38.857612
21
-41.559803
31
0.0
0
LINE
8
0
6
CONTINUOUS
10
32.595393
20
-41.650962
30
0.0
11
35.614700
21
-41.607014
31
0.0
0
LINE
8
0
6
CONTINUOUS
10
32.211502
20
-41.687095
30
0.0
11
32.595393
21
-41.650962
31
0.0
0
LINE
8
0
6
CONTINUOUS
10
30.440116
20
-42.868778
30
0.0
11
32.211502
21
-41.687095
31
0.0
0
LINE
8
0
6
CONTINUOUS
10
29.112853
20
-44.319093
30
0.0
11
30.440116
21
-42.868778
31
0.0
0
LINE
8
0
6
CONTINUOUS
10
28.669765
20
-45.876777
30
0.0
11
29.112853
21
-44.319093
31
0.0
0
LINE
8
0
6
CONTINUOUS
10
45.954245
20
-41.456498
30
0.0
11
46.677557
21
-41.445971
31
0.0
0
LINE
8
0
6
CONTINUOUS
10
-39.825206
20
-1.169890
30
0.0
11
-43.572000
21
-4.012955
31
0.0
0
LINE
8
0
6
CONTINUOUS
10
-43.572000
20
-4.012955
30
0.0
11
-47.916143
21
-9.800056
31
0.0
0
LINE
8
0
6
CONTINUOUS
10
-47.916143
20
-9.800056
30
0.0
11
-50.522569
21
-16.351485
31
0.0
0
LINE
8
0
6
CONTINUOUS
10
-50.522569
20
-16.351485
30
0.0
11
-51.500000
21
-23.339672
31
0.0
0
LINE
8
0
6
CONTINUOUS
10
-5.126469
20
-4.012915
30
0.0
11
-8.972339
21
-1.094684
31
0.0
0
LINE
8
0
6
CONTINUOUS
10
-0.782376
20
-9.800016
30
0.0
11
-5.126469
21
-4.012915
31
0.0
0
LINE
8
0
6
CONTINUOUS
10
1.824130
20
-16.351435
30
0.0
11
-0.782376
21
-9.800016
31
0.0
0
LINE
8
0
6
CONTINUOUS
10
2.801581
20
-23.339632
30
0.0
11
1.824130
21
-16.351435
31
0.0
0
LINE
8
0
6
CONTINUOUS
10
-31.299768
20
-49.654567
30
0.0
11
-24.349190
21
-50.637273
31
0.0
0
LINE
8
0
6
CONTINUOUS
10
-37.815978
20
-47.033995
30
0.0
11
-31.299768
21
-49.654567
31
0.0
0
LINE
8
0
6
CONTINUOUS
10
-43.571961
20
-42.666389
30
0.0
11
-37.815978
21
-47.033995
31
0.0
0
LINE
8
0
6
CONTINUOUS
10
-47.916123
20
-36.879298
30
0.0
11
-43.571961
21
-42.666389
31
0.0
0
LINE
8
0
6
CONTINUOUS
10
-50.522549
20
-30.327869
30
0.0
11
-47.916123
21
-36.879298
31
0.0
0
LINE
8
0
6
CONTINUOUS
10
-51.500000
20
-23.339672
30
0.0
11
-50.522549
21
-30.327869
31
0.0
0
LINE
8
0
6
CONTINUOUS
10
-24.349190
20
-50.637273
30
0.0
11
-17.398611
21
-49.654557
31
0.0
0
LINE
8
0
6
CONTINUOUS
10
-17.398611
20
-49.654557
30
0.0
11
-10.882412
21
-47.033975
31
0.0
0
LINE
8
0
6
CONTINUOUS
10
-10.882412
20
-47.033975
30
0.0
11
-5.126429
21
-42.666349
31
0.0
0
LINE
8
0
6
CONTINUOUS
10
-5.126429
20
-42.666349
30
0.0
11
-0.782346
21
-36.879258
31
0.0
0
LINE
8
0
6
CONTINUOUS
10
-0.782346
20
-36.879258
30
0.0
11
1.824140
21
-30.327819
31
0.0
0
LINE
8
0
6
CONTINUOUS
10
1.824140
20
-30.327819
30
0.0
11
2.801581
21
-23.339632
31
0.0
0
LINE
8
0
6
CONTINUOUS
10
51.497462
20
-6.152970
30
0.0
11
51.500000
21
-5.337109
31
0.0
0
LINE
8
0
6
CONTINUOUS
10
47.435853
20
-50.173898
30
0.0
11
50.691076
21
-50.173888
31
0.0
0
LINE
8
0
6
CONTINUOUS
10
50.691076
20
-50.173888
30
0.0
11
51.360704
21
-50.173888
31
0.0
0
LINE
8
0
6
CONTINUOUS
10
51.360704
20
-50.173888
30
0.0
11
51.362336
21
-49.649403
31
0.0
0
LINE
8
0
6
CONTINUOUS
10
51.362336
20
-49.649403
30
0.0
11
51.497462
21
-6.152970
31
0.0
0
LINE
8
0
6
CONTINUOUS
10
47.044787
20
-50.173898
30
0.0
11
47.435853
21
-50.173898
31
0.0
0
LINE
8
0
6
CONTINUOUS
10
51.499980
20
3.257133
30
0.0
11
51.213167
21
3.433425
31
0.0
0
LINE
8
0
6
CONTINUOUS
10
51.497452
20
2.441272
30
0.0
11
51.499980
21
3.257133
31
0.0
0
LINE
8
0
6
CONTINUOUS
10
42.868136
20
6.211427
30
0.0
11
38.884275
21
6.479988
31
0.0
0
LINE
8
0
6
CONTINUOUS
10
38.884275
20
6.479988
30
0.0
11
34.900425
21
6.211427
31
0.0
0
LINE
8
0
6
CONTINUOUS
10
34.900425
20
6.211427
30
0.0
11
31.137611
21
5.459427
31
0.0
0
LINE
8
0
6
CONTINUOUS
10
31.137611
20
5.459427
30
0.0
11
27.817925
21
4.331428
31
0.0
0
LINE
8
0
6
CONTINUOUS
10
27.817925
20
4.331428
30
0.0
11
25.725459
21
2.996826
31
0.0
0
LINE
8
0
6
CONTINUOUS
10
25.725459
20
2.996826
30
0.0
11
24.033096
21
1.164908
31
0.0
0
LINE
8
0
6
CONTINUOUS
10
23.493996
20
-1.040859
30
0.0
11
23.491468
21
-1.859431
31
0.0
0
LINE
8
0
6
CONTINUOUS
10
24.033096
20
1.164908
30
0.0
11
23.493996
21
-1.040859
31
0.0
0
LINE
8
0
6
CONTINUOUS
10
1.172536
20
-30.218630
30
0.0
11
2.149967
21
-23.339632
31
0.0
0
LINE
8
0
6
CONTINUOUS
10
2.149967
20
-23.339632
30
0.0
11
1.172526
21
-16.460624
31
0.0
0
LINE
8
0
6
CONTINUOUS
10
-49.870945
20
-30.218670
30
0.0
11
-47.264519
21
-36.551729
31
0.0
0
LINE
8
0
6
CONTINUOUS
10
-24.349190
20
-49.982135
30
0.0
11
-17.507223
21
-48.999409
31
0.0
0
LINE
8
0
6
CONTINUOUS
10
-43.028969
20
-42.120431
30
0.0
11
-37.490200
21
-46.378857
31
0.0
0
LINE
8
0
6
CONTINUOUS
10
-1.433950
20
-36.551679
30
0.0
11
1.172536
21
-30.218630
31
0.0
0
LINE
8
0
6
CONTINUOUS
10
-5.669490
20
-42.120401
30
0.0
11
-1.433950
21
-36.551679
31
0.0
0
LINE
8
0
6
CONTINUOUS
10
-11.208249
20
-46.378827
30
0.0
11
-5.669490
21
-42.120401
31
0.0
0
LINE
8
0
6
CONTINUOUS
10
-17.507223
20
-48.999409
30
0.0
11
-11.208249
21
-46.378827
31
0.0
0
LINE
8
0
6
CONTINUOUS
10
-37.490200
20
-46.378857
30
0.0
11
-31.191226
21
-48.999419
31
0.0
0
LINE
8
0
6
CONTINUOUS
10
-31.191226
20
-48.999419
30
0.0
11
-24.349190
21
-49.982135
31
0.0
0
LINE
8
0
6
CONTINUOUS
10
-1.433980
20
-10.127575
30
0.0
11
-5.669530
21
-4.558863
31
0.0
0
LINE
8
0
6
CONTINUOUS
10
-47.264539
20
-10.127625
30
0.0
11
-49.870965
21
-16.460674
31
0.0
0
LINE
8
0
6
CONTINUOUS
10
-39.825206
20
-2.095685
30
0.0
11
-43.028999
21
-4.558903
31
0.0
0
LINE
8
0
6
CONTINUOUS
10
-49.870965
20
-16.460674
30
0.0
11
-50.848396
21
-23.339672
31
0.0
0
LINE
8
0
6
CONTINUOUS
10
1.172526
20
-16.460624
30
0.0
11
-1.433980
21
-10.127575
31
0.0
0
LINE
8
0
6
CONTINUOUS
10
-47.264519
20
-36.551729
30
0.0
11
-43.028969
21
-42.120431
31
0.0
0
LINE
8
0
6
CONTINUOUS
10
-5.669530
20
-4.558863
30
0.0
11
-8.972340
21
-2.019526
31
0.0
0
LINE
8
0
6
CONTINUOUS
10
-50.848396
20
-23.339672
30
0.0
11
-49.870945
21
-30.218670
31
0.0
0
LINE
8
0
6
CONTINUOUS
10
-43.028999
20
-4.558903
30
0.0
11
-47.264539
21
-10.127625
31
0.0
0
LINE
8
0
6
CONTINUOUS
10
49.839634
20
4.277693
30
0.0
11
46.740965
21
5.459437
31
0.0
0
LINE
8
0
6
CONTINUOUS
10
46.740965
20
5.459437
30
0.0
11
42.868136
21
6.211427
31
0.0
0
LINE
8
0
6
CONTINUOUS
10
51.213167
20
3.433425
30
0.0
11
49.839634
21
4.277693
31
0.0
0
LINE
8
0
6
CONTINUOUS
10
51.073881
20
-41.403354
30
0.0
11
51.360684
21
-41.579646
31
0.0
0
LINE
8
0
6
CONTINUOUS
10
51.360684
20
-41.579646
30
0.0
11
51.362316
21
-41.055172
31
0.0
0
LINE
8
0
6
CONTINUOUS
10
38.744999
20
-38.356780
30
0.0
11
42.728859
21
-38.625352
31
0.0
0
LINE
8
0
6
CONTINUOUS
10
34.761139
20
-38.625352
30
0.0
11
38.744999
21
-38.356780
31
0.0
0
LINE
8
0
6
CONTINUOUS
10
30.998315
20
-39.377361
30
0.0
11
34.761139
21
-38.625352
31
0.0
0
LINE
8
0
6
CONTINUOUS
10
27.678629
20
-40.505351
30
0.0
11
30.998315
21
-39.377361
31
0.0
0
LINE
8
0
6
CONTINUOUS
10
25.663206
20
-41.690457
30
0.0
11
27.678629
21
-40.505351
31
0.0
0
LINE
8
0
6
CONTINUOUS
10
23.739775
20
-43.896224
30
0.0
11
25.663206
21
-41.690457
31
0.0
0
LINE
8
0
6
CONTINUOUS
10
23.354710
20
-46.027183
30
0.0
11
23.739775
21
-43.896224
31
0.0
0
LINE
8
0
6
CONTINUOUS
10
23.356342
20
-45.500947
30
0.0
11
23.354710
21
-46.027183
31
0.0
0
LINE
8
0
6
CONTINUOUS
10
44.872034
20
-50.283208
30
0.0
11
45.954285
21
-50.299098
31
0.0
0
LINE
8
0
6
CONTINUOUS
10
42.031404
20
-50.241491
30
0.0
11
44.872034
21
-50.283208
31
0.0
0
LINE
8
0
6
CONTINUOUS
10
38.858349
20
-50.194891
30
0.0
11
42.031404
21
-50.241491
31
0.0
0
LINE
8
0
6
CONTINUOUS
10
35.615387
20
-50.147271
30
0.0
11
38.858349
21
-50.194891
31
0.0
0
LINE
8
0
6
CONTINUOUS
10
32.595811
20
-50.102923
30
0.0
11
35.615387
21
-50.147271
31
0.0
0
LINE
8
0
6
CONTINUOUS
10
32.211512
20
-50.066459
30
0.0
11
32.595811
21
-50.102923
31
0.0
0
LINE
8
0
6
CONTINUOUS
10
30.440126
20
-48.884776
30
0.0
11
32.211512
21
-50.066459
31
0.0
0
LINE
8
0
6
CONTINUOUS
10
32.211512
20
-50.066459
30
0.0
11
32.213145
21
-49.541975
31
0.0
0
LINE
8
0
6
CONTINUOUS
10
29.112863
20
-47.434471
30
0.0
11
30.440126
21
-48.884776
31
0.0
0
LINE
8
0
6
CONTINUOUS
10
28.669765
20
-45.876777
30
0.0
11
29.112863
21
-47.434471
31
0.0
0
LINE
8
0
6
CONTINUOUS
10
45.954285
20
-50.299098
30
0.0
11
46.671884
21
-50.309634
31
0.0
0
LINE
8
0
6
CONTINUOUS
10
46.601679
20
-39.377351
30
0.0
11
49.700328
21
-40.559085
31
0.0
0
LINE
8
0
6
CONTINUOUS
10
42.728859
20
-38.625352
30
0.0
11
46.601679
21
-39.377351
31
0.0
0
LINE
8
0
6
CONTINUOUS
10
49.700328
20
-40.559085
30
0.0
11
51.073881
21
-41.403354
31
0.0
0
LINE
8
0
6
CONTINUOUS
10
46.673516
20
-49.785150
30
0.0
11
46.671884
21
-50.309634
31
0.0
0
LINE
8
0
6
CONTINUOUS
10
47.044787
20
-50.173898
30
0.0
11
47.046409
21
-49.649413
31
0.0
0
LINE
8
0
6
CONTINUOUS
10
46.671884
20
-50.309634
30
0.0
11
47.044787
21
-50.173898
31
0.0
0
LINE
8
0
6
CONTINUOUS
10
51.362316
20
-41.055172
30
0.0
11
51.497452
21
2.441272
31
0.0
0
LINE
8
0
6
CONTINUOUS
10
23.491468
20
-1.859431
30
0.0
11
23.457255
21
-12.909286
31
0.0
0
LINE
8
0
6
CONTINUOUS
10
23.374830
20
-39.529896
30
0.0
11
23.356342
21
-45.500947
31
0.0
0
LINE
8
0
6
CONTINUOUS
10
32.213145
20
-49.541975
30
0.0
11
32.237556
21
-41.684642
31
0.0
0
LINE
8
0
6
CONTINUOUS
10
46.699398
20
-41.453921
30
0.0
11
46.673516
21
-49.785150
31
0.0
0
LINE
8
0
6
CONTINUOUS
10
47.046409
20
-49.649413
30
0.0
11
47.071482
21
-41.579646
31
0.0
0
LINE
8
0
6
CONTINUOUS
10
-8.972297
20
45.213754
30
0.0
11
-8.972297
21
46.561053
31
0.0
0
LINE
8
0
6
CONTINUOUS
10
-8.972297
20
48.197177
30
0.0
11
-8.972297
21
48.393512
31
0.0
0
LINE
8
0
6
CONTINUOUS
10
-8.972297
20
47.532913
30
0.0
11
-8.972297
21
48.197177
31
0.0
0
LINE
8
0
6
CONTINUOUS
10
-8.972297
20
46.561053
30
0.0
11
-8.972297
21
47.532913
31
0.0
0
LINE
8
0
6
CONTINUOUS
10
-8.972307
20
43.431317
30
0.0
11
-8.972297
21
45.213754
31
0.0
0
LINE
8
0
6
CONTINUOUS
10
-10.342814
20
-26.450366
30
0.0
11
-9.795284
21
-26.450376
31
0.0
0
LINE
8
0
6
CONTINUOUS
10
-39.825220
20
-22.470127
30
0.0
11
-39.825220
21
-24.152240
31
0.0
0
LINE
8
0
6
CONTINUOUS
10
-8.972356
20
-24.152270
30
0.0
11
-8.972356
21
-22.470147
31
0.0
0
LINE
8
0
6
CONTINUOUS
10
-39.564423
20
-23.016856
30
0.0
11
-39.564423
21
-24.742517
31
0.0
0
LINE
8
0
6
CONTINUOUS
10
-39.002283
20
-26.450356
30
0.0
11
-38.453758
21
-26.450366
31
0.0
0
LINE
8
0
6
CONTINUOUS
10
-8.972356
20
-11.940151
30
0.0
11
-8.972337
21
13.473159
31
0.0
0
LINE
8
0
6
CONTINUOUS
10
-39.825210
20
-11.940141
30
0.0
11
-39.825210
21
-17.644389
31
0.0
0
LINE
8
0
6
CONTINUOUS
10
-8.972356
20
-17.644409
30
0.0
11
-8.972356
21
-11.940151
31
0.0
0
LINE
8
0
6
CONTINUOUS
10
-39.825220
20
-25.649895
30
0.0
11
-39.564423
21
-26.196604
31
0.0
0
LINE
8
0
6
CONTINUOUS
10
-9.283891
20
-26.196624
30
0.0
11
-8.972356
21
-25.649905
31
0.0
0
LINE
8
0
6
CONTINUOUS
10
-9.795284
20
-26.450376
30
0.0
11
-9.283891
21
-26.196624
31
0.0
0
LINE
8
0
6
CONTINUOUS
10
-9.795284
20
-18.317569
30
0.0
11
-9.795284
21
-12.372076
31
0.0
0
LINE
8
0
6
CONTINUOUS
10
-39.825220
20
-25.238063
30
0.0
11
-39.825220
21
-25.618475
31
0.0
0
LINE
8
0
6
CONTINUOUS
10
-8.972356
20
-25.618495
30
0.0
11
-8.972356
21
-25.238093
31
0.0
0
LINE
8
0
6
CONTINUOUS
10
-39.564423
20
-25.843159
30
0.0
11
-39.564423
21
-26.186648
31
0.0
0
LINE
8
0
6
CONTINUOUS
10
-39.825210
20
-17.644389
30
0.0
11
-39.825210
21
-17.408299
31
0.0
0
LINE
8
0
6
CONTINUOUS
10
-8.972356
20
-20.378863
30
0.0
11
-8.972356
21
-17.644409
31
0.0
0
LINE
8
0
6
CONTINUOUS
10
-39.564423
20
-18.104163
30
0.0
11
-39.564423
21
-20.885386
31
0.0
0
LINE
8
0
6
CONTINUOUS
10
-39.825220
20
-24.152240
30
0.0
11
-39.825220
21
-25.238063
31
0.0
0
LINE
8
0
6
CONTINUOUS
10
-8.972356
20
-25.238093
30
0.0
11
-8.972356
21
-24.152270
31
0.0
0
LINE
8
0
6
CONTINUOUS
10
-39.564423
20
-24.742517
30
0.0
11
-39.564423
21
-25.843159
31
0.0
0
LINE
8
0
6
CONTINUOUS
10
-39.825220
20
-20.378843
30
0.0
11
-39.825220
21
-22.470127
31
0.0
0
LINE
8
0
6
CONTINUOUS
10
-8.972356
20
-22.470147
30
0.0
11
-8.972356
21
-20.378863
31
0.0
0
LINE
8
0
6
CONTINUOUS
10
-8.972347
20
-18.267417
30
0.0
11
-8.972347
21
-16.484990
31
0.0
0
LINE
8
0
6
CONTINUOUS
10
-39.564423
20
-20.885386
30
0.0
11
-39.564423
21
-23.016856
31
0.0
0
LINE
8
0
6
CONTINUOUS
10
-39.002263
20
13.473179
30
0.0
11
-39.002243
21
39.318444
31
0.0
0
LINE
8
0
6
CONTINUOUS
10
-39.825160
20
44.587885
30
0.0
11
-39.825180
21
38.886498
31
0.0
0
LINE
8
0
6
CONTINUOUS
10
-9.795214
20
53.396693
30
0.0
11
-10.342625
21
53.396703
31
0.0
0
LINE
8
0
6
CONTINUOUS
10
-9.795244
20
39.318404
30
0.0
11
-9.795234
21
45.263886
31
0.0
0
LINE
8
0
6
CONTINUOUS
10
-39.825160
20
51.653612
30
0.0
11
-39.825160
21
44.587885
31
0.0
0
LINE
8
0
6
CONTINUOUS
10
-8.972297
20
44.587855
30
0.0
11
-8.972297
21
51.653582
31
0.0
0
LINE
8
0
6
CONTINUOUS
10
-39.564344
20
53.142972
30
0.0
11
-39.825150
21
52.596253
31
0.0
0
LINE
8
0
6
CONTINUOUS
10
-39.825150
20
52.596253
30
0.0
11
-39.825160
21
51.653612
31
0.0
0
LINE
8
0
6
CONTINUOUS
10
-8.972287
20
52.596233
30
0.0
11
-9.283822
21
53.142952
31
0.0
0
LINE
8
0
6
CONTINUOUS
10
-8.972297
20
45.213744
30
0.0
11
-8.972287
21
52.294430
31
0.0
0
LINE
8
0
6
CONTINUOUS
10
-8.972307
20
43.431317
30
0.0
11
-8.972297
21
45.213744
31
0.0
0
LINE
8
0
6
CONTINUOUS
10
-8.972297
20
51.371171
30
0.0
11
-8.972307
21
43.431317
31
0.0
0
LINE
8
0
6
CONTINUOUS
10
-39.002213
20
53.396723
30
0.0
11
-39.564344
21
53.142972
31
0.0
0
LINE
8
0
6
CONTINUOUS
10
-9.283822
20
53.142952
30
0.0
11
-9.795214
21
53.396693
31
0.0
0
LINE
8
0
6
CONTINUOUS
10
-9.795284
20
-12.372076
30
0.0
11
-9.795264
21
13.473159
31
0.0
0
LINE
8
0
6
CONTINUOUS
10
-38.453758
20
-26.450366
30
0.0
11
-10.342814
21
-26.450366
31
0.0
0
LINE
8
0
6
CONTINUOUS
10
-39.825200
20
13.473179
30
0.0
11
-39.825210
21
-11.940141
31
0.0
0
LINE
8
0
6
CONTINUOUS
10
-8.972337
20
13.473159
30
0.0
11
-8.972317
21
38.886478
31
0.0
0
LINE
8
0
6
CONTINUOUS
10
-9.795244
20
39.318404
30
0.0
11
-9.795264
21
13.473159
31
0.0
0
LINE
8
0
6
CONTINUOUS
10
-39.825180
20
38.886498
30
0.0
11
-39.825200
21
13.473179
31
0.0
0
LINE
8
0
6
CONTINUOUS
10
-38.453578
20
53.396713
30
0.0
11
-39.002213
21
53.396723
31
0.0
0
LINE
8
0
6
CONTINUOUS
10
-10.342625
20
53.396703
30
0.0
11
-38.453578
21
53.396713
31
0.0
0
LINE
8
0
6
CONTINUOUS
10
-39.002263
20
13.473179
30
0.0
11
-39.002283
21
-12.372066
31
0.0
0
LINE
8
0
6
CONTINUOUS
10
-8.972297
20
44.333453
30
0.0
11
-8.972297
21
44.587855
31
0.0
0
LINE
8
0
6
CONTINUOUS
10
-8.972317
20
38.723624
30
0.0
11
-8.972297
21
44.333453
31
0.0
0
LINE
8
0
6
CONTINUOUS
10
-8.972287
20
52.294430
30
0.0
11
-8.972287
21
52.596233
31
0.0
0
LINE
8
0
6
CONTINUOUS
10
-10.150033
20
53.396743
30
0.0
11
-38.645683
21
53.396743
31
0.0
0
LINE
8
0
6
CONTINUOUS
10
-38.645683
20
53.396743
30
0.0
11
-39.002313
21
53.396733
31
0.0
0
LINE
8
0
6
CONTINUOUS
10
-9.795254
20
53.396753
30
0.0
11
-10.150033
21
53.396743
31
0.0
0
LINE
8
0
6
CONTINUOUS
10
-9.795254
20
-26.450386
30
0.0
11
-9.283862
21
-26.196634
31
0.0
0
LINE
8
0
6
CONTINUOUS
10
-9.283862
20
-26.196634
30
0.0
11
-8.972317
21
-25.649905
31
0.0
0
LINE
8
0
6
CONTINUOUS
10
-8.972317
20
52.176015
30
0.0
11
-8.972317
21
52.596283
31
0.0
0
LINE
8
0
6
CONTINUOUS
10
-8.972317
20
48.393552
30
0.0
11
-8.972317
21
52.176015
31
0.0
0
LINE
8
0
6
CONTINUOUS
10
-9.795254
20
53.396743
30
0.0
11
-10.150033
21
53.396743
31
0.0
0
LINE
8
0
6
CONTINUOUS
10
-10.150033
20
53.396743
30
0.0
11
-38.645683
21
53.396733
31
0.0
0
LINE
8
0
6
CONTINUOUS
10
-38.645683
20
53.396733
30
0.0
11
-39.002313
21
53.396723
31
0.0
0
LINE
8
0
6
CONTINUOUS
10
-38.531278
20
53.396733
30
0.0
11
-39.002313
21
53.396733
31
0.0
0
LINE
8
0
6
CONTINUOUS
10
-9.795254
20
53.396743
30
0.0
11
-10.150033
21
53.396743
31
0.0
0
LINE
8
0
6
CONTINUOUS
10
27.296086
20
-14.666249
30
0.0
11
27.756074
21
-15.577227
31
0.0
0
ENDSEC
0
EOF
