999
Erzeugt mit innoplus bad 
0
SECTION
2
HEADER
9
$ACADVER
1
AC1009
9
$DWGCODEPAGE
3
ISO8859-1
0
ENDSEC
0
SECTION
2
TABLES
0
TABLE
2
LAYER
70
1
0
LAYER
2
0
70
0
62
7
6
CONTINUOUS
0
ENDTAB
0
ENDSEC
0
SECTION
2
ENTITIES
0
LINE
8
0
6
CONTINUOUS
10
-6.237443
20
-73.835794
30
0.0
11
-6.237443
21
-45.277527
31
0.0
0
LINE
8
0
6
CONTINUOUS
10
-10.492708
20
-75.876864
30
0.0
11
-9.662708
21
-77.759734
31
0.0
0
LINE
8
0
6
CONTINUOUS
10
-6.813891
20
-80.661429
30
0.0
11
-4.993420
21
-81.441733
31
0.0
0
LINE
8
0
6
CONTINUOUS
10
-4.993420
20
-81.441733
30
0.0
11
-3.615081
21
-81.767394
31
0.0
0
LINE
8
0
6
CONTINUOUS
10
-4.858584
20
-81.212732
30
0.0
11
-4.993420
21
-81.441733
31
0.0
0
LINE
8
0
6
CONTINUOUS
10
-2.751760
20
-81.767394
30
0.0
11
-2.748228
21
-81.528363
31
0.0
0
LINE
8
0
6
CONTINUOUS
10
-3.615081
20
-81.767394
30
0.0
11
-2.751760
21
-81.767394
31
0.0
0
LINE
8
0
6
CONTINUOUS
10
-34.655580
20
-56.942857
30
0.0
11
-34.655580
21
-45.277527
31
0.0
0
LINE
8
0
6
CONTINUOUS
10
-39.658771
20
-56.942857
30
0.0
11
-39.658771
21
-58.487935
31
0.0
0
LINE
8
0
6
CONTINUOUS
10
-39.658771
20
-58.487935
30
0.0
11
-39.658771
21
-59.881792
31
0.0
0
LINE
8
0
6
CONTINUOUS
10
-39.658771
20
-59.881792
30
0.0
11
-39.658771
21
-60.987948
31
0.0
0
LINE
8
0
6
CONTINUOUS
10
-39.658771
20
-60.987948
30
0.0
11
-39.658771
21
-61.698172
31
0.0
0
LINE
8
0
6
CONTINUOUS
10
-39.658771
20
-61.942883
30
0.0
11
-39.216499
21
-61.942883
31
0.0
0
LINE
8
0
6
CONTINUOUS
10
-39.658771
20
-61.698172
30
0.0
11
-39.658771
21
-61.942883
31
0.0
0
LINE
8
0
6
CONTINUOUS
10
-34.655580
20
-61.942883
30
0.0
11
-34.655580
21
-61.698172
31
0.0
0
LINE
8
0
6
CONTINUOUS
10
-35.097852
20
-61.942883
30
0.0
11
-34.655580
21
-61.942883
31
0.0
0
LINE
8
0
6
CONTINUOUS
10
-39.216499
20
-61.942883
30
0.0
11
-35.097852
21
-61.942883
31
0.0
0
LINE
8
0
6
CONTINUOUS
10
-34.655580
20
-61.698172
30
0.0
11
-34.655580
21
-60.987948
31
0.0
0
LINE
8
0
6
CONTINUOUS
10
-34.655580
20
-60.987948
30
0.0
11
-34.655580
21
-59.881792
31
0.0
0
LINE
8
0
6
CONTINUOUS
10
-34.655580
20
-59.881792
30
0.0
11
-34.655580
21
-58.487935
31
0.0
0
LINE
8
0
6
CONTINUOUS
10
-34.655580
20
-58.487935
30
0.0
11
-34.655580
21
-56.942857
31
0.0
0
LINE
8
0
6
CONTINUOUS
10
-39.658771
20
-45.277527
30
0.0
11
-39.658771
21
-56.942857
31
0.0
0
LINE
8
0
6
CONTINUOUS
10
-2.709233
20
-78.896630
30
0.0
11
-3.051341
21
-78.896630
31
0.0
0
LINE
8
0
6
CONTINUOUS
10
-2.715247
20
-79.302892
30
0.0
11
-2.709233
21
-78.896630
31
0.0
0
LINE
8
0
6
CONTINUOUS
10
-3.051341
20
-78.896630
30
0.0
11
-3.402075
21
-78.739309
31
0.0
0
LINE
8
0
6
CONTINUOUS
10
-3.603163
20
-79.080801
30
0.0
11
-3.402075
21
-78.739309
31
0.0
0
LINE
8
0
6
CONTINUOUS
10
-4.273461
20
-78.406857
30
0.0
11
-5.245331
21
-77.632473
31
0.0
0
LINE
8
0
6
CONTINUOUS
10
-5.245331
20
-77.632473
30
0.0
11
-5.918900
21
-76.481567
31
0.0
0
LINE
8
0
6
CONTINUOUS
10
-5.918900
20
-76.481567
30
0.0
11
-6.196477
21
-75.173351
31
0.0
0
LINE
8
0
6
CONTINUOUS
10
-10.740025
20
-45.277527
30
0.0
11
-10.740025
21
-73.835834
31
0.0
0
LINE
8
0
6
CONTINUOUS
10
-2.748228
20
-81.528363
30
0.0
11
-2.715247
21
-79.302892
31
0.0
0
LINE
8
0
6
CONTINUOUS
10
-3.567871
20
-81.527033
30
0.0
11
-3.603163
21
-79.080801
31
0.0
0
LINE
8
0
6
CONTINUOUS
10
-4.858584
20
-81.212732
30
0.0
11
-4.575533
21
-78.674919
31
0.0
0
LINE
8
0
6
CONTINUOUS
10
-6.237443
20
-73.835794
30
0.0
11
-6.196477
21
-75.173351
31
0.0
0
LINE
8
0
6
CONTINUOUS
10
-3.402075
20
-78.739309
30
0.0
11
-3.691099
21
-78.618038
31
0.0
0
LINE
8
0
6
CONTINUOUS
10
-4.273461
20
-78.406857
30
0.0
11
-3.402075
21
-78.739309
31
0.0
0
LINE
8
0
6
CONTINUOUS
10
-3.691099
20
-78.618038
30
0.0
11
-4.448743
21
-78.318587
31
0.0
0
LINE
8
0
6
CONTINUOUS
10
-3.402075
20
-78.739309
30
0.0
11
-3.691099
21
-78.618038
31
0.0
0
LINE
8
0
6
CONTINUOUS
10
-2.709233
20
-78.896630
30
0.0
11
-3.391368
21
-78.824299
31
0.0
0
LINE
8
0
6
CONTINUOUS
10
-10.492708
20
-75.876864
30
0.0
11
-10.740025
21
-73.835834
31
0.0
0
LINE
8
0
6
CONTINUOUS
10
-8.438758
20
-79.410092
30
0.0
11
-9.662708
21
-77.759734
31
0.0
0
LINE
8
0
6
CONTINUOUS
10
-6.813891
20
-80.661429
30
0.0
11
-8.438758
21
-79.410092
31
0.0
0
LINE
8
0
6
CONTINUOUS
10
-6.871498
20
-80.633739
30
0.0
11
-6.813891
21
-80.661429
31
0.0
0
LINE
8
0
6
CONTINUOUS
10
-8.446923
20
-79.404142
30
0.0
11
-6.871498
21
-80.633739
31
0.0
0
LINE
8
0
6
CONTINUOUS
10
-5.175856
20
-81.388743
30
0.0
11
-4.993420
21
-81.441733
31
0.0
0
LINE
8
0
6
CONTINUOUS
10
-6.871498
20
-80.633739
30
0.0
11
-5.175856
21
-81.388743
31
0.0
0
LINE
8
0
6
CONTINUOUS
10
-6.813891
20
-80.661429
30
0.0
11
-5.175856
21
-81.388743
31
0.0
0
LINE
8
0
6
CONTINUOUS
10
-6.871498
20
-80.633739
30
0.0
11
-6.813891
21
-80.661429
31
0.0
0
LINE
8
0
6
CONTINUOUS
10
-3.909609
20
-81.737184
30
0.0
11
-3.615081
21
-81.767394
31
0.0
0
LINE
8
0
6
CONTINUOUS
10
-5.175856
20
-81.388743
30
0.0
11
-3.909609
21
-81.737184
31
0.0
0
LINE
8
0
6
CONTINUOUS
10
-4.993420
20
-81.441733
30
0.0
11
-3.909609
21
-81.737184
31
0.0
0
LINE
8
0
6
CONTINUOUS
10
3.957980
20
4.176576
30
0.0
11
3.957980
21
4.436398
31
0.0
0
LINE
8
0
6
CONTINUOUS
10
3.957980
20
-44.263042
30
0.0
11
3.957980
21
-43.929750
31
0.0
0
LINE
8
0
6
CONTINUOUS
10
-50.637273
20
4.176576
30
0.0
11
-50.637273
21
-15.928199
31
0.0
0
LINE
8
0
6
CONTINUOUS
10
-50.637273
20
-22.308828
30
0.0
11
-50.637273
21
-43.929750
31
0.0
0
LINE
8
0
6
CONTINUOUS
10
-50.637273
20
4.436398
30
0.0
11
-50.637273
21
4.176576
31
0.0
0
LINE
8
0
6
CONTINUOUS
10
3.957980
20
-43.929750
30
0.0
11
3.957980
21
-24.728445
31
0.0
0
LINE
8
0
6
CONTINUOUS
10
3.957980
20
-18.896922
30
0.0
11
3.957980
21
4.176576
31
0.0
0
LINE
8
0
6
CONTINUOUS
10
-50.637273
20
-43.929750
30
0.0
11
-50.637273
21
-44.263042
31
0.0
0
LINE
8
0
6
CONTINUOUS
10
-41.687095
20
-0.374957
30
0.0
11
-41.602361
21
-0.227706
31
0.0
0
LINE
8
0
6
CONTINUOUS
10
3.957980
20
4.436398
30
0.0
11
3.302832
21
5.450993
31
0.0
0
LINE
8
0
6
CONTINUOUS
10
2.975253
20
4.436398
30
0.0
11
3.957980
21
4.436398
31
0.0
0
LINE
8
0
6
CONTINUOUS
10
3.302832
20
5.450993
30
0.0
11
2.320125
21
5.450993
31
0.0
0
LINE
8
0
6
CONTINUOUS
10
0.354701
20
4.436398
30
0.0
11
2.975253
21
4.436398
31
0.0
0
LINE
8
0
6
CONTINUOUS
10
2.320125
20
5.450993
30
0.0
11
-0.300437
21
5.450993
31
0.0
0
LINE
8
0
6
CONTINUOUS
10
-4.012915
20
4.436398
30
0.0
11
0.354701
21
4.436398
31
0.0
0
LINE
8
0
6
CONTINUOUS
10
-0.300437
20
5.450993
30
0.0
11
-4.558863
21
5.450993
31
0.0
0
LINE
8
0
6
CONTINUOUS
10
-9.800016
20
4.436398
30
0.0
11
-4.012915
21
4.436398
31
0.0
0
LINE
8
0
6
CONTINUOUS
10
-4.558863
20
5.450993
30
0.0
11
-10.127575
21
5.450993
31
0.0
0
LINE
8
0
6
CONTINUOUS
10
-16.351435
20
4.436398
30
0.0
11
-9.800016
21
4.436398
31
0.0
0
LINE
8
0
6
CONTINUOUS
10
-10.127575
20
5.450993
30
0.0
11
-16.460624
21
5.450993
31
0.0
0
LINE
8
0
6
CONTINUOUS
10
-23.339632
20
4.436398
30
0.0
11
-16.351435
21
4.436398
31
0.0
0
LINE
8
0
6
CONTINUOUS
10
-16.460624
20
5.450993
30
0.0
11
-23.339632
21
5.450993
31
0.0
0
LINE
8
0
6
CONTINUOUS
10
3.302832
20
-45.277527
30
0.0
11
3.957980
21
-44.263042
31
0.0
0
LINE
8
0
6
CONTINUOUS
10
2.320125
20
-45.277527
30
0.0
11
3.302832
21
-45.277527
31
0.0
0
LINE
8
0
6
CONTINUOUS
10
3.957980
20
-44.263042
30
0.0
11
2.975253
21
-44.263042
31
0.0
0
LINE
8
0
6
CONTINUOUS
10
-0.300437
20
-45.277527
30
0.0
11
2.320125
21
-45.277527
31
0.0
0
LINE
8
0
6
CONTINUOUS
10
2.975253
20
-44.263042
30
0.0
11
0.354701
21
-44.263042
31
0.0
0
LINE
8
0
6
CONTINUOUS
10
-4.558863
20
-45.277527
30
0.0
11
-0.300437
21
-45.277527
31
0.0
0
LINE
8
0
6
CONTINUOUS
10
0.354701
20
-44.263042
30
0.0
11
-4.012915
21
-44.263042
31
0.0
0
LINE
8
0
6
CONTINUOUS
10
-7.867060
20
-45.277527
30
0.0
11
-4.558863
21
-45.277527
31
0.0
0
LINE
8
0
6
CONTINUOUS
10
-4.012915
20
-44.263042
30
0.0
11
-7.283259
21
-44.263042
31
0.0
0
LINE
8
0
6
CONTINUOUS
10
-16.460624
20
-45.277527
30
0.0
11
-10.656011
21
-45.277527
31
0.0
0
LINE
8
0
6
CONTINUOUS
10
-12.421910
20
-44.263042
30
0.0
11
-16.351435
21
-44.263042
31
0.0
0
LINE
8
0
6
CONTINUOUS
10
-23.339632
20
-45.277527
30
0.0
11
-16.460624
21
-45.277527
31
0.0
0
LINE
8
0
6
CONTINUOUS
10
-16.351435
20
-44.263042
30
0.0
11
-23.339632
21
-44.263042
31
0.0
0
LINE
8
0
6
CONTINUOUS
10
-50.637273
20
-44.263042
30
0.0
11
-49.982135
21
-45.277527
31
0.0
0
LINE
8
0
6
CONTINUOUS
10
-49.654557
20
-44.263042
30
0.0
11
-50.637273
21
-44.263042
31
0.0
0
LINE
8
0
6
CONTINUOUS
10
-49.982135
20
-45.277527
30
0.0
11
-48.999409
21
-45.277527
31
0.0
0
LINE
8
0
6
CONTINUOUS
10
-47.033975
20
-44.263042
30
0.0
11
-49.654557
21
-44.263042
31
0.0
0
LINE
8
0
6
CONTINUOUS
10
-48.999409
20
-45.277527
30
0.0
11
-46.378827
21
-45.277527
31
0.0
0
LINE
8
0
6
CONTINUOUS
10
-42.666349
20
-44.263042
30
0.0
11
-47.033975
21
-44.263042
31
0.0
0
LINE
8
0
6
CONTINUOUS
10
-46.378827
20
-45.277527
30
0.0
11
-42.120401
21
-45.277527
31
0.0
0
LINE
8
0
6
CONTINUOUS
10
-36.879258
20
-44.263042
30
0.0
11
-42.666349
21
-44.263042
31
0.0
0
LINE
8
0
6
CONTINUOUS
10
-42.120401
20
-45.277527
30
0.0
11
-36.551679
21
-45.277527
31
0.0
0
LINE
8
0
6
CONTINUOUS
10
-30.327819
20
-44.263042
30
0.0
11
-36.879258
21
-44.263042
31
0.0
0
LINE
8
0
6
CONTINUOUS
10
-36.551679
20
-45.277527
30
0.0
11
-30.218630
21
-45.277527
31
0.0
0
LINE
8
0
6
CONTINUOUS
10
-23.339632
20
-44.263042
30
0.0
11
-30.327819
21
-44.263042
31
0.0
0
LINE
8
0
6
CONTINUOUS
10
-30.218630
20
-45.277527
30
0.0
11
-23.339632
21
-45.277527
31
0.0
0
LINE
8
0
6
CONTINUOUS
10
-49.982135
20
5.450993
30
0.0
11
-50.637273
21
4.436398
31
0.0
0
LINE
8
0
6
CONTINUOUS
10
-48.999409
20
5.450993
30
0.0
11
-49.982135
21
5.450993
31
0.0
0
LINE
8
0
6
CONTINUOUS
10
-50.637273
20
4.436398
30
0.0
11
-49.654557
21
4.436398
31
0.0
0
LINE
8
0
6
CONTINUOUS
10
-46.378827
20
5.450993
30
0.0
11
-48.999409
21
5.450993
31
0.0
0
LINE
8
0
6
CONTINUOUS
10
-49.654557
20
4.436398
30
0.0
11
-47.033975
21
4.436398
31
0.0
0
LINE
8
0
6
CONTINUOUS
10
-42.120401
20
5.450993
30
0.0
11
-46.378827
21
5.450993
31
0.0
0
LINE
8
0
6
CONTINUOUS
10
-47.033975
20
4.436398
30
0.0
11
-42.666349
21
4.436398
31
0.0
0
LINE
8
0
6
CONTINUOUS
10
-36.551679
20
5.450993
30
0.0
11
-42.120401
21
5.450993
31
0.0
0
LINE
8
0
6
CONTINUOUS
10
-42.666349
20
4.436398
30
0.0
11
-38.918392
21
4.436398
31
0.0
0
LINE
8
0
6
CONTINUOUS
10
-30.218630
20
5.450993
30
0.0
11
-36.551679
21
5.450993
31
0.0
0
LINE
8
0
6
CONTINUOUS
10
-36.657972
20
4.436398
30
0.0
11
-30.327819
21
4.436398
31
0.0
0
LINE
8
0
6
CONTINUOUS
10
-23.339632
20
5.450993
30
0.0
11
-30.218630
21
5.450993
31
0.0
0
LINE
8
0
6
CONTINUOUS
10
-30.327819
20
4.436398
30
0.0
11
-23.339632
21
4.436398
31
0.0
0
LINE
8
0
6
CONTINUOUS
10
-41.607014
20
-0.235796
30
0.0
11
-41.650962
21
-0.312167
31
0.0
0
LINE
8
0
6
CONTINUOUS
10
-41.650962
20
-0.312167
30
0.0
11
-41.687095
21
-0.374957
31
0.0
0
LINE
8
0
6
CONTINUOUS
10
-41.687095
20
-0.374957
30
0.0
11
-42.868778
21
-2.428457
31
0.0
0
LINE
8
0
6
CONTINUOUS
10
-41.162610
20
-0.676238
30
0.0
11
-41.687095
21
-0.374957
31
0.0
0
LINE
8
0
6
CONTINUOUS
10
-42.868778
20
-2.428457
30
0.0
11
-44.319093
21
-4.948720
31
0.0
0
LINE
8
0
6
CONTINUOUS
10
-44.319093
20
-4.948720
30
0.0
11
-45.876777
21
-7.655614
31
0.0
0
LINE
8
0
6
CONTINUOUS
10
3.257133
20
-25.946338
30
0.0
11
3.433425
21
-25.639977
31
0.0
0
LINE
8
0
6
CONTINUOUS
10
2.441272
20
-25.477666
30
0.0
11
3.257133
21
-25.946338
31
0.0
0
LINE
8
0
6
CONTINUOUS
10
6.479988
20
-20.345759
30
0.0
11
5.664138
21
-19.877087
31
0.0
0
LINE
8
0
6
CONTINUOUS
10
6.211427
20
-20.812492
30
0.0
11
6.479988
21
-20.345759
31
0.0
0
LINE
8
0
6
CONTINUOUS
10
-5.308051
20
-40.830564
30
0.0
11
-5.266144
21
-40.757734
31
0.0
0
LINE
8
0
6
CONTINUOUS
10
-5.266144
20
-40.757734
30
0.0
11
-5.229681
21
-40.694414
31
0.0
0
LINE
8
0
6
CONTINUOUS
10
-5.229681
20
-40.694414
30
0.0
11
-4.047997
21
-38.640913
31
0.0
0
LINE
8
0
6
CONTINUOUS
10
-6.045541
20
-40.225701
30
0.0
11
-5.229681
21
-40.694414
31
0.0
0
LINE
8
0
6
CONTINUOUS
10
-4.047997
20
-38.640913
30
0.0
11
-2.597692
21
-36.120610
31
0.0
0
LINE
8
0
6
CONTINUOUS
10
-2.597692
20
-36.120610
30
0.0
11
-1.040008
21
-33.413726
31
0.0
0
LINE
8
0
6
CONTINUOUS
10
-5.337109
20
-40.881065
30
0.0
11
-6.152970
21
-40.412392
31
0.0
0
LINE
8
0
6
CONTINUOUS
10
-5.516133
20
-41.192196
30
0.0
11
-5.337109
21
-40.881065
31
0.0
0
LINE
8
0
6
CONTINUOUS
10
-51.194449
20
-16.896452
30
0.0
11
-52.376193
21
-18.950072
31
0.0
0
LINE
8
0
6
CONTINUOUS
10
-52.376193
20
-18.950072
30
0.0
11
-53.128192
21
-20.256839
31
0.0
0
LINE
8
0
6
CONTINUOUS
10
-53.396753
20
-20.723571
30
0.0
11
-52.872269
21
-21.024853
31
0.0
0
LINE
8
0
6
CONTINUOUS
10
-53.128192
20
-20.256839
30
0.0
11
-53.396753
21
-20.723571
31
0.0
0
LINE
8
0
6
CONTINUOUS
10
4.277693
20
-24.172839
30
0.0
11
5.459437
21
-22.119258
31
0.0
0
LINE
8
0
6
CONTINUOUS
10
5.459437
20
-22.119258
30
0.0
11
6.211427
21
-20.812492
31
0.0
0
LINE
8
0
6
CONTINUOUS
10
3.433425
20
-25.639977
30
0.0
11
4.277693
21
-24.172839
31
0.0
0
LINE
8
0
6
CONTINUOUS
10
-50.352912
20
-15.434084
30
0.0
11
-51.194449
21
-16.896452
31
0.0
0
LINE
8
0
6
CONTINUOUS
10
2.333824
20
-25.664357
30
0.0
11
-41.162610
21
-0.676238
31
0.0
0
LINE
8
0
6
CONTINUOUS
10
-41.403354
20
0.118096
30
0.0
11
-41.579646
21
-0.188226
31
0.0
0
LINE
8
0
6
CONTINUOUS
10
-41.579646
20
-0.188226
30
0.0
11
-41.055172
21
-0.489548
31
0.0
0
LINE
8
0
6
CONTINUOUS
10
-38.356780
20
5.412313
30
0.0
11
-38.625352
21
4.945620
31
0.0
0
LINE
8
0
6
CONTINUOUS
10
-37.832296
20
5.111031
30
0.0
11
-38.356780
21
5.412313
31
0.0
0
LINE
8
0
6
CONTINUOUS
10
-50.147271
20
-15.076722
30
0.0
11
-50.194891
21
-15.159463
31
0.0
0
LINE
8
0
6
CONTINUOUS
10
-50.102923
20
-14.999662
30
0.0
11
-50.147271
21
-15.076722
31
0.0
0
LINE
8
0
6
CONTINUOUS
10
-50.066459
20
-14.936302
30
0.0
11
-50.102923
21
-14.999662
31
0.0
0
LINE
8
0
6
CONTINUOUS
10
-48.884776
20
-12.882801
30
0.0
11
-50.066459
21
-14.936302
31
0.0
0
LINE
8
0
6
CONTINUOUS
10
-50.066459
20
-14.936302
30
0.0
11
-49.541975
21
-15.237593
31
0.0
0
LINE
8
0
6
CONTINUOUS
10
-47.434471
20
-10.362528
30
0.0
11
-48.884776
21
-12.882801
31
0.0
0
LINE
8
0
6
CONTINUOUS
10
-45.876777
20
-7.655614
30
0.0
11
-47.434471
21
-10.362528
31
0.0
0
LINE
8
0
6
CONTINUOUS
10
-50.173888
20
-15.122993
30
0.0
11
-50.352912
21
-15.434084
31
0.0
0
LINE
8
0
6
CONTINUOUS
10
-49.649403
20
-15.424284
30
0.0
11
-50.173888
21
-15.122993
31
0.0
0
LINE
8
0
6
CONTINUOUS
10
-52.872269
20
-21.024853
30
0.0
11
-9.375835
21
-46.012971
31
0.0
0
LINE
8
0
6
CONTINUOUS
10
-39.377351
20
3.638854
30
0.0
11
-40.559085
21
1.585273
31
0.0
0
LINE
8
0
6
CONTINUOUS
10
-38.625352
20
4.945620
30
0.0
11
-39.377351
21
3.638854
31
0.0
0
LINE
8
0
6
CONTINUOUS
10
-40.559085
20
1.585273
30
0.0
11
-41.403354
21
0.118096
31
0.0
0
LINE
8
0
6
CONTINUOUS
10
-41.055172
20
-0.489548
30
0.0
11
2.441272
21
-25.477666
31
0.0
0
LINE
8
0
6
CONTINUOUS
10
5.664138
20
-19.877087
30
0.0
11
-37.832296
21
5.111031
31
0.0
0
LINE
8
0
6
CONTINUOUS
10
-49.541975
20
-15.237593
30
0.0
11
-6.045541
21
-40.225701
31
0.0
0
LINE
8
0
6
CONTINUOUS
10
-6.152970
20
-40.412392
30
0.0
11
-49.649403
21
-15.424284
31
0.0
0
LINE
8
0
6
CONTINUOUS
10
3.185817
20
-26.070279
30
0.0
11
3.229765
21
-25.993908
31
0.0
0
LINE
8
0
6
CONTINUOUS
10
3.149684
20
-26.133069
30
0.0
11
3.185817
21
-26.070279
31
0.0
0
LINE
8
0
6
CONTINUOUS
10
3.149684
20
-26.133069
30
0.0
11
2.333824
21
-25.664357
31
0.0
0
LINE
8
0
6
CONTINUOUS
10
1.967990
20
-28.186570
30
0.0
11
3.149684
21
-26.133069
31
0.0
0
LINE
8
0
6
CONTINUOUS
10
0.517685
20
-30.706833
30
0.0
11
1.967990
21
-28.186570
31
0.0
0
LINE
8
0
6
CONTINUOUS
10
-1.040008
20
-33.413726
30
0.0
11
0.517685
21
-30.706833
31
0.0
0
LINE
8
0
6
CONTINUOUS
10
-7.539414
20
-44.708184
30
0.0
11
-6.357670
21
-42.654564
31
0.0
0
LINE
8
0
6
CONTINUOUS
10
-8.291414
20
-46.014951
30
0.0
11
-7.539414
21
-44.708184
31
0.0
0
LINE
8
0
6
CONTINUOUS
10
-9.375835
20
-46.012971
30
0.0
11
-8.559985
21
-46.481643
31
0.0
0
LINE
8
0
6
CONTINUOUS
10
-8.559985
20
-46.481643
30
0.0
11
-8.291414
21
-46.014951
31
0.0
0
LINE
8
0
6
CONTINUOUS
10
-6.357670
20
-42.654564
30
0.0
11
-5.516133
21
-41.192196
31
0.0
0
LINE
8
0
6
CONTINUOUS
10
-11.440802
20
-475.033472
30
0.0
11
-11.440802
21
-465.227832
31
0.0
0
LINE
8
0
6
CONTINUOUS
10
-26.450376
20
-465.227832
30
0.0
11
-26.450376
21
-475.033472
31
0.0
0
LINE
8
0
6
CONTINUOUS
10
-8.261024
20
-483.306454
30
0.0
11
-8.811165
21
-482.768962
31
0.0
0
LINE
8
0
6
CONTINUOUS
10
-25.016491
20
-494.681333
30
0.0
11
-23.270608
21
-497.036995
31
0.0
0
LINE
8
0
6
CONTINUOUS
10
-12.372076
20
-500.000000
30
0.0
11
13.473169
21
-500.000000
31
0.0
0
LINE
8
0
6
CONTINUOUS
10
13.473179
20
-484.850112
30
0.0
11
-4.272910
21
-484.850112
31
0.0
0
LINE
8
0
6
CONTINUOUS
10
-4.272910
20
-484.850112
30
0.0
11
-5.695017
21
-484.629401
31
0.0
0
LINE
8
0
6
CONTINUOUS
10
-18.317559
20
-499.767109
30
0.0
11
-12.372076
21
-500.000000
31
0.0
0
LINE
8
0
6
CONTINUOUS
10
-10.851737
20
-479.553265
30
0.0
11
-11.440802
21
-475.033472
31
0.0
0
LINE
8
0
6
CONTINUOUS
10
-26.450376
20
-475.033472
30
0.0
11
-26.450376
21
-484.394790
31
0.0
0
LINE
8
0
6
CONTINUOUS
10
-9.511672
20
-481.990948
30
0.0
11
-10.851737
21
-479.553265
31
0.0
0
LINE
8
0
6
CONTINUOUS
10
-26.450376
20
-484.394790
30
0.0
11
-26.124028
21
-491.136805
31
0.0
0
LINE
8
0
6
CONTINUOUS
10
-5.695017
20
-484.629401
30
0.0
11
-7.213966
21
-483.983338
31
0.0
0
LINE
8
0
6
CONTINUOUS
10
-21.120486
20
-498.677513
30
0.0
11
-18.317559
21
-499.767109
31
0.0
0
LINE
8
0
6
CONTINUOUS
10
-8.811165
20
-482.768962
30
0.0
11
-9.511672
21
-481.990948
31
0.0
0
LINE
8
0
6
CONTINUOUS
10
-26.124028
20
-491.136805
30
0.0
11
-25.016491
21
-494.681333
31
0.0
0
LINE
8
0
6
CONTINUOUS
10
-7.213966
20
-483.983338
30
0.0
11
-8.261024
21
-483.306454
31
0.0
0
LINE
8
0
6
CONTINUOUS
10
-23.270608
20
-497.036995
30
0.0
11
-21.120486
21
-498.677513
31
0.0
0
LINE
8
0
6
CONTINUOUS
10
-16.443994
20
-464.999790
30
0.0
11
-21.447185
21
-464.999790
31
0.0
0
LINE
8
0
6
CONTINUOUS
10
-11.440802
20
-464.999790
30
0.0
11
-12.781317
21
-464.999790
31
0.0
0
LINE
8
0
6
CONTINUOUS
10
-11.440802
20
-465.227832
30
0.0
11
-11.440802
21
-464.999790
31
0.0
0
LINE
8
0
6
CONTINUOUS
10
-12.781317
20
-464.999790
30
0.0
11
-16.443994
21
-464.999790
31
0.0
0
LINE
8
0
6
CONTINUOUS
10
-25.649905
20
-464.999790
30
0.0
11
-26.196624
21
-464.999790
31
0.0
0
LINE
8
0
6
CONTINUOUS
10
-21.447185
20
-464.999790
30
0.0
11
-25.348113
21
-464.999790
31
0.0
0
LINE
8
0
6
CONTINUOUS
10
-26.196624
20
-464.999790
30
0.0
11
-26.450376
21
-464.999790
31
0.0
0
LINE
8
0
6
CONTINUOUS
10
-26.450376
20
-464.999790
30
0.0
11
-26.450376
21
-465.227832
31
0.0
0
LINE
8
0
6
CONTINUOUS
10
38.387150
20
-465.295852
30
0.0
11
38.387150
21
-475.033472
31
0.0
0
LINE
8
0
6
CONTINUOUS
10
53.396713
20
-475.033472
30
0.0
11
53.396713
21
-465.295852
31
0.0
0
LINE
8
0
6
CONTINUOUS
10
35.757512
20
-482.768962
30
0.0
11
35.207382
21
-483.306454
31
0.0
0
LINE
8
0
6
CONTINUOUS
10
32.641375
20
-484.629401
30
0.0
11
31.219268
21
-484.850112
31
0.0
0
LINE
8
0
6
CONTINUOUS
10
39.318414
20
-500.000000
30
0.0
11
45.263896
21
-500.000000
31
0.0
0
LINE
8
0
6
CONTINUOUS
10
38.387150
20
-475.033472
30
0.0
11
37.798094
21
-479.553265
31
0.0
0
LINE
8
0
6
CONTINUOUS
10
53.396713
20
-484.394790
30
0.0
11
53.396713
21
-475.033472
31
0.0
0
LINE
8
0
6
CONTINUOUS
10
37.798094
20
-479.553265
30
0.0
11
36.458019
21
-481.990948
31
0.0
0
LINE
8
0
6
CONTINUOUS
10
34.160314
20
-483.983338
30
0.0
11
32.641375
21
-484.629401
31
0.0
0
LINE
8
0
6
CONTINUOUS
10
45.263896
20
-500.000000
30
0.0
11
52.415718
21
-500.000000
31
0.0
0
LINE
8
0
6
CONTINUOUS
10
36.458019
20
-481.990948
30
0.0
11
35.757512
21
-482.768962
31
0.0
0
LINE
8
0
6
CONTINUOUS
10
35.207382
20
-483.306454
30
0.0
11
34.160314
21
-483.983338
31
0.0
0
LINE
8
0
6
CONTINUOUS
10
53.142952
20
-499.767869
30
0.0
11
52.596233
21
-499.267726
31
0.0
0
LINE
8
0
6
CONTINUOUS
10
52.415718
20
-500.000000
30
0.0
11
53.396693
21
-500.000000
31
0.0
0
LINE
8
0
6
CONTINUOUS
10
53.396693
20
-500.000000
30
0.0
11
53.142952
21
-499.767869
31
0.0
0
LINE
8
0
6
CONTINUOUS
10
48.393512
20
-464.999790
30
0.0
11
43.390331
21
-464.999790
31
0.0
0
LINE
8
0
6
CONTINUOUS
10
38.387150
20
-464.999790
30
0.0
11
38.387150
21
-465.295852
31
0.0
0
LINE
8
0
6
CONTINUOUS
10
39.727665
20
-464.999790
30
0.0
11
38.387150
21
-464.999790
31
0.0
0
LINE
8
0
6
CONTINUOUS
10
43.390331
20
-464.999790
30
0.0
11
39.727665
21
-464.999790
31
0.0
0
LINE
8
0
6
CONTINUOUS
10
53.142972
20
-464.999790
30
0.0
11
52.596253
21
-464.999790
31
0.0
0
LINE
8
0
6
CONTINUOUS
10
52.294450
20
-464.999790
30
0.0
11
48.393512
21
-464.999790
31
0.0
0
LINE
8
0
6
CONTINUOUS
10
53.396713
20
-465.295852
30
0.0
11
53.396713
21
-464.999790
31
0.0
0
LINE
8
0
6
CONTINUOUS
10
53.396713
20
-464.999790
30
0.0
11
53.142972
21
-464.999790
31
0.0
0
LINE
8
0
6
CONTINUOUS
10
31.219268
20
-484.850112
30
0.0
11
13.473179
21
-484.850112
31
0.0
0
LINE
8
0
6
CONTINUOUS
10
13.473169
20
-500.000000
30
0.0
11
39.318414
21
-500.000000
31
0.0
0
LINE
8
0
6
CONTINUOUS
10
-25.348113
20
-464.999790
30
0.0
11
-25.649905
21
-464.999790
31
0.0
0
LINE
8
0
6
CONTINUOUS
10
52.596253
20
-464.999790
30
0.0
11
52.294450
21
-464.999790
31
0.0
0
LINE
8
0
6
CONTINUOUS
10
-11.440802
20
465.227862
30
0.0
11
-11.440802
21
475.033522
31
0.0
0
LINE
8
0
6
CONTINUOUS
10
-26.450376
20
475.033522
30
0.0
11
-26.450376
21
465.227862
31
0.0
0
LINE
8
0
6
CONTINUOUS
10
-8.811165
20
482.769002
30
0.0
11
-8.261034
21
483.306494
31
0.0
0
LINE
8
0
6
CONTINUOUS
10
-23.270618
20
497.037035
30
0.0
11
-25.016491
21
494.681373
31
0.0
0
LINE
8
0
6
CONTINUOUS
10
13.473159
20
500.000000
30
0.0
11
-12.372076
21
500.000000
31
0.0
0
LINE
8
0
6
CONTINUOUS
10
-4.272920
20
484.850162
30
0.0
11
13.473169
21
484.850162
31
0.0
0
LINE
8
0
6
CONTINUOUS
10
-5.695028
20
484.629441
30
0.0
11
-4.272920
21
484.850162
31
0.0
0
LINE
8
0
6
CONTINUOUS
10
-12.372076
20
500.000000
30
0.0
11
-18.317569
21
499.767149
31
0.0
0
LINE
8
0
6
CONTINUOUS
10
-11.440802
20
475.033522
30
0.0
11
-10.851747
21
479.553275
31
0.0
0
LINE
8
0
6
CONTINUOUS
10
-26.450376
20
484.394830
30
0.0
11
-26.450376
21
475.033522
31
0.0
0
LINE
8
0
6
CONTINUOUS
10
-10.851747
20
479.553275
30
0.0
11
-9.511672
21
481.990958
31
0.0
0
LINE
8
0
6
CONTINUOUS
10
-26.124028
20
491.136815
30
0.0
11
-26.450376
21
484.394830
31
0.0
0
LINE
8
0
6
CONTINUOUS
10
-7.213966
20
483.983378
30
0.0
11
-5.695028
21
484.629441
31
0.0
0
LINE
8
0
6
CONTINUOUS
10
-18.317569
20
499.767149
30
0.0
11
-21.120496
21
498.677513
31
0.0
0
LINE
8
0
6
CONTINUOUS
10
-9.511672
20
481.990958
30
0.0
11
-8.811165
21
482.769002
31
0.0
0
LINE
8
0
6
CONTINUOUS
10
-25.016491
20
494.681373
30
0.0
11
-26.124028
21
491.136815
31
0.0
0
LINE
8
0
6
CONTINUOUS
10
-8.261034
20
483.306494
30
0.0
11
-7.213966
21
483.983378
31
0.0
0
LINE
8
0
6
CONTINUOUS
10
-21.120496
20
498.677513
30
0.0
11
-23.270618
21
497.037035
31
0.0
0
LINE
8
0
6
CONTINUOUS
10
-21.447185
20
464.999820
30
0.0
11
-16.444004
21
464.999820
31
0.0
0
LINE
8
0
6
CONTINUOUS
10
-11.440802
20
464.999820
30
0.0
11
-11.440802
21
465.227862
31
0.0
0
LINE
8
0
6
CONTINUOUS
10
-12.781317
20
464.999820
30
0.0
11
-11.440802
21
464.999820
31
0.0
0
LINE
8
0
6
CONTINUOUS
10
-16.444004
20
464.999820
30
0.0
11
-12.781317
21
464.999820
31
0.0
0
LINE
8
0
6
CONTINUOUS
10
-26.196624
20
464.999820
30
0.0
11
-25.649905
21
464.999820
31
0.0
0
LINE
8
0
6
CONTINUOUS
10
-25.348113
20
464.999820
30
0.0
11
-21.447185
21
464.999820
31
0.0
0
LINE
8
0
6
CONTINUOUS
10
-26.450376
20
465.227862
30
0.0
11
-26.450376
21
464.999820
31
0.0
0
LINE
8
0
6
CONTINUOUS
10
-26.450376
20
464.999820
30
0.0
11
-26.196624
21
464.999820
31
0.0
0
LINE
8
0
6
CONTINUOUS
10
38.387140
20
475.033522
30
0.0
11
38.387140
21
465.295922
31
0.0
0
LINE
8
0
6
CONTINUOUS
10
35.207372
20
483.306494
30
0.0
11
35.757512
21
482.769002
31
0.0
0
LINE
8
0
6
CONTINUOUS
10
31.219258
20
484.850162
30
0.0
11
32.641365
21
484.629441
31
0.0
0
LINE
8
0
6
CONTINUOUS
10
45.263886
20
500.000000
30
0.0
11
39.318404
21
500.000000
31
0.0
0
LINE
8
0
6
CONTINUOUS
10
37.798084
20
479.553275
30
0.0
11
38.387140
21
475.033522
31
0.0
0
LINE
8
0
6
CONTINUOUS
10
36.458019
20
481.990958
30
0.0
11
37.798084
21
479.553275
31
0.0
0
LINE
8
0
6
CONTINUOUS
10
32.641365
20
484.629441
30
0.0
11
34.160314
21
483.983378
31
0.0
0
LINE
8
0
6
CONTINUOUS
10
52.415708
20
500.000000
30
0.0
11
45.263886
21
500.000000
31
0.0
0
LINE
8
0
6
CONTINUOUS
10
35.757512
20
482.769002
30
0.0
11
36.458019
21
481.990958
31
0.0
0
LINE
8
0
6
CONTINUOUS
10
34.160314
20
483.983378
30
0.0
11
35.207372
21
483.306494
31
0.0
0
LINE
8
0
6
CONTINUOUS
10
52.596233
20
499.267726
30
0.0
11
53.142952
21
499.767919
31
0.0
0
LINE
8
0
6
CONTINUOUS
10
53.142952
20
499.767919
30
0.0
11
53.396693
21
500.000000
31
0.0
0
LINE
8
0
6
CONTINUOUS
10
53.396693
20
500.000000
30
0.0
11
52.415708
21
500.000000
31
0.0
0
LINE
8
0
6
CONTINUOUS
10
43.390331
20
464.999820
30
0.0
11
48.393512
21
464.999820
31
0.0
0
LINE
8
0
6
CONTINUOUS
10
38.387140
20
464.999820
30
0.0
11
39.727655
21
464.999820
31
0.0
0
LINE
8
0
6
CONTINUOUS
10
38.387140
20
465.295922
30
0.0
11
38.387140
21
464.999820
31
0.0
0
LINE
8
0
6
CONTINUOUS
10
39.727655
20
464.999820
30
0.0
11
43.390331
21
464.999820
31
0.0
0
LINE
8
0
6
CONTINUOUS
10
52.596243
20
464.999820
30
0.0
11
53.142962
21
464.999820
31
0.0
0
LINE
8
0
6
CONTINUOUS
10
48.393512
20
464.999820
30
0.0
11
52.294450
21
464.999820
31
0.0
0
LINE
8
0
6
CONTINUOUS
10
53.142962
20
464.999820
30
0.0
11
53.396703
21
464.999820
31
0.0
0
LINE
8
0
6
CONTINUOUS
10
13.473169
20
484.850162
30
0.0
11
31.219258
21
484.850162
31
0.0
0
LINE
8
0
6
CONTINUOUS
10
39.318404
20
500.000000
30
0.0
11
13.473159
21
500.000000
31
0.0
0
LINE
8
0
6
CONTINUOUS
10
-25.649905
20
464.999820
30
0.0
11
-25.348113
21
464.999820
31
0.0
0
LINE
8
0
6
CONTINUOUS
10
52.294450
20
464.999820
30
0.0
11
52.596243
21
464.999820
31
0.0
0
LINE
8
0
6
CONTINUOUS
10
-11.440802
20
-464.999780
30
0.0
11
-11.440802
21
-464.954080
31
0.0
0
LINE
8
0
6
CONTINUOUS
10
-12.781317
20
-464.999780
30
0.0
11
-11.440802
21
-464.999780
31
0.0
0
LINE
8
0
6
CONTINUOUS
10
-26.196624
20
-464.999780
30
0.0
11
-25.649905
21
-464.999780
31
0.0
0
LINE
8
0
6
CONTINUOUS
10
-21.447185
20
-464.999780
30
0.0
11
-16.443994
21
-464.999780
31
0.0
0
LINE
8
0
6
CONTINUOUS
10
-16.443994
20
-464.999780
30
0.0
11
-12.781317
21
-464.999780
31
0.0
0
LINE
8
0
6
CONTINUOUS
10
-25.229637
20
-464.999780
30
0.0
11
-21.447185
21
-464.999780
31
0.0
0
LINE
8
0
6
CONTINUOUS
10
-26.450376
20
-464.999780
30
0.0
11
-26.196624
21
-464.999780
31
0.0
0
LINE
8
0
6
CONTINUOUS
10
-26.450376
20
-464.954080
30
0.0
11
-26.450376
21
-464.999780
31
0.0
0
LINE
8
0
6
CONTINUOUS
10
-25.649905
20
-464.999780
30
0.0
11
-25.229637
21
-464.999780
31
0.0
0
LINE
8
0
6
CONTINUOUS
10
-11.440802
20
-463.999755
30
0.0
11
-12.781317
21
-463.999755
31
0.0
0
LINE
8
0
6
CONTINUOUS
10
-11.440802
20
-464.045456
30
0.0
11
-11.440802
21
-463.999755
31
0.0
0
LINE
8
0
6
CONTINUOUS
10
-11.440802
20
-464.954080
30
0.0
11
-11.440802
21
-464.045456
31
0.0
0
LINE
8
0
6
CONTINUOUS
10
-25.649905
20
-463.999755
30
0.0
11
-26.196624
21
-463.999755
31
0.0
0
LINE
8
0
6
CONTINUOUS
10
-16.443994
20
-463.999755
30
0.0
11
-21.447185
21
-463.999755
31
0.0
0
LINE
8
0
6
CONTINUOUS
10
-12.781317
20
-463.999755
30
0.0
11
-16.443994
21
-463.999755
31
0.0
0
LINE
8
0
6
CONTINUOUS
10
-21.447185
20
-463.999755
30
0.0
11
-25.229637
21
-463.999755
31
0.0
0
LINE
8
0
6
CONTINUOUS
10
-26.196624
20
-463.999755
30
0.0
11
-26.450376
21
-463.999755
31
0.0
0
LINE
8
0
6
CONTINUOUS
10
-26.196624
20
-464.045456
30
0.0
11
-26.196624
21
-463.999755
31
0.0
0
LINE
8
0
6
CONTINUOUS
10
-26.450376
20
-463.999755
30
0.0
11
-26.450376
21
-464.045456
31
0.0
0
LINE
8
0
6
CONTINUOUS
10
-26.450376
20
-464.045456
30
0.0
11
-26.450376
21
-464.954080
31
0.0
0
LINE
8
0
6
CONTINUOUS
10
-25.229637
20
-463.999755
30
0.0
11
-25.649905
21
-463.999755
31
0.0
0
LINE
8
0
6
CONTINUOUS
10
38.387180
20
-464.999790
30
0.0
11
39.727695
21
-464.999790
31
0.0
0
LINE
8
0
6
CONTINUOUS
10
38.387180
20
-464.954090
30
0.0
11
38.387180
21
-464.999790
31
0.0
0
LINE
8
0
6
CONTINUOUS
10
52.596293
20
-464.999790
30
0.0
11
53.143002
21
-464.999790
31
0.0
0
LINE
8
0
6
CONTINUOUS
10
43.390371
20
-464.999790
30
0.0
11
48.393562
21
-464.999790
31
0.0
0
LINE
8
0
6
CONTINUOUS
10
39.727695
20
-464.999790
30
0.0
11
43.390371
21
-464.999790
31
0.0
0
LINE
8
0
6
CONTINUOUS
10
48.393562
20
-464.999790
30
0.0
11
52.176015
21
-464.999790
31
0.0
0
LINE
8
0
6
CONTINUOUS
10
53.396753
20
-464.999790
30
0.0
11
53.396753
21
-464.954090
31
0.0
0
LINE
8
0
6
CONTINUOUS
10
53.143002
20
-464.999790
30
0.0
11
53.396753
21
-464.999790
31
0.0
0
LINE
8
0
6
CONTINUOUS
10
52.176015
20
-464.999790
30
0.0
11
52.596293
21
-464.999790
31
0.0
0
LINE
8
0
6
CONTINUOUS
10
38.387180
20
-463.999765
30
0.0
11
38.387180
21
-464.045466
31
0.0
0
LINE
8
0
6
CONTINUOUS
10
39.727695
20
-463.999765
30
0.0
11
38.387180
21
-463.999765
31
0.0
0
LINE
8
0
6
CONTINUOUS
10
38.387180
20
-464.045466
30
0.0
11
38.387180
21
-464.954090
31
0.0
0
LINE
8
0
6
CONTINUOUS
10
53.143002
20
-463.999765
30
0.0
11
52.596293
21
-463.999765
31
0.0
0
LINE
8
0
6
CONTINUOUS
10
48.393562
20
-463.999765
30
0.0
11
43.390371
21
-463.999765
31
0.0
0
LINE
8
0
6
CONTINUOUS
10
43.390371
20
-463.999765
30
0.0
11
39.727695
21
-463.999765
31
0.0
0
LINE
8
0
6
CONTINUOUS
10
52.176015
20
-463.999765
30
0.0
11
48.393562
21
-463.999765
31
0.0
0
LINE
8
0
6
CONTINUOUS
10
53.396753
20
-464.045466
30
0.0
11
53.396753
21
-463.999765
31
0.0
0
LINE
8
0
6
CONTINUOUS
10
53.143002
20
-463.999765
30
0.0
11
53.143002
21
-464.045466
31
0.0
0
LINE
8
0
6
CONTINUOUS
10
53.396753
20
-463.999765
30
0.0
11
53.143002
21
-463.999765
31
0.0
0
LINE
8
0
6
CONTINUOUS
10
53.396753
20
-464.954090
30
0.0
11
53.396753
21
-464.045466
31
0.0
0
LINE
8
0
6
CONTINUOUS
10
52.596293
20
-463.999765
30
0.0
11
52.176015
21
-463.999765
31
0.0
0
LINE
8
0
6
CONTINUOUS
10
-11.440802
20
464.999820
30
0.0
11
-12.781317
21
464.999820
31
0.0
0
LINE
8
0
6
CONTINUOUS
10
-11.440802
20
464.954120
30
0.0
11
-11.440802
21
464.999820
31
0.0
0
LINE
8
0
6
CONTINUOUS
10
-25.649905
20
464.999820
30
0.0
11
-26.196634
21
464.999820
31
0.0
0
LINE
8
0
6
CONTINUOUS
10
-16.444004
20
464.999820
30
0.0
11
-21.447185
21
464.999820
31
0.0
0
LINE
8
0
6
CONTINUOUS
10
-12.781317
20
464.999820
30
0.0
11
-16.444004
21
464.999820
31
0.0
0
LINE
8
0
6
CONTINUOUS
10
-21.447185
20
464.999820
30
0.0
11
-25.229647
21
464.999820
31
0.0
0
LINE
8
0
6
CONTINUOUS
10
-26.450386
20
464.999820
30
0.0
11
-26.450386
21
464.954120
31
0.0
0
LINE
8
0
6
CONTINUOUS
10
-26.196634
20
464.999820
30
0.0
11
-26.450386
21
464.999820
31
0.0
0
LINE
8
0
6
CONTINUOUS
10
-25.229647
20
464.999820
30
0.0
11
-25.649905
21
464.999820
31
0.0
0
LINE
8
0
6
CONTINUOUS
10
-11.440802
20
463.999755
30
0.0
11
-11.440802
21
464.045456
31
0.0
0
LINE
8
0
6
CONTINUOUS
10
-12.781317
20
463.999755
30
0.0
11
-11.440802
21
463.999755
31
0.0
0
LINE
8
0
6
CONTINUOUS
10
-11.440802
20
464.045456
30
0.0
11
-11.440802
21
464.954120
31
0.0
0
LINE
8
0
6
CONTINUOUS
10
-26.196634
20
463.999755
30
0.0
11
-25.649905
21
463.999755
31
0.0
0
LINE
8
0
6
CONTINUOUS
10
-21.447185
20
463.999755
30
0.0
11
-16.444004
21
463.999755
31
0.0
0
LINE
8
0
6
CONTINUOUS
10
-16.444004
20
463.999755
30
0.0
11
-12.781317
21
463.999755
31
0.0
0
LINE
8
0
6
CONTINUOUS
10
-25.229647
20
463.999755
30
0.0
11
-21.447185
21
463.999755
31
0.0
0
LINE
8
0
6
CONTINUOUS
10
-26.450386
20
464.045456
30
0.0
11
-26.450386
21
463.999755
31
0.0
0
LINE
8
0
6
CONTINUOUS
10
-26.196634
20
463.999755
30
0.0
11
-26.196634
21
464.045456
31
0.0
0
LINE
8
0
6
CONTINUOUS
10
-26.450386
20
463.999755
30
0.0
11
-26.196634
21
463.999755
31
0.0
0
LINE
8
0
6
CONTINUOUS
10
-26.450386
20
464.954120
30
0.0
11
-26.450386
21
464.045456
31
0.0
0
LINE
8
0
6
CONTINUOUS
10
-25.649905
20
463.999755
30
0.0
11
-25.229647
21
463.999755
31
0.0
0
LINE
8
0
6
CONTINUOUS
10
38.387170
20
464.999820
30
0.0
11
38.387170
21
464.954120
31
0.0
0
LINE
8
0
6
CONTINUOUS
10
39.727695
20
464.999820
30
0.0
11
38.387170
21
464.999820
31
0.0
0
LINE
8
0
6
CONTINUOUS
10
53.143002
20
464.999820
30
0.0
11
52.596283
21
464.999820
31
0.0
0
LINE
8
0
6
CONTINUOUS
10
48.393552
20
464.999820
30
0.0
11
43.390371
21
464.999820
31
0.0
0
LINE
8
0
6
CONTINUOUS
10
43.390371
20
464.999820
30
0.0
11
39.727695
21
464.999820
31
0.0
0
LINE
8
0
6
CONTINUOUS
10
52.176015
20
464.999820
30
0.0
11
48.393552
21
464.999820
31
0.0
0
LINE
8
0
6
CONTINUOUS
10
53.396743
20
464.999820
30
0.0
11
53.143002
21
464.999820
31
0.0
0
LINE
8
0
6
CONTINUOUS
10
53.396743
20
464.954120
30
0.0
11
53.396743
21
464.999820
31
0.0
0
LINE
8
0
6
CONTINUOUS
10
52.596283
20
464.999820
30
0.0
11
52.176015
21
464.999820
31
0.0
0
LINE
8
0
6
CONTINUOUS
10
38.387170
20
463.999835
30
0.0
11
39.727695
21
463.999835
31
0.0
0
LINE
8
0
6
CONTINUOUS
10
38.387170
20
464.045536
30
0.0
11
38.387170
21
463.999835
31
0.0
0
LINE
8
0
6
CONTINUOUS
10
38.387170
20
464.954120
30
0.0
11
38.387170
21
464.045536
31
0.0
0
LINE
8
0
6
CONTINUOUS
10
52.596283
20
463.999835
30
0.0
11
53.143002
21
463.999835
31
0.0
0
LINE
8
0
6
CONTINUOUS
10
43.390371
20
463.999835
30
0.0
11
48.393552
21
463.999835
31
0.0
0
LINE
8
0
6
CONTINUOUS
10
39.727695
20
463.999835
30
0.0
11
43.390371
21
463.999835
31
0.0
0
LINE
8
0
6
CONTINUOUS
10
48.393552
20
463.999835
30
0.0
11
52.176015
21
463.999835
31
0.0
0
LINE
8
0
6
CONTINUOUS
10
53.143002
20
463.999835
30
0.0
11
53.396743
21
463.999835
31
0.0
0
LINE
8
0
6
CONTINUOUS
10
53.143002
20
464.045536
30
0.0
11
53.143002
21
463.999835
31
0.0
0
LINE
8
0
6
CONTINUOUS
10
53.396743
20
463.999835
30
0.0
11
53.396743
21
464.045536
31
0.0
0
LINE
8
0
6
CONTINUOUS
10
53.396743
20
464.045536
30
0.0
11
53.396743
21
464.954120
31
0.0
0
LINE
8
0
6
CONTINUOUS
10
52.176015
20
463.999835
30
0.0
11
52.596283
21
463.999835
31
0.0
0
LINE
8
0
6
CONTINUOUS
10
-26.196614
20
-463.999735
30
0.0
11
-25.649905
21
-463.999735
31
0.0
0
LINE
8
0
6
CONTINUOUS
10
-26.450366
20
220.297185
30
0.0
11
-26.450366
21
5.450993
31
0.0
0
LINE
8
0
6
CONTINUOUS
10
-26.450366
20
-45.277527
30
0.0
11
-26.450366
21
-463.720344
31
0.0
0
LINE
8
0
6
CONTINUOUS
10
-26.196614
20
-463.999735
30
0.0
11
-26.196614
21
-463.720344
31
0.0
0
LINE
8
0
6
CONTINUOUS
10
-26.450366
20
-463.999735
30
0.0
11
-26.196614
21
-463.999735
31
0.0
0
LINE
8
0
6
CONTINUOUS
10
-26.450366
20
-463.720344
30
0.0
11
-26.450366
21
-463.999735
31
0.0
0
LINE
8
0
6
CONTINUOUS
10
-26.196614
20
220.297185
30
0.0
11
-26.196614
21
5.450993
31
0.0
0
LINE
8
0
6
CONTINUOUS
10
-26.196614
20
-45.277527
30
0.0
11
-26.196614
21
-463.720344
31
0.0
0
LINE
8
0
6
CONTINUOUS
10
-16.443994
20
-463.999735
30
0.0
11
-12.781317
21
-463.999735
31
0.0
0
LINE
8
0
6
CONTINUOUS
10
-25.649905
20
-463.999735
30
0.0
11
-25.229637
21
-463.999735
31
0.0
0
LINE
8
0
6
CONTINUOUS
10
-11.440792
20
-463.999735
30
0.0
11
-11.440792
21
-463.720224
31
0.0
0
LINE
8
0
6
CONTINUOUS
10
-12.781317
20
-463.999735
30
0.0
11
-11.440792
21
-463.999735
31
0.0
0
LINE
8
0
6
CONTINUOUS
10
-25.229637
20
-463.999735
30
0.0
11
-21.447175
21
-463.999735
31
0.0
0
LINE
8
0
6
CONTINUOUS
10
-21.447175
20
-463.999735
30
0.0
11
-16.443994
21
-463.999735
31
0.0
0
LINE
8
0
6
CONTINUOUS
10
-11.440792
20
-463.720224
30
0.0
11
-11.440792
21
-45.277527
31
0.0
0
LINE
8
0
6
CONTINUOUS
10
-11.440792
20
5.450993
30
0.0
11
-11.440792
21
220.297185
31
0.0
0
LINE
8
0
6
CONTINUOUS
10
-25.649905
20
463.999835
30
0.0
11
-26.196624
21
463.999835
31
0.0
0
LINE
8
0
6
CONTINUOUS
10
-26.450376
20
463.720444
30
0.0
11
-26.450366
21
220.297185
31
0.0
0
LINE
8
0
6
CONTINUOUS
10
-26.450376
20
463.999835
30
0.0
11
-26.450376
21
463.720444
31
0.0
0
LINE
8
0
6
CONTINUOUS
10
-26.196624
20
463.999835
30
0.0
11
-26.450376
21
463.999835
31
0.0
0
LINE
8
0
6
CONTINUOUS
10
-26.196624
20
463.720444
30
0.0
11
-26.196624
21
463.999835
31
0.0
0
LINE
8
0
6
CONTINUOUS
10
-26.196624
20
463.720444
30
0.0
11
-26.196614
21
220.297185
31
0.0
0
LINE
8
0
6
CONTINUOUS
10
-12.781317
20
463.999835
30
0.0
11
-16.443994
21
463.999835
31
0.0
0
LINE
8
0
6
CONTINUOUS
10
-25.229637
20
463.999835
30
0.0
11
-25.649905
21
463.999835
31
0.0
0
LINE
8
0
6
CONTINUOUS
10
-11.440802
20
463.999835
30
0.0
11
-12.781317
21
463.999835
31
0.0
0
LINE
8
0
6
CONTINUOUS
10
-11.440802
20
463.720294
30
0.0
11
-11.440802
21
463.999835
31
0.0
0
LINE
8
0
6
CONTINUOUS
10
-21.447185
20
463.999835
30
0.0
11
-25.229637
21
463.999835
31
0.0
0
LINE
8
0
6
CONTINUOUS
10
-16.443994
20
463.999835
30
0.0
11
-21.447185
21
463.999835
31
0.0
0
LINE
8
0
6
CONTINUOUS
10
-11.440792
20
220.297185
30
0.0
11
-11.440802
21
463.720294
31
0.0
0
LINE
8
0
6
CONTINUOUS
10
52.596283
20
-463.999735
30
0.0
11
53.143002
21
-463.999735
31
0.0
0
LINE
8
0
6
CONTINUOUS
10
53.396743
20
-463.720344
30
0.0
11
53.396733
21
220.297185
31
0.0
0
LINE
8
0
6
CONTINUOUS
10
53.396743
20
-463.999735
30
0.0
11
53.396743
21
-463.720344
31
0.0
0
LINE
8
0
6
CONTINUOUS
10
53.143002
20
-463.999735
30
0.0
11
53.396743
21
-463.999735
31
0.0
0
LINE
8
0
6
CONTINUOUS
10
53.143002
20
-463.720344
30
0.0
11
53.143002
21
-463.999735
31
0.0
0
LINE
8
0
6
CONTINUOUS
10
53.143002
20
-463.720344
30
0.0
11
53.142992
21
220.297185
31
0.0
0
LINE
8
0
6
CONTINUOUS
10
39.727695
20
-463.999735
30
0.0
11
43.390371
21
-463.999735
31
0.0
0
LINE
8
0
6
CONTINUOUS
10
52.176015
20
-463.999735
30
0.0
11
52.596283
21
-463.999735
31
0.0
0
LINE
8
0
6
CONTINUOUS
10
38.387170
20
-463.999735
30
0.0
11
39.727695
21
-463.999735
31
0.0
0
LINE
8
0
6
CONTINUOUS
10
38.387170
20
-463.720224
30
0.0
11
38.387170
21
-463.999735
31
0.0
0
LINE
8
0
6
CONTINUOUS
10
48.393552
20
-463.999735
30
0.0
11
52.176015
21
-463.999735
31
0.0
0
LINE
8
0
6
CONTINUOUS
10
43.390371
20
-463.999735
30
0.0
11
48.393552
21
-463.999735
31
0.0
0
LINE
8
0
6
CONTINUOUS
10
38.387170
20
220.297185
30
0.0
11
38.387170
21
-463.720224
31
0.0
0
LINE
8
0
6
CONTINUOUS
10
53.143002
20
463.999835
30
0.0
11
52.596283
21
463.999835
31
0.0
0
LINE
8
0
6
CONTINUOUS
10
53.396733
20
220.297185
30
0.0
11
53.396743
21
463.720444
31
0.0
0
LINE
8
0
6
CONTINUOUS
10
53.143002
20
463.999835
30
0.0
11
53.143002
21
463.720444
31
0.0
0
LINE
8
0
6
CONTINUOUS
10
53.396743
20
463.999835
30
0.0
11
53.143002
21
463.999835
31
0.0
0
LINE
8
0
6
CONTINUOUS
10
53.396743
20
463.720444
30
0.0
11
53.396743
21
463.999835
31
0.0
0
LINE
8
0
6
CONTINUOUS
10
53.142992
20
220.297185
30
0.0
11
53.143002
21
463.720444
31
0.0
0
LINE
8
0
6
CONTINUOUS
10
43.390361
20
463.999835
30
0.0
11
39.727685
21
463.999835
31
0.0
0
LINE
8
0
6
CONTINUOUS
10
52.596283
20
463.999835
30
0.0
11
52.176005
21
463.999835
31
0.0
0
LINE
8
0
6
CONTINUOUS
10
38.387170
20
463.999835
30
0.0
11
38.387170
21
463.720294
31
0.0
0
LINE
8
0
6
CONTINUOUS
10
39.727685
20
463.999835
30
0.0
11
38.387170
21
463.999835
31
0.0
0
LINE
8
0
6
CONTINUOUS
10
52.176005
20
463.999835
30
0.0
11
48.393552
21
463.999835
31
0.0
0
LINE
8
0
6
CONTINUOUS
10
48.393552
20
463.999835
30
0.0
11
43.390361
21
463.999835
31
0.0
0
LINE
8
0
6
CONTINUOUS
10
38.387170
20
463.720294
30
0.0
11
38.387170
21
220.297185
31
0.0
0
ENDSEC
0
EOF
