999
Erzeugt mit innoplus bad 
0
SECTION
2
HEADER
9
$ACADVER
1
AC1009
9
$DWGCODEPAGE
3
ISO8859-1
0
ENDSEC
0
SECTION
2
TABLES
0
TABLE
2
LAYER
70
1
0
LAYER
2
0
70
0
62
7
6
CONTINUOUS
0
ENDTAB
0
ENDSEC
0
SECTION
2
ENTITIES
0
LINE
8
0
6
CONTINUOUS
10
0.014146
20
0.018274
30
0.0
11
0.015364
21
0.019106
31
0.0
0
LINE
8
0
6
CONTINUOUS
10
0.013003
20
0.050787
30
0.0
11
0.016138
21
0.047287
31
0.0
0
LINE
8
0
6
CONTINUOUS
10
-0.016138
20
0.025243
30
0.0
11
-0.018334
21
0.029385
31
0.0
0
LINE
8
0
6
CONTINUOUS
10
-0.018334
20
0.029385
30
0.0
11
-0.019466
21
0.033926
31
0.0
0
LINE
8
0
6
CONTINUOUS
10
0.009113
20
0.053444
30
0.0
11
0.013003
21
0.050787
31
0.0
0
LINE
8
0
6
CONTINUOUS
10
0.018334
20
0.029385
30
0.0
11
0.016138
21
0.025243
31
0.0
0
LINE
8
0
6
CONTINUOUS
10
-0.009112
20
0.053444
30
0.0
11
-0.004693
21
0.055103
31
0.0
0
LINE
8
0
6
CONTINUOUS
10
0.004693
20
0.055103
30
0.0
11
0.009113
21
0.053444
31
0.0
0
LINE
8
0
6
CONTINUOUS
10
0.019068
20
0.049288
30
0.0
11
0.015364
21
0.053424
31
0.0
0
LINE
8
0
6
CONTINUOUS
10
-0.002120
20
0.058936
30
0.0
11
-0.005545
21
0.058523
31
0.0
0
LINE
8
0
6
CONTINUOUS
10
-0.010767
20
0.056563
30
0.0
11
-0.015364
21
0.053424
31
0.0
0
LINE
8
0
6
CONTINUOUS
10
-0.021663
20
0.028135
30
0.0
11
-0.019068
21
0.023242
31
0.0
0
LINE
8
0
6
CONTINUOUS
10
-0.023000
20
0.033502
30
0.0
11
-0.021663
21
0.028135
31
0.0
0
LINE
8
0
6
CONTINUOUS
10
0.005545
20
0.058523
30
0.0
11
0.002120
21
0.058936
31
0.0
0
LINE
8
0
6
CONTINUOUS
10
0.015364
20
0.053424
30
0.0
11
0.010767
21
0.056563
31
0.0
0
LINE
8
0
6
CONTINUOUS
10
0.019067
20
0.023242
30
0.0
11
0.021663
21
0.028135
31
0.0
0
LINE
8
0
6
CONTINUOUS
10
0.021663
20
0.028135
30
0.0
11
0.023000
21
0.033501
31
0.0
0
LINE
8
0
6
CONTINUOUS
10
-0.023000
20
0.039028
30
0.0
11
-0.023000
21
0.033502
31
0.0
0
LINE
8
0
6
CONTINUOUS
10
-0.005545
20
0.058523
30
0.0
11
-0.010767
21
0.056563
31
0.0
0
LINE
8
0
6
CONTINUOUS
10
0.023000
20
0.033501
30
0.0
11
0.023000
21
0.039028
31
0.0
0
LINE
8
0
6
CONTINUOUS
10
-0.021663
20
0.044394
30
0.0
11
-0.023000
21
0.039028
31
0.0
0
LINE
8
0
6
CONTINUOUS
10
0.010767
20
0.056563
30
0.0
11
0.005545
21
0.058523
31
0.0
0
LINE
8
0
6
CONTINUOUS
10
-0.019067
20
0.049288
30
0.0
11
-0.021663
21
0.044394
31
0.0
0
LINE
8
0
6
CONTINUOUS
10
-0.019068
20
0.023242
30
0.0
11
-0.015364
21
0.019106
31
0.0
0
LINE
8
0
6
CONTINUOUS
10
0.021663
20
0.044394
30
0.0
11
0.019068
21
0.049288
31
0.0
0
LINE
8
0
6
CONTINUOUS
10
0.015364
20
0.019106
30
0.0
11
0.019067
21
0.023242
31
0.0
0
LINE
8
0
6
CONTINUOUS
10
-0.015364
20
0.053424
30
0.0
11
-0.019067
21
0.049288
31
0.0
0
LINE
8
0
6
CONTINUOUS
10
0.023000
20
0.039028
30
0.0
11
0.021663
21
0.044394
31
0.0
0
LINE
8
0
6
CONTINUOUS
10
-0.015364
20
0.019106
30
0.0
11
-0.014146
21
0.018274
31
0.0
0
LINE
8
0
6
CONTINUOUS
10
0.013739
20
0.051609
30
0.0
11
0.017051
21
0.047910
31
0.0
0
LINE
8
0
6
CONTINUOUS
10
-0.004958
20
0.056169
30
0.0
11
-0.002087
21
0.056515
31
0.0
0
LINE
8
0
6
CONTINUOUS
10
-0.013739
20
0.051609
30
0.0
11
-0.009628
21
0.054417
31
0.0
0
LINE
8
0
6
CONTINUOUS
10
-0.017051
20
0.024619
30
0.0
11
-0.019372
21
0.028995
31
0.0
0
LINE
8
0
6
CONTINUOUS
10
-0.019372
20
0.028995
30
0.0
11
-0.020567
21
0.033794
31
0.0
0
LINE
8
0
6
CONTINUOUS
10
0.002153
20
0.056507
30
0.0
11
0.004958
21
0.056169
31
0.0
0
LINE
8
0
6
CONTINUOUS
10
0.009628
20
0.054417
30
0.0
11
0.013739
21
0.051609
31
0.0
0
LINE
8
0
6
CONTINUOUS
10
0.019372
20
0.028995
30
0.0
11
0.017051
21
0.024619
31
0.0
0
LINE
8
0
6
CONTINUOUS
10
0.020567
20
0.033794
30
0.0
11
0.019372
21
0.028995
31
0.0
0
LINE
8
0
6
CONTINUOUS
10
-0.020567
20
0.033794
30
0.0
11
-0.020567
21
0.038736
31
0.0
0
LINE
8
0
6
CONTINUOUS
10
-0.009628
20
0.054417
30
0.0
11
-0.004958
21
0.056169
31
0.0
0
LINE
8
0
6
CONTINUOUS
10
0.020567
20
0.038736
30
0.0
11
0.020567
21
0.033794
31
0.0
0
LINE
8
0
6
CONTINUOUS
10
-0.020567
20
0.038736
30
0.0
11
-0.019372
21
0.043534
31
0.0
0
LINE
8
0
6
CONTINUOUS
10
0.004958
20
0.056169
30
0.0
11
0.009628
21
0.054417
31
0.0
0
LINE
8
0
6
CONTINUOUS
10
-0.019372
20
0.043534
30
0.0
11
-0.017051
21
0.047910
31
0.0
0
LINE
8
0
6
CONTINUOUS
10
-0.013739
20
0.020921
30
0.0
11
-0.017051
21
0.024619
31
0.0
0
LINE
8
0
6
CONTINUOUS
10
0.017051
20
0.047910
30
0.0
11
0.019372
21
0.043534
31
0.0
0
LINE
8
0
6
CONTINUOUS
10
0.017051
20
0.024619
30
0.0
11
0.013739
21
0.020920
31
0.0
0
LINE
8
0
6
CONTINUOUS
10
-0.017051
20
0.047910
30
0.0
11
-0.013739
21
0.051609
31
0.0
0
LINE
8
0
6
CONTINUOUS
10
0.019372
20
0.043534
30
0.0
11
0.020567
21
0.038736
31
0.0
0
LINE
8
0
6
CONTINUOUS
10
-0.010005
20
-0.047593
30
0.0
11
-0.007075
21
-0.048705
31
0.0
0
LINE
8
0
6
CONTINUOUS
10
-0.014264
20
0.022888
30
0.0
11
-0.014146
21
0.022061
31
0.0
0
LINE
8
0
6
CONTINUOUS
10
-0.012254
20
-0.046143
30
0.0
11
-0.010005
21
-0.047593
31
0.0
0
LINE
8
0
6
CONTINUOUS
10
-0.013667
20
-0.044455
30
0.0
11
-0.012254
21
-0.046143
31
0.0
0
LINE
8
0
6
CONTINUOUS
10
-0.003662
20
-0.049405
30
0.0
11
-0.000000
21
-0.049643
31
0.0
0
LINE
8
0
6
CONTINUOUS
10
-0.007075
20
-0.048705
30
0.0
11
-0.003662
21
-0.049405
31
0.0
0
LINE
8
0
6
CONTINUOUS
10
-0.014146
20
0.022061
30
0.0
11
-0.014146
21
0.020822
31
0.0
0
LINE
8
0
6
CONTINUOUS
10
-0.014563
20
0.023658
30
0.0
11
-0.014264
21
0.022888
31
0.0
0
LINE
8
0
6
CONTINUOUS
10
-0.015803
20
0.025471
30
0.0
11
-0.015294
21
0.024794
31
0.0
0
LINE
8
0
6
CONTINUOUS
10
-0.014984
20
0.024382
30
0.0
11
-0.014563
21
0.023658
31
0.0
0
LINE
8
0
6
CONTINUOUS
10
0.007074
20
-0.048705
30
0.0
11
0.010005
21
-0.047594
31
0.0
0
LINE
8
0
6
CONTINUOUS
10
0.014146
20
0.022061
30
0.0
11
0.014264
21
0.022888
31
0.0
0
LINE
8
0
6
CONTINUOUS
10
0.010005
20
-0.047594
30
0.0
11
0.012254
21
-0.046143
31
0.0
0
LINE
8
0
6
CONTINUOUS
10
0.012254
20
-0.046143
30
0.0
11
0.013667
21
-0.044455
31
0.0
0
LINE
8
0
6
CONTINUOUS
10
-0.000000
20
-0.049643
30
0.0
11
0.003662
21
-0.049405
31
0.0
0
LINE
8
0
6
CONTINUOUS
10
0.003662
20
-0.049405
30
0.0
11
0.007074
21
-0.048705
31
0.0
0
LINE
8
0
6
CONTINUOUS
10
0.014146
20
0.020822
30
0.0
11
0.014146
21
0.022061
31
0.0
0
LINE
8
0
6
CONTINUOUS
10
0.014264
20
0.022888
30
0.0
11
0.014563
21
0.023658
31
0.0
0
LINE
8
0
6
CONTINUOUS
10
0.015294
20
0.024794
30
0.0
11
0.015803
21
0.025471
31
0.0
0
LINE
8
0
6
CONTINUOUS
10
-0.009352
20
0.019672
30
0.0
11
-0.008956
21
0.019458
31
0.0
0
LINE
8
0
6
CONTINUOUS
10
0.008956
20
0.019458
30
0.0
11
0.009352
21
0.019672
31
0.0
0
LINE
8
0
6
CONTINUOUS
10
-0.014146
20
0.020822
30
0.0
11
-0.014149
21
-0.041639
31
0.0
0
LINE
8
0
6
CONTINUOUS
10
0.014747
20
0.024136
30
0.0
11
0.015803
21
0.025471
31
0.0
0
LINE
8
0
6
CONTINUOUS
10
0.012734
20
0.022043
30
0.0
11
0.014747
21
0.024136
31
0.0
0
LINE
8
0
6
CONTINUOUS
10
0.014563
20
0.023658
30
0.0
11
0.014984
21
0.024382
31
0.0
0
LINE
8
0
6
CONTINUOUS
10
0.014149
20
-0.041639
30
0.0
11
0.014146
21
0.020822
31
0.0
0
LINE
8
0
6
CONTINUOUS
10
-0.014149
20
-0.042643
30
0.0
11
-0.013667
21
-0.044455
31
0.0
0
LINE
8
0
6
CONTINUOUS
10
-0.014149
20
-0.041639
30
0.0
11
-0.014149
21
-0.042643
31
0.0
0
LINE
8
0
6
CONTINUOUS
10
0.014149
20
-0.042643
30
0.0
11
0.014149
21
-0.041639
31
0.0
0
LINE
8
0
6
CONTINUOUS
10
0.013667
20
-0.044455
30
0.0
11
0.014149
21
-0.042643
31
0.0
0
LINE
8
0
6
CONTINUOUS
10
-0.018334
20
0.043145
30
0.0
11
-0.019466
21
0.038603
31
0.0
0
LINE
8
0
6
CONTINUOUS
10
-0.013003
20
0.050787
30
0.0
11
-0.016138
21
0.047287
31
0.0
0
LINE
8
0
6
CONTINUOUS
10
-0.016138
20
0.025243
30
0.0
11
-0.013003
21
0.021742
31
0.0
0
LINE
8
0
6
CONTINUOUS
10
-0.016138
20
0.047287
30
0.0
11
-0.018334
21
0.043145
31
0.0
0
LINE
8
0
6
CONTINUOUS
10
-0.009112
20
0.053444
30
0.0
11
-0.013003
21
0.050787
31
0.0
0
LINE
8
0
6
CONTINUOUS
10
0.019466
20
0.038603
30
0.0
11
0.018334
21
0.043145
31
0.0
0
LINE
8
0
6
CONTINUOUS
10
0.018334
20
0.043145
30
0.0
11
0.016138
21
0.047287
31
0.0
0
LINE
8
0
6
CONTINUOUS
10
0.013003
20
0.021742
30
0.0
11
0.016138
21
0.025243
31
0.0
0
LINE
8
0
6
CONTINUOUS
10
-0.019466
20
0.038603
30
0.0
11
-0.019466
21
0.033926
31
0.0
0
LINE
8
0
6
CONTINUOUS
10
0.004693
20
0.055103
30
0.0
11
0.002204
21
0.055403
31
0.0
0
LINE
8
0
6
CONTINUOUS
10
0.019466
20
0.033926
30
0.0
11
0.019466
21
0.038603
31
0.0
0
LINE
8
0
6
CONTINUOUS
10
-0.002037
20
0.055423
30
0.0
11
-0.004693
21
0.055103
31
0.0
0
LINE
8
0
6
CONTINUOUS
10
0.018334
20
0.029385
30
0.0
11
0.019466
21
0.033926
31
0.0
0
LINE
8
0
6
CONTINUOUS
10
-0.015803
20
0.025471
30
0.0
11
-0.012734
21
0.022043
31
0.0
0
LINE
8
0
6
CONTINUOUS
10
-0.017955
20
0.029527
30
0.0
11
-0.015803
21
0.025471
31
0.0
0
LINE
8
0
6
CONTINUOUS
10
-0.019063
20
0.033975
30
0.0
11
-0.017955
21
0.029527
31
0.0
0
LINE
8
0
6
CONTINUOUS
10
-0.012734
20
0.050486
30
0.0
11
-0.015803
21
0.047058
31
0.0
0
LINE
8
0
6
CONTINUOUS
10
-0.015803
20
0.047058
30
0.0
11
-0.017955
21
0.043002
31
0.0
0
LINE
8
0
6
CONTINUOUS
10
-0.008924
20
0.053089
30
0.0
11
-0.012734
21
0.050486
31
0.0
0
LINE
8
0
6
CONTINUOUS
10
-0.004595
20
0.054713
30
0.0
11
-0.008924
21
0.053089
31
0.0
0
LINE
8
0
6
CONTINUOUS
10
-0.019063
20
0.038555
30
0.0
11
-0.019063
21
0.033975
31
0.0
0
LINE
8
0
6
CONTINUOUS
10
-0.017955
20
0.043002
30
0.0
11
-0.019063
21
0.038555
31
0.0
0
LINE
8
0
6
CONTINUOUS
10
0.000000
20
0.055267
30
0.0
11
-0.004595
21
0.054713
31
0.0
0
LINE
8
0
6
CONTINUOUS
10
0.012734
20
0.022043
30
0.0
11
0.015803
21
0.025471
31
0.0
0
LINE
8
0
6
CONTINUOUS
10
0.015803
20
0.025471
30
0.0
11
0.017955
21
0.029527
31
0.0
0
LINE
8
0
6
CONTINUOUS
10
0.017955
20
0.029527
30
0.0
11
0.019063
21
0.033975
31
0.0
0
LINE
8
0
6
CONTINUOUS
10
0.015803
20
0.047058
30
0.0
11
0.012734
21
0.050486
31
0.0
0
LINE
8
0
6
CONTINUOUS
10
0.017955
20
0.043002
30
0.0
11
0.015803
21
0.047058
31
0.0
0
LINE
8
0
6
CONTINUOUS
10
0.012734
20
0.050486
30
0.0
11
0.008924
21
0.053089
31
0.0
0
LINE
8
0
6
CONTINUOUS
10
0.008924
20
0.053089
30
0.0
11
0.004596
21
0.054713
31
0.0
0
LINE
8
0
6
CONTINUOUS
10
0.008924
20
0.019441
30
0.0
11
0.012734
21
0.022043
31
0.0
0
LINE
8
0
6
CONTINUOUS
10
0.019063
20
0.033975
30
0.0
11
0.019063
21
0.038555
31
0.0
0
LINE
8
0
6
CONTINUOUS
10
0.019063
20
0.038555
30
0.0
11
0.017955
21
0.043002
31
0.0
0
LINE
8
0
6
CONTINUOUS
10
0.004596
20
0.054713
30
0.0
11
0.000000
21
0.055267
31
0.0
0
LINE
8
0
6
CONTINUOUS
10
-0.017079
20
0.027890
30
0.0
11
-0.014530
21
0.024181
31
0.0
0
LINE
8
0
6
CONTINUOUS
10
-0.017079
20
0.027890
30
0.0
11
-0.014704
21
0.024181
31
0.0
0
LINE
8
0
6
CONTINUOUS
10
-0.014608
20
0.024181
30
0.0
11
-0.011669
21
0.021175
31
0.0
0
LINE
8
0
6
CONTINUOUS
10
-0.017079
20
0.027890
30
0.0
11
-0.014608
21
0.024181
31
0.0
0
LINE
8
0
6
CONTINUOUS
10
-0.004597
20
0.009242
30
0.0
11
-0.004552
21
-0.042039
31
0.0
0
LINE
8
0
6
CONTINUOUS
10
-0.004721
20
0.016953
30
0.0
11
-0.004537
21
0.015812
31
0.0
0
LINE
8
0
6
CONTINUOUS
10
-0.011518
20
0.021175
30
0.0
11
-0.007612
21
0.018885
31
0.0
0
LINE
8
0
6
CONTINUOUS
10
-0.011669
20
0.021175
30
0.0
11
-0.007612
21
0.018885
31
0.0
0
LINE
8
0
6
CONTINUOUS
10
-0.006562
20
0.018339
30
0.0
11
-0.005515
21
0.017778
31
0.0
0
LINE
8
0
6
CONTINUOUS
10
-0.017079
20
0.027890
30
0.0
11
-0.014449
21
0.024181
31
0.0
0
LINE
8
0
6
CONTINUOUS
10
-0.005515
20
0.017778
30
0.0
11
-0.004735
21
0.016897
31
0.0
0
LINE
8
0
6
CONTINUOUS
10
-0.005439
20
0.017806
30
0.0
11
-0.005515
21
0.017778
31
0.0
0
LINE
8
0
6
CONTINUOUS
10
-0.004601
20
0.014582
30
0.0
11
-0.004597
21
0.009242
31
0.0
0
LINE
8
0
6
CONTINUOUS
10
-0.004586
20
0.015804
30
0.0
11
-0.004601
21
0.014582
31
0.0
0
LINE
8
0
6
CONTINUOUS
10
-0.006484
20
0.018401
30
0.0
11
-0.007612
21
0.018885
31
0.0
0
LINE
8
0
6
CONTINUOUS
10
-0.007612
20
0.018885
30
0.0
11
-0.006562
21
0.018339
31
0.0
0
LINE
8
0
6
CONTINUOUS
10
-0.007612
20
0.018885
30
0.0
11
-0.006484
21
0.018401
31
0.0
0
LINE
8
0
6
CONTINUOUS
10
-0.004721
20
0.016953
30
0.0
11
-0.004763
21
0.016940
31
0.0
0
LINE
8
0
6
CONTINUOUS
10
-0.004763
20
0.016940
30
0.0
11
-0.004586
21
0.015804
31
0.0
0
LINE
8
0
6
CONTINUOUS
10
-0.004320
20
-0.042038
30
0.0
11
-0.004327
21
0.009238
31
0.0
0
LINE
8
0
6
CONTINUOUS
10
-0.004548
20
0.009238
30
0.0
11
-0.004540
21
-0.042039
31
0.0
0
LINE
8
0
6
CONTINUOUS
10
-0.011494
20
0.021175
30
0.0
11
-0.007612
21
0.018885
31
0.0
0
LINE
8
0
6
CONTINUOUS
10
-0.018520
20
0.032031
30
0.0
11
-0.017079
21
0.027890
31
0.0
0
LINE
8
0
6
CONTINUOUS
10
-0.007612
20
0.018885
30
0.0
11
-0.006473
21
0.018405
31
0.0
0
LINE
8
0
6
CONTINUOUS
10
-0.005413
20
0.017816
30
0.0
11
-0.004721
21
0.016953
31
0.0
0
LINE
8
0
6
CONTINUOUS
10
-0.006473
20
0.018405
30
0.0
11
-0.005413
21
0.017816
31
0.0
0
LINE
8
0
6
CONTINUOUS
10
-0.004552
20
0.014582
30
0.0
11
-0.004548
21
0.009238
31
0.0
0
LINE
8
0
6
CONTINUOUS
10
-0.004332
20
0.014582
30
0.0
11
-0.004315
21
0.015864
31
0.0
0
LINE
8
0
6
CONTINUOUS
10
-0.004537
20
0.015812
30
0.0
11
-0.004552
21
0.014582
31
0.0
0
LINE
8
0
6
CONTINUOUS
10
-0.002810
20
-0.042735
30
0.0
11
-0.001405
21
-0.042735
31
0.0
0
LINE
8
0
6
CONTINUOUS
10
-0.017079
20
0.027890
30
0.0
11
-0.014390
21
0.024181
31
0.0
0
LINE
8
0
6
CONTINUOUS
10
-0.001405
20
-0.042735
30
0.0
11
-0.000060
21
-0.042735
31
0.0
0
LINE
8
0
6
CONTINUOUS
10
-0.004540
20
-0.042039
30
0.0
11
-0.004540
21
-0.042333
31
0.0
0
LINE
8
0
6
CONTINUOUS
10
-0.000060
20
0.054796
30
0.0
11
-0.004274
21
0.054320
31
0.0
0
LINE
8
0
6
CONTINUOUS
10
-0.008278
20
0.052923
30
0.0
11
-0.011863
21
0.050667
31
0.0
0
LINE
8
0
6
CONTINUOUS
10
-0.011863
20
0.050667
30
0.0
11
-0.014845
21
0.047670
31
0.0
0
LINE
8
0
6
CONTINUOUS
10
-0.014845
20
0.047670
30
0.0
11
-0.017083
21
0.044111
31
0.0
0
LINE
8
0
6
CONTINUOUS
10
-0.017083
20
0.044111
30
0.0
11
-0.018476
21
0.040137
31
0.0
0
LINE
8
0
6
CONTINUOUS
10
-0.018476
20
0.040137
30
0.0
11
-0.018971
21
0.035958
31
0.0
0
LINE
8
0
6
CONTINUOUS
10
-0.004274
20
0.054320
30
0.0
11
-0.008278
21
0.052923
31
0.0
0
LINE
8
0
6
CONTINUOUS
10
-0.014390
20
0.024181
30
0.0
11
-0.011494
21
0.021175
31
0.0
0
LINE
8
0
6
CONTINUOUS
10
-0.018971
20
0.035958
30
0.0
11
-0.018520
21
0.032031
31
0.0
0
LINE
8
0
6
CONTINUOUS
10
-0.004319
20
-0.042266
30
0.0
11
-0.004540
21
-0.042333
31
0.0
0
LINE
8
0
6
CONTINUOUS
10
-0.004540
20
-0.042333
30
0.0
11
-0.004418
21
-0.042511
31
0.0
0
LINE
8
0
6
CONTINUOUS
10
-0.004418
20
-0.042511
30
0.0
11
-0.004211
21
-0.042735
31
0.0
0
LINE
8
0
6
CONTINUOUS
10
-0.004114
20
-0.042735
30
0.0
11
-0.002810
21
-0.042735
31
0.0
0
LINE
8
0
6
CONTINUOUS
10
-0.011355
20
0.021348
30
0.0
11
-0.007513
21
0.019081
31
0.0
0
LINE
8
0
6
CONTINUOUS
10
-0.018303
20
0.032079
30
0.0
11
-0.016881
21
0.027991
31
0.0
0
LINE
8
0
6
CONTINUOUS
10
-0.007513
20
0.019081
30
0.0
11
-0.006326
21
0.018579
31
0.0
0
LINE
8
0
6
CONTINUOUS
10
-0.005225
20
0.017958
30
0.0
11
-0.004507
21
0.017053
31
0.0
0
LINE
8
0
6
CONTINUOUS
10
-0.006326
20
0.018579
30
0.0
11
-0.005225
21
0.017958
31
0.0
0
LINE
8
0
6
CONTINUOUS
10
-0.004332
20
0.014582
30
0.0
11
-0.004327
21
0.009238
31
0.0
0
LINE
8
0
6
CONTINUOUS
10
-0.004507
20
0.017053
30
0.0
11
-0.004315
21
0.015864
31
0.0
0
LINE
8
0
6
CONTINUOUS
10
-0.002809
20
-0.042526
30
0.0
11
-0.001404
21
-0.042529
31
0.0
0
LINE
8
0
6
CONTINUOUS
10
-0.016881
20
0.027991
30
0.0
11
-0.014220
21
0.024321
31
0.0
0
LINE
8
0
6
CONTINUOUS
10
-0.001404
20
-0.042529
30
0.0
11
-0.000060
21
-0.042531
31
0.0
0
LINE
8
0
6
CONTINUOUS
10
-0.004320
20
-0.042038
30
0.0
11
-0.004319
21
-0.042266
31
0.0
0
LINE
8
0
6
CONTINUOUS
10
-0.000060
20
0.054576
30
0.0
11
-0.004224
21
0.054106
31
0.0
0
LINE
8
0
6
CONTINUOUS
10
-0.008181
20
0.052725
30
0.0
11
-0.011724
21
0.050496
31
0.0
0
LINE
8
0
6
CONTINUOUS
10
-0.011724
20
0.050496
30
0.0
11
-0.014671
21
0.047534
31
0.0
0
LINE
8
0
6
CONTINUOUS
10
-0.014671
20
0.047534
30
0.0
11
-0.016883
21
0.044016
31
0.0
0
LINE
8
0
6
CONTINUOUS
10
-0.016883
20
0.044016
30
0.0
11
-0.018260
21
0.040088
31
0.0
0
LINE
8
0
6
CONTINUOUS
10
-0.018260
20
0.040088
30
0.0
11
-0.018749
21
0.035958
31
0.0
0
LINE
8
0
6
CONTINUOUS
10
-0.004224
20
0.054106
30
0.0
11
-0.008181
21
0.052725
31
0.0
0
LINE
8
0
6
CONTINUOUS
10
-0.014220
20
0.024321
30
0.0
11
-0.011355
21
0.021348
31
0.0
0
LINE
8
0
6
CONTINUOUS
10
-0.018749
20
0.035958
30
0.0
11
-0.018303
21
0.032079
31
0.0
0
LINE
8
0
6
CONTINUOUS
10
-0.004319
20
-0.042266
30
0.0
11
-0.004243
21
-0.042376
31
0.0
0
LINE
8
0
6
CONTINUOUS
10
-0.004243
20
-0.042376
30
0.0
11
-0.004114
21
-0.042523
31
0.0
0
LINE
8
0
6
CONTINUOUS
10
-0.004022
20
-0.042524
30
0.0
11
-0.002809
21
-0.042526
31
0.0
0
LINE
8
0
6
CONTINUOUS
10
-0.004022
20
-0.042524
30
0.0
11
-0.004114
21
-0.042523
31
0.0
0
LINE
8
0
6
CONTINUOUS
10
-0.004211
20
-0.042735
30
0.0
11
-0.004114
21
-0.042735
31
0.0
0
LINE
8
0
6
CONTINUOUS
10
-0.004114
20
-0.042523
30
0.0
11
-0.004211
21
-0.042735
31
0.0
0
LINE
8
0
6
CONTINUOUS
10
-0.017079
20
0.027890
30
0.0
11
-0.014709
21
0.024181
31
0.0
0
LINE
8
0
6
CONTINUOUS
10
0.014409
20
0.024181
30
0.0
11
0.016958
21
0.027890
31
0.0
0
LINE
8
0
6
CONTINUOUS
10
0.014583
20
0.024181
30
0.0
11
0.016958
21
0.027890
31
0.0
0
LINE
8
0
6
CONTINUOUS
10
0.011548
20
0.021175
30
0.0
11
0.014487
21
0.024181
31
0.0
0
LINE
8
0
6
CONTINUOUS
10
0.004431
20
-0.042039
30
0.0
11
0.004477
21
0.009242
31
0.0
0
LINE
8
0
6
CONTINUOUS
10
0.004416
20
0.015812
30
0.0
11
0.004601
21
0.016953
31
0.0
0
LINE
8
0
6
CONTINUOUS
10
0.007492
20
0.018885
30
0.0
11
0.011397
21
0.021175
31
0.0
0
LINE
8
0
6
CONTINUOUS
10
0.007492
20
0.018885
30
0.0
11
0.011548
21
0.021175
31
0.0
0
LINE
8
0
6
CONTINUOUS
10
0.005394
20
0.017778
30
0.0
11
0.006441
21
0.018339
31
0.0
0
LINE
8
0
6
CONTINUOUS
10
0.014328
20
0.024181
30
0.0
11
0.016958
21
0.027890
31
0.0
0
LINE
8
0
6
CONTINUOUS
10
0.005394
20
0.017778
30
0.0
11
0.005318
21
0.017806
31
0.0
0
LINE
8
0
6
CONTINUOUS
10
0.004614
20
0.016897
30
0.0
11
0.005394
21
0.017778
31
0.0
0
LINE
8
0
6
CONTINUOUS
10
0.004477
20
0.009242
30
0.0
11
0.004481
21
0.014582
31
0.0
0
LINE
8
0
6
CONTINUOUS
10
0.004481
20
0.014582
30
0.0
11
0.004465
21
0.015804
31
0.0
0
LINE
8
0
6
CONTINUOUS
10
0.007492
20
0.018885
30
0.0
11
0.006363
21
0.018401
31
0.0
0
LINE
8
0
6
CONTINUOUS
10
0.006441
20
0.018339
30
0.0
11
0.007492
21
0.018885
31
0.0
0
LINE
8
0
6
CONTINUOUS
10
0.006363
20
0.018401
30
0.0
11
0.007492
21
0.018885
31
0.0
0
LINE
8
0
6
CONTINUOUS
10
0.004465
20
0.015804
30
0.0
11
0.004642
21
0.016940
31
0.0
0
LINE
8
0
6
CONTINUOUS
10
0.004642
20
0.016940
30
0.0
11
0.004601
21
0.016953
31
0.0
0
LINE
8
0
6
CONTINUOUS
10
0.004419
20
-0.042039
30
0.0
11
0.004427
21
0.009238
31
0.0
0
LINE
8
0
6
CONTINUOUS
10
0.004206
20
0.009238
30
0.0
11
0.004199
21
-0.042038
31
0.0
0
LINE
8
0
6
CONTINUOUS
10
0.007492
20
0.018885
30
0.0
11
0.011373
21
0.021175
31
0.0
0
LINE
8
0
6
CONTINUOUS
10
0.016958
20
0.027890
30
0.0
11
0.018399
21
0.032031
31
0.0
0
LINE
8
0
6
CONTINUOUS
10
0.006352
20
0.018405
30
0.0
11
0.007492
21
0.018885
31
0.0
0
LINE
8
0
6
CONTINUOUS
10
0.004601
20
0.016953
30
0.0
11
0.005292
21
0.017816
31
0.0
0
LINE
8
0
6
CONTINUOUS
10
0.005292
20
0.017816
30
0.0
11
0.006352
21
0.018405
31
0.0
0
LINE
8
0
6
CONTINUOUS
10
0.004427
20
0.009238
30
0.0
11
0.004431
21
0.014582
31
0.0
0
LINE
8
0
6
CONTINUOUS
10
0.004431
20
0.014582
30
0.0
11
0.004416
21
0.015812
31
0.0
0
LINE
8
0
6
CONTINUOUS
10
0.004195
20
0.015864
30
0.0
11
0.004211
21
0.014582
31
0.0
0
LINE
8
0
6
CONTINUOUS
10
0.001284
20
-0.042735
30
0.0
11
0.002689
21
-0.042735
31
0.0
0
LINE
8
0
6
CONTINUOUS
10
0.014269
20
0.024181
30
0.0
11
0.016958
21
0.027890
31
0.0
0
LINE
8
0
6
CONTINUOUS
10
-0.000060
20
-0.042735
30
0.0
11
0.001284
21
-0.042735
31
0.0
0
LINE
8
0
6
CONTINUOUS
10
0.004419
20
-0.042333
30
0.0
11
0.004419
21
-0.042039
31
0.0
0
LINE
8
0
6
CONTINUOUS
10
0.004153
20
0.054320
30
0.0
11
-0.000060
21
0.054796
31
0.0
0
LINE
8
0
6
CONTINUOUS
10
0.011743
20
0.050667
30
0.0
11
0.008157
21
0.052923
31
0.0
0
LINE
8
0
6
CONTINUOUS
10
0.014724
20
0.047670
30
0.0
11
0.011743
21
0.050667
31
0.0
0
LINE
8
0
6
CONTINUOUS
10
0.016962
20
0.044111
30
0.0
11
0.014724
21
0.047670
31
0.0
0
LINE
8
0
6
CONTINUOUS
10
0.018356
20
0.040137
30
0.0
11
0.016962
21
0.044111
31
0.0
0
LINE
8
0
6
CONTINUOUS
10
0.018851
20
0.035958
30
0.0
11
0.018356
21
0.040137
31
0.0
0
LINE
8
0
6
CONTINUOUS
10
0.008157
20
0.052923
30
0.0
11
0.004153
21
0.054320
31
0.0
0
LINE
8
0
6
CONTINUOUS
10
0.011373
20
0.021175
30
0.0
11
0.014269
21
0.024181
31
0.0
0
LINE
8
0
6
CONTINUOUS
10
0.018399
20
0.032031
30
0.0
11
0.018851
21
0.035958
31
0.0
0
LINE
8
0
6
CONTINUOUS
10
0.004297
20
-0.042511
30
0.0
11
0.004419
21
-0.042333
31
0.0
0
LINE
8
0
6
CONTINUOUS
10
0.004419
20
-0.042333
30
0.0
11
0.004199
21
-0.042266
31
0.0
0
LINE
8
0
6
CONTINUOUS
10
0.004090
20
-0.042735
30
0.0
11
0.004297
21
-0.042511
31
0.0
0
LINE
8
0
6
CONTINUOUS
10
0.002689
20
-0.042735
30
0.0
11
0.003993
21
-0.042735
31
0.0
0
LINE
8
0
6
CONTINUOUS
10
0.007392
20
0.019081
30
0.0
11
0.011234
21
0.021348
31
0.0
0
LINE
8
0
6
CONTINUOUS
10
0.016760
20
0.027991
30
0.0
11
0.018183
21
0.032079
31
0.0
0
LINE
8
0
6
CONTINUOUS
10
0.006206
20
0.018579
30
0.0
11
0.007392
21
0.019081
31
0.0
0
LINE
8
0
6
CONTINUOUS
10
0.004386
20
0.017053
30
0.0
11
0.005104
21
0.017958
31
0.0
0
LINE
8
0
6
CONTINUOUS
10
0.005104
20
0.017958
30
0.0
11
0.006206
21
0.018579
31
0.0
0
LINE
8
0
6
CONTINUOUS
10
0.004206
20
0.009238
30
0.0
11
0.004211
21
0.014582
31
0.0
0
LINE
8
0
6
CONTINUOUS
10
0.004195
20
0.015864
30
0.0
11
0.004386
21
0.017053
31
0.0
0
LINE
8
0
6
CONTINUOUS
10
0.001283
20
-0.042529
30
0.0
11
0.002688
21
-0.042526
31
0.0
0
LINE
8
0
6
CONTINUOUS
10
0.014099
20
0.024321
30
0.0
11
0.016760
21
0.027991
31
0.0
0
LINE
8
0
6
CONTINUOUS
10
-0.000060
20
-0.042531
30
0.0
11
0.001283
21
-0.042529
31
0.0
0
LINE
8
0
6
CONTINUOUS
10
0.004199
20
-0.042266
30
0.0
11
0.004199
21
-0.042038
31
0.0
0
LINE
8
0
6
CONTINUOUS
10
0.004103
20
0.054106
30
0.0
11
-0.000060
21
0.054576
31
0.0
0
LINE
8
0
6
CONTINUOUS
10
0.011603
20
0.050496
30
0.0
11
0.008060
21
0.052725
31
0.0
0
LINE
8
0
6
CONTINUOUS
10
0.014550
20
0.047534
30
0.0
11
0.011603
21
0.050496
31
0.0
0
LINE
8
0
6
CONTINUOUS
10
0.016762
20
0.044016
30
0.0
11
0.014550
21
0.047534
31
0.0
0
LINE
8
0
6
CONTINUOUS
10
0.018139
20
0.040088
30
0.0
11
0.016762
21
0.044016
31
0.0
0
LINE
8
0
6
CONTINUOUS
10
0.018629
20
0.035958
30
0.0
11
0.018139
21
0.040088
31
0.0
0
LINE
8
0
6
CONTINUOUS
10
0.008060
20
0.052725
30
0.0
11
0.004103
21
0.054106
31
0.0
0
LINE
8
0
6
CONTINUOUS
10
0.011234
20
0.021348
30
0.0
11
0.014099
21
0.024321
31
0.0
0
LINE
8
0
6
CONTINUOUS
10
0.018183
20
0.032079
30
0.0
11
0.018629
21
0.035958
31
0.0
0
LINE
8
0
6
CONTINUOUS
10
0.004123
20
-0.042376
30
0.0
11
0.004199
21
-0.042266
31
0.0
0
LINE
8
0
6
CONTINUOUS
10
0.003993
20
-0.042523
30
0.0
11
0.004123
21
-0.042376
31
0.0
0
LINE
8
0
6
CONTINUOUS
10
0.002688
20
-0.042526
30
0.0
11
0.003901
21
-0.042524
31
0.0
0
LINE
8
0
6
CONTINUOUS
10
0.004090
20
-0.042735
30
0.0
11
0.003993
21
-0.042523
31
0.0
0
LINE
8
0
6
CONTINUOUS
10
0.003993
20
-0.042735
30
0.0
11
0.004090
21
-0.042735
31
0.0
0
LINE
8
0
6
CONTINUOUS
10
0.003993
20
-0.042523
30
0.0
11
0.003901
21
-0.042524
31
0.0
0
LINE
8
0
6
CONTINUOUS
10
0.014588
20
0.024181
30
0.0
11
0.016958
21
0.027890
31
0.0
0
LINE
8
0
6
CONTINUOUS
10
-0.014028
20
-0.048389
30
0.0
11
-0.014149
21
-0.049972
31
0.0
0
LINE
8
0
6
CONTINUOUS
10
-0.013667
20
-0.046834
30
0.0
11
-0.014028
21
-0.048389
31
0.0
0
LINE
8
0
6
CONTINUOUS
10
0.014149
20
-0.049972
30
0.0
11
0.014028
21
-0.048389
31
0.0
0
LINE
8
0
6
CONTINUOUS
10
0.014028
20
-0.048389
30
0.0
11
0.013667
21
-0.046834
31
0.0
0
LINE
8
0
6
CONTINUOUS
10
0.013667
20
-0.046834
30
0.0
11
0.013201
21
-0.045084
31
0.0
0
LINE
8
0
6
CONTINUOUS
10
-0.014149
20
-0.067032
30
0.0
11
-0.013667
21
-0.068844
31
0.0
0
LINE
8
0
6
CONTINUOUS
10
-0.014149
20
-0.066904
30
0.0
11
-0.014149
21
-0.067032
31
0.0
0
LINE
8
0
6
CONTINUOUS
10
0.014149
20
-0.067032
30
0.0
11
0.014149
21
-0.066904
31
0.0
0
LINE
8
0
6
CONTINUOUS
10
0.013667
20
-0.068844
30
0.0
11
0.014149
21
-0.067032
31
0.0
0
LINE
8
0
6
CONTINUOUS
10
-0.000000
20
-0.065916
30
0.0
11
-0.003652
21
-0.065679
31
0.0
0
LINE
8
0
6
CONTINUOUS
10
0.012221
20
-0.062426
30
0.0
11
0.009978
21
-0.063872
31
0.0
0
LINE
8
0
6
CONTINUOUS
10
-0.009979
20
-0.063872
30
0.0
11
-0.012221
21
-0.062426
31
0.0
0
LINE
8
0
6
CONTINUOUS
10
0.013631
20
-0.060742
30
0.0
11
0.012221
21
-0.062426
31
0.0
0
LINE
8
0
6
CONTINUOUS
10
0.007056
20
-0.064981
30
0.0
11
0.003652
21
-0.065679
31
0.0
0
LINE
8
0
6
CONTINUOUS
10
0.003652
20
-0.065679
30
0.0
11
-0.000000
21
-0.065916
31
0.0
0
LINE
8
0
6
CONTINUOUS
10
-0.007056
20
-0.064981
30
0.0
11
-0.009979
21
-0.063872
31
0.0
0
LINE
8
0
6
CONTINUOUS
10
-0.003652
20
-0.065679
30
0.0
11
-0.007056
21
-0.064981
31
0.0
0
LINE
8
0
6
CONTINUOUS
10
-0.010005
20
-0.063755
30
0.0
11
-0.007075
21
-0.064867
31
0.0
0
LINE
8
0
6
CONTINUOUS
10
-0.012221
20
-0.062426
30
0.0
11
-0.013631
21
-0.060742
31
0.0
0
LINE
8
0
6
CONTINUOUS
10
0.009978
20
-0.063872
30
0.0
11
0.007056
21
-0.064981
31
0.0
0
LINE
8
0
6
CONTINUOUS
10
0.007075
20
-0.064867
30
0.0
11
0.010005
21
-0.063755
31
0.0
0
LINE
8
0
6
CONTINUOUS
10
-0.013667
20
-0.060617
30
0.0
11
-0.012254
21
-0.062305
31
0.0
0
LINE
8
0
6
CONTINUOUS
10
-0.007075
20
-0.064867
30
0.0
11
-0.003662
21
-0.065567
31
0.0
0
LINE
8
0
6
CONTINUOUS
10
0.014149
20
-0.058805
30
0.0
11
0.014149
21
-0.058646
31
0.0
0
LINE
8
0
6
CONTINUOUS
10
0.013667
20
-0.060617
30
0.0
11
0.014149
21
-0.058805
31
0.0
0
LINE
8
0
6
CONTINUOUS
10
-0.000000
20
-0.065805
30
0.0
11
0.003662
21
-0.065567
31
0.0
0
LINE
8
0
6
CONTINUOUS
10
-0.003662
20
-0.065567
30
0.0
11
-0.000000
21
-0.065805
31
0.0
0
LINE
8
0
6
CONTINUOUS
10
0.003662
20
-0.065567
30
0.0
11
0.007075
21
-0.064867
31
0.0
0
LINE
8
0
6
CONTINUOUS
10
-0.014149
20
-0.058805
30
0.0
11
-0.013667
21
-0.060617
31
0.0
0
LINE
8
0
6
CONTINUOUS
10
-0.014149
20
-0.058646
30
0.0
11
-0.014149
21
-0.058805
31
0.0
0
LINE
8
0
6
CONTINUOUS
10
0.012254
20
-0.062305
30
0.0
11
0.013667
21
-0.060617
31
0.0
0
LINE
8
0
6
CONTINUOUS
10
-0.012254
20
-0.062305
30
0.0
11
-0.010005
21
-0.063755
31
0.0
0
LINE
8
0
6
CONTINUOUS
10
0.010005
20
-0.063755
30
0.0
11
0.012254
21
-0.062305
31
0.0
0
LINE
8
0
6
CONTINUOUS
10
-0.013202
20
-0.045083
30
0.0
11
-0.013667
21
-0.046834
31
0.0
0
LINE
8
0
6
CONTINUOUS
10
0.014149
20
-0.058646
30
0.0
11
0.014149
21
-0.049972
31
0.0
0
LINE
8
0
6
CONTINUOUS
10
-0.014149
20
-0.049972
30
0.0
11
-0.014149
21
-0.058646
31
0.0
0
LINE
8
0
6
CONTINUOUS
10
0.014149
20
-0.059160
30
0.0
11
0.014149
21
-0.059065
31
0.0
0
LINE
8
0
6
CONTINUOUS
10
-0.014149
20
-0.059065
30
0.0
11
-0.014149
21
-0.059160
31
0.0
0
LINE
8
0
6
CONTINUOUS
10
0.012254
20
-0.070532
30
0.0
11
0.010005
21
-0.071982
31
0.0
0
LINE
8
0
6
CONTINUOUS
10
0.009899
20
-0.072236
30
0.0
11
0.012124
21
-0.070802
31
0.0
0
LINE
8
0
6
CONTINUOUS
10
0.003623
20
-0.074029
30
0.0
11
0.007000
21
-0.073337
31
0.0
0
LINE
8
0
6
CONTINUOUS
10
0.007075
20
-0.073095
30
0.0
11
0.003662
21
-0.073794
31
0.0
0
LINE
8
0
6
CONTINUOUS
10
0.013523
20
-0.069131
30
0.0
11
0.013667
21
-0.068844
31
0.0
0
LINE
8
0
6
CONTINUOUS
10
0.012124
20
-0.070802
30
0.0
11
0.013523
21
-0.069131
31
0.0
0
LINE
8
0
6
CONTINUOUS
10
0.013667
20
-0.068844
30
0.0
11
0.012254
21
-0.070532
31
0.0
0
LINE
8
0
6
CONTINUOUS
10
-0.000000
20
-0.074265
30
0.0
11
0.003623
21
-0.074029
31
0.0
0
LINE
8
0
6
CONTINUOUS
10
0.003662
20
-0.073794
30
0.0
11
-0.000000
21
-0.074032
31
0.0
0
LINE
8
0
6
CONTINUOUS
10
-0.012124
20
-0.070802
30
0.0
11
-0.009900
21
-0.072236
31
0.0
0
LINE
8
0
6
CONTINUOUS
10
-0.010005
20
-0.071982
30
0.0
11
-0.012254
21
-0.070532
31
0.0
0
LINE
8
0
6
CONTINUOUS
10
-0.013667
20
-0.068844
30
0.0
11
-0.013523
21
-0.069131
31
0.0
0
LINE
8
0
6
CONTINUOUS
10
-0.012254
20
-0.070532
30
0.0
11
-0.013667
21
-0.068844
31
0.0
0
LINE
8
0
6
CONTINUOUS
10
-0.013523
20
-0.069131
30
0.0
11
-0.012124
21
-0.070802
31
0.0
0
LINE
8
0
6
CONTINUOUS
10
-0.009900
20
-0.072236
30
0.0
11
-0.007000
21
-0.073337
31
0.0
0
LINE
8
0
6
CONTINUOUS
10
-0.007075
20
-0.073095
30
0.0
11
-0.010005
21
-0.071982
31
0.0
0
LINE
8
0
6
CONTINUOUS
10
0.007000
20
-0.073337
30
0.0
11
0.009899
21
-0.072236
31
0.0
0
LINE
8
0
6
CONTINUOUS
10
0.010005
20
-0.071982
30
0.0
11
0.007075
21
-0.073095
31
0.0
0
LINE
8
0
6
CONTINUOUS
10
-0.007000
20
-0.073337
30
0.0
11
-0.003624
21
-0.074029
31
0.0
0
LINE
8
0
6
CONTINUOUS
10
-0.003662
20
-0.073794
30
0.0
11
-0.007075
21
-0.073095
31
0.0
0
LINE
8
0
6
CONTINUOUS
10
-0.000000
20
-0.074032
30
0.0
11
-0.003662
21
-0.073794
31
0.0
0
LINE
8
0
6
CONTINUOUS
10
-0.003624
20
-0.074029
30
0.0
11
-0.000000
21
-0.074265
31
0.0
0
LINE
8
0
6
CONTINUOUS
10
-0.014149
20
-0.059160
30
0.0
11
-0.014149
21
-0.066904
31
0.0
0
LINE
8
0
6
CONTINUOUS
10
0.014149
20
-0.066904
30
0.0
11
0.014149
21
-0.059160
31
0.0
0
LINE
8
0
6
CONTINUOUS
10
-0.000655
20
0.056324
30
0.0
11
-0.000655
21
0.055814
31
0.0
0
LINE
8
0
6
CONTINUOUS
10
0.002120
20
0.057225
30
0.0
11
0.002120
21
0.057695
31
0.0
0
LINE
8
0
6
CONTINUOUS
10
-0.001715
20
0.056353
30
0.0
11
-0.001715
21
0.056848
31
0.0
0
LINE
8
0
6
CONTINUOUS
10
-0.002120
20
0.057695
30
0.0
11
-0.002120
21
0.057225
31
0.0
0
LINE
8
0
6
CONTINUOUS
10
0.001715
20
0.056353
30
0.0
11
0.001715
21
0.056848
31
0.0
0
LINE
8
0
6
CONTINUOUS
10
0.000655
20
0.056324
30
0.0
11
0.000655
21
0.055814
31
0.0
0
LINE
8
0
6
CONTINUOUS
10
-0.000646
20
0.055619
30
0.0
11
-0.000626
21
0.055191
31
0.0
0
LINE
8
0
6
CONTINUOUS
10
0.002222
20
0.054999
30
0.0
11
0.002129
21
0.057030
31
0.0
0
LINE
8
0
6
CONTINUOUS
10
-0.001656
20
0.055067
30
0.0
11
-0.001706
21
0.056158
31
0.0
0
LINE
8
0
6
CONTINUOUS
10
-0.002111
20
0.057030
30
0.0
11
-0.002018
21
0.055023
31
0.0
0
LINE
8
0
6
CONTINUOUS
10
0.001775
20
0.055053
30
0.0
11
0.001724
21
0.056158
31
0.0
0
LINE
8
0
6
CONTINUOUS
10
0.000664
20
0.055619
30
0.0
11
0.000684
21
0.055184
31
0.0
0
LINE
8
0
6
CONTINUOUS
10
-0.000655
20
0.074265
30
0.0
11
-0.001715
21
0.074265
31
0.0
0
LINE
8
0
6
CONTINUOUS
10
-0.000655
20
0.074265
30
0.0
11
-0.000655
21
0.073929
31
0.0
0
LINE
8
0
6
CONTINUOUS
10
0.000655
20
0.074265
30
0.0
11
-0.000655
21
0.074265
31
0.0
0
LINE
8
0
6
CONTINUOUS
10
0.002120
20
0.073929
30
0.0
11
0.002120
21
0.074265
31
0.0
0
LINE
8
0
6
CONTINUOUS
10
0.002120
20
0.074265
30
0.0
11
0.001715
21
0.074265
31
0.0
0
LINE
8
0
6
CONTINUOUS
10
-0.001715
20
0.074265
30
0.0
11
-0.002120
21
0.074265
31
0.0
0
LINE
8
0
6
CONTINUOUS
10
-0.001715
20
0.073929
30
0.0
11
-0.001715
21
0.074265
31
0.0
0
LINE
8
0
6
CONTINUOUS
10
-0.002120
20
0.074265
30
0.0
11
-0.002120
21
0.073929
31
0.0
0
LINE
8
0
6
CONTINUOUS
10
0.001715
20
0.073929
30
0.0
11
0.001715
21
0.074265
31
0.0
0
LINE
8
0
6
CONTINUOUS
10
0.000655
20
0.074265
30
0.0
11
0.000655
21
0.073929
31
0.0
0
LINE
8
0
6
CONTINUOUS
10
0.001715
20
0.074265
30
0.0
11
0.000655
21
0.074265
31
0.0
0
LINE
8
0
6
CONTINUOUS
10
0.001715
20
0.056353
30
0.0
11
0.000655
21
0.055814
31
0.0
0
LINE
8
0
6
CONTINUOUS
10
-0.001715
20
0.056353
30
0.0
11
-0.002120
21
0.057225
31
0.0
0
LINE
8
0
6
CONTINUOUS
10
-0.002120
20
0.057225
30
0.0
11
-0.002111
21
0.057030
31
0.0
0
LINE
8
0
6
CONTINUOUS
10
0.002129
20
0.057030
30
0.0
11
0.002120
21
0.057225
31
0.0
0
LINE
8
0
6
CONTINUOUS
10
0.001715
20
0.056353
30
0.0
11
0.001724
21
0.056158
31
0.0
0
LINE
8
0
6
CONTINUOUS
10
0.000664
20
0.055619
30
0.0
11
0.000655
21
0.055814
31
0.0
0
LINE
8
0
6
CONTINUOUS
10
0.000655
20
0.055814
30
0.0
11
-0.000655
21
0.055814
31
0.0
0
LINE
8
0
6
CONTINUOUS
10
-0.000655
20
0.055814
30
0.0
11
-0.001715
21
0.056353
31
0.0
0
LINE
8
0
6
CONTINUOUS
10
-0.000646
20
0.055619
30
0.0
11
-0.000655
21
0.055814
31
0.0
0
LINE
8
0
6
CONTINUOUS
10
-0.001715
20
0.056353
30
0.0
11
-0.001706
21
0.056158
31
0.0
0
LINE
8
0
6
CONTINUOUS
10
-0.002120
20
0.073929
30
0.0
11
-0.002120
21
0.057695
31
0.0
0
LINE
8
0
6
CONTINUOUS
10
-0.001715
20
0.073929
30
0.0
11
-0.001715
21
0.056848
31
0.0
0
LINE
8
0
6
CONTINUOUS
10
0.002120
20
0.057695
30
0.0
11
0.002120
21
0.073929
31
0.0
0
LINE
8
0
6
CONTINUOUS
10
0.001715
20
0.073929
30
0.0
11
0.001715
21
0.056848
31
0.0
0
LINE
8
0
6
CONTINUOUS
10
0.000655
20
0.056324
30
0.0
11
0.000655
21
0.073929
31
0.0
0
LINE
8
0
6
CONTINUOUS
10
-0.000655
20
0.073929
30
0.0
11
-0.000655
21
0.056324
31
0.0
0
LINE
8
0
6
CONTINUOUS
10
-0.014422
20
0.023724
30
0.0
11
-0.012734
21
0.022043
31
0.0
0
LINE
8
0
6
CONTINUOUS
10
-0.015294
20
0.024794
30
0.0
11
-0.014984
21
0.024382
31
0.0
0
LINE
8
0
6
CONTINUOUS
10
0.014984
20
0.024382
30
0.0
11
0.015294
21
0.024794
31
0.0
0
LINE
8
0
6
CONTINUOUS
10
-0.015803
20
0.025471
30
0.0
11
-0.014747
21
0.024135
31
0.0
0
ENDSEC
0
EOF
