999
Erzeugt mit innoplus bad 
0
SECTION
2
HEADER
9
$ACADVER
1
AC1009
9
$DWGCODEPAGE
3
ISO8859-1
0
ENDSEC
0
SECTION
2
TABLES
0
TABLE
2
LAYER
70
1
0
LAYER
2
0
70
0
62
7
6
CONTINUOUS
0
ENDTAB
0
ENDSEC
0
SECTION
2
ENTITIES
0
LINE
8
0
6
CONTINUOUS
10
43.616325
20
57.217170
30
0.0
11
43.616325
21
55.012090
31
0.0
0
LINE
8
0
6
CONTINUOUS
10
43.616325
20
55.012090
30
0.0
11
43.616325
21
52.804970
31
0.0
0
LINE
8
0
6
CONTINUOUS
10
43.616325
20
52.804970
30
0.0
11
43.616325
21
50.931880
31
0.0
0
LINE
8
0
6
CONTINUOUS
10
43.616325
20
50.931880
30
0.0
11
43.616325
21
49.680810
31
0.0
0
LINE
8
0
6
CONTINUOUS
10
43.616325
20
49.241540
30
0.0
11
44.333905
21
48.051180
31
0.0
0
LINE
8
0
6
CONTINUOUS
10
43.616325
20
49.680810
30
0.0
11
43.616325
21
49.241540
31
0.0
0
LINE
8
0
6
CONTINUOUS
10
54.616325
20
60.773580
30
0.0
11
53.893485
21
61.954340
31
0.0
0
LINE
8
0
6
CONTINUOUS
10
54.616325
20
60.334950
30
0.0
11
54.616325
21
60.773580
31
0.0
0
LINE
8
0
6
CONTINUOUS
10
43.616325
20
59.086220
30
0.0
11
43.616325
21
57.217170
31
0.0
0
LINE
8
0
6
CONTINUOUS
10
45.616325
20
61.930570
30
0.0
11
45.616325
21
62.497940
31
0.0
0
LINE
8
0
6
CONTINUOUS
10
45.616325
20
62.497940
30
0.0
11
44.339165
21
61.954340
31
0.0
0
LINE
8
0
6
CONTINUOUS
10
43.616325
20
60.334950
30
0.0
11
43.616325
21
59.086220
31
0.0
0
LINE
8
0
6
CONTINUOUS
10
45.616325
20
60.307900
30
0.0
11
45.616325
21
57.879310
31
0.0
0
LINE
8
0
6
CONTINUOUS
10
52.616325
20
57.879310
30
0.0
11
52.616325
21
60.307900
31
0.0
0
LINE
8
0
6
CONTINUOUS
10
54.616325
20
55.012090
30
0.0
11
54.616325
21
57.217170
31
0.0
0
LINE
8
0
6
CONTINUOUS
10
54.616325
20
52.804970
30
0.0
11
54.616325
21
55.012090
31
0.0
0
LINE
8
0
6
CONTINUOUS
10
54.616325
20
50.931880
30
0.0
11
54.616325
21
52.804970
31
0.0
0
LINE
8
0
6
CONTINUOUS
10
54.616325
20
49.680810
30
0.0
11
54.616325
21
50.931880
31
0.0
0
LINE
8
0
6
CONTINUOUS
10
54.616325
20
49.241540
30
0.0
11
54.616325
21
49.680810
31
0.0
0
LINE
8
0
6
CONTINUOUS
10
53.898755
20
48.051180
30
0.0
11
54.616325
21
49.241540
31
0.0
0
LINE
8
0
6
CONTINUOUS
10
54.616325
20
57.217170
30
0.0
11
54.616325
21
59.086220
31
0.0
0
LINE
8
0
6
CONTINUOUS
10
52.616325
20
62.497940
30
0.0
11
52.616325
21
61.930570
31
0.0
0
LINE
8
0
6
CONTINUOUS
10
53.893485
20
61.954340
30
0.0
11
52.616325
21
62.497940
31
0.0
0
LINE
8
0
6
CONTINUOUS
10
53.894415
20
61.426310
30
0.0
11
53.893485
21
61.954340
31
0.0
0
LINE
8
0
6
CONTINUOUS
10
54.616325
20
59.086220
30
0.0
11
54.616325
21
60.334950
31
0.0
0
LINE
8
0
6
CONTINUOUS
10
45.616325
20
62.497940
30
0.0
11
45.616325
21
61.930570
31
0.0
0
LINE
8
0
6
CONTINUOUS
10
52.616325
20
62.497940
30
0.0
11
51.118135
21
62.497940
31
0.0
0
LINE
8
0
6
CONTINUOUS
10
46.626275
20
62.497940
30
0.0
11
45.616325
21
62.497940
31
0.0
0
LINE
8
0
6
CONTINUOUS
10
52.616325
20
61.930570
30
0.0
11
52.616325
21
62.497940
31
0.0
0
LINE
8
0
6
CONTINUOUS
10
45.616325
20
61.930570
30
0.0
11
45.616325
21
60.307900
31
0.0
0
LINE
8
0
6
CONTINUOUS
10
52.616325
20
61.930570
30
0.0
11
51.118135
21
61.930570
31
0.0
0
LINE
8
0
6
CONTINUOUS
10
46.626275
20
61.930570
30
0.0
11
45.616325
21
61.930570
31
0.0
0
LINE
8
0
6
CONTINUOUS
10
52.616325
20
60.307900
30
0.0
11
52.616325
21
61.930570
31
0.0
0
LINE
8
0
6
CONTINUOUS
10
45.615975
20
47.502700
30
0.0
11
46.626275
21
47.502700
31
0.0
0
LINE
8
0
6
CONTINUOUS
10
51.118135
20
47.502700
30
0.0
11
52.616675
21
47.502700
31
0.0
0
LINE
8
0
6
CONTINUOUS
10
45.616145
20
48.075890
30
0.0
11
45.615975
21
47.502700
31
0.0
0
LINE
8
0
6
CONTINUOUS
10
52.616675
20
47.502700
30
0.0
11
52.616505
21
48.075890
31
0.0
0
LINE
8
0
6
CONTINUOUS
10
45.616145
20
48.075890
30
0.0
11
46.626275
21
48.075890
31
0.0
0
LINE
8
0
6
CONTINUOUS
10
51.118135
20
48.075890
30
0.0
11
52.616505
21
48.075890
31
0.0
0
LINE
8
0
6
CONTINUOUS
10
45.616325
20
49.705370
30
0.0
11
45.616145
21
48.075890
31
0.0
0
LINE
8
0
6
CONTINUOUS
10
52.616505
20
48.075890
30
0.0
11
52.616325
21
49.705370
31
0.0
0
LINE
8
0
6
CONTINUOUS
10
45.616325
20
49.705370
30
0.0
11
46.626275
21
49.705370
31
0.0
0
LINE
8
0
6
CONTINUOUS
10
51.118135
20
49.705370
30
0.0
11
52.616325
21
49.705370
31
0.0
0
LINE
8
0
6
CONTINUOUS
10
45.616325
20
52.141560
30
0.0
11
45.616325
21
49.705370
31
0.0
0
LINE
8
0
6
CONTINUOUS
10
52.616325
20
49.705370
30
0.0
11
52.616325
21
52.141560
31
0.0
0
LINE
8
0
6
CONTINUOUS
10
45.616325
20
52.141560
30
0.0
11
46.626275
21
52.141560
31
0.0
0
LINE
8
0
6
CONTINUOUS
10
51.118135
20
52.141560
30
0.0
11
52.616325
21
52.141560
31
0.0
0
LINE
8
0
6
CONTINUOUS
10
45.616325
20
55.012090
30
0.0
11
45.616325
21
52.141560
31
0.0
0
LINE
8
0
6
CONTINUOUS
10
52.616325
20
52.141560
30
0.0
11
52.616325
21
55.012090
31
0.0
0
LINE
8
0
6
CONTINUOUS
10
45.616325
20
57.879310
30
0.0
11
45.616325
21
55.012090
31
0.0
0
LINE
8
0
6
CONTINUOUS
10
52.616325
20
55.012090
30
0.0
11
52.616325
21
57.879310
31
0.0
0
LINE
8
0
6
CONTINUOUS
10
44.338235
20
61.426310
30
0.0
11
44.337795
21
59.921190
31
0.0
0
LINE
8
0
6
CONTINUOUS
10
45.616325
20
60.307900
30
0.0
11
45.616325
21
61.930570
31
0.0
0
LINE
8
0
6
CONTINUOUS
10
44.333905
20
48.051180
30
0.0
11
45.615975
21
47.502700
31
0.0
0
LINE
8
0
6
CONTINUOUS
10
44.334435
20
48.582840
30
0.0
11
44.333905
21
48.051180
31
0.0
0
LINE
8
0
6
CONTINUOUS
10
45.615975
20
47.502700
30
0.0
11
45.616145
21
48.075890
31
0.0
0
LINE
8
0
6
CONTINUOUS
10
44.335375
20
50.092990
30
0.0
11
44.334435
21
48.582840
31
0.0
0
LINE
8
0
6
CONTINUOUS
10
45.616145
20
48.075890
30
0.0
11
45.616325
21
49.705370
31
0.0
0
LINE
8
0
6
CONTINUOUS
10
44.335735
20
52.351110
30
0.0
11
44.335375
21
50.092990
31
0.0
0
LINE
8
0
6
CONTINUOUS
10
45.616325
20
49.705370
30
0.0
11
45.616325
21
52.141560
31
0.0
0
LINE
8
0
6
CONTINUOUS
10
44.335755
20
55.011610
30
0.0
11
44.335735
21
52.351110
31
0.0
0
LINE
8
0
6
CONTINUOUS
10
45.616325
20
52.141560
30
0.0
11
45.616325
21
55.012090
31
0.0
0
LINE
8
0
6
CONTINUOUS
10
44.336835
20
57.669320
30
0.0
11
44.335755
21
55.011610
31
0.0
0
LINE
8
0
6
CONTINUOUS
10
45.616325
20
55.012090
30
0.0
11
45.616325
21
57.879310
31
0.0
0
LINE
8
0
6
CONTINUOUS
10
44.337795
20
59.921190
30
0.0
11
44.336835
21
57.669320
31
0.0
0
LINE
8
0
6
CONTINUOUS
10
45.616325
20
57.879310
30
0.0
11
45.616325
21
60.307900
31
0.0
0
LINE
8
0
6
CONTINUOUS
10
53.894855
20
59.921190
30
0.0
11
53.894415
21
61.426310
31
0.0
0
LINE
8
0
6
CONTINUOUS
10
52.616325
20
61.930570
30
0.0
11
52.616325
21
60.307900
31
0.0
0
LINE
8
0
6
CONTINUOUS
10
53.898755
20
48.051180
30
0.0
11
53.898215
21
48.582840
31
0.0
0
LINE
8
0
6
CONTINUOUS
10
52.616675
20
47.502700
30
0.0
11
53.898755
21
48.051180
31
0.0
0
LINE
8
0
6
CONTINUOUS
10
52.616505
20
48.075890
30
0.0
11
52.616675
21
47.502700
31
0.0
0
LINE
8
0
6
CONTINUOUS
10
53.898215
20
48.582840
30
0.0
11
53.897275
21
50.092990
31
0.0
0
LINE
8
0
6
CONTINUOUS
10
52.616325
20
49.705370
30
0.0
11
52.616505
21
48.075890
31
0.0
0
LINE
8
0
6
CONTINUOUS
10
53.897275
20
50.092990
30
0.0
11
53.896915
21
52.351110
31
0.0
0
LINE
8
0
6
CONTINUOUS
10
52.616325
20
52.141560
30
0.0
11
52.616325
21
49.705370
31
0.0
0
LINE
8
0
6
CONTINUOUS
10
53.896915
20
52.351110
30
0.0
11
53.896895
21
55.011610
31
0.0
0
LINE
8
0
6
CONTINUOUS
10
52.616325
20
55.012090
30
0.0
11
52.616325
21
52.141560
31
0.0
0
LINE
8
0
6
CONTINUOUS
10
53.896895
20
55.011610
30
0.0
11
53.895815
21
57.669320
31
0.0
0
LINE
8
0
6
CONTINUOUS
10
52.616325
20
57.879310
30
0.0
11
52.616325
21
55.012090
31
0.0
0
LINE
8
0
6
CONTINUOUS
10
53.895815
20
57.669320
30
0.0
11
53.894855
21
59.921190
31
0.0
0
LINE
8
0
6
CONTINUOUS
10
52.616325
20
60.307900
30
0.0
11
52.616325
21
57.879310
31
0.0
0
LINE
8
0
6
CONTINUOUS
10
44.338235
20
61.426310
30
0.0
11
44.339165
21
61.954340
31
0.0
0
LINE
8
0
6
CONTINUOUS
10
43.616325
20
60.773580
30
0.0
11
43.616325
21
60.334950
31
0.0
0
LINE
8
0
6
CONTINUOUS
10
44.339165
20
61.954340
30
0.0
11
43.616325
21
60.773580
31
0.0
0
LINE
8
0
6
CONTINUOUS
10
52.616325
20
62.497940
30
0.0
11
51.118135
21
62.497940
31
0.0
0
LINE
8
0
6
CONTINUOUS
10
43.616325
20
-55.012110
30
0.0
11
43.616325
21
-57.217190
31
0.0
0
LINE
8
0
6
CONTINUOUS
10
43.616325
20
-52.804990
30
0.0
11
43.616325
21
-55.012110
31
0.0
0
LINE
8
0
6
CONTINUOUS
10
43.616325
20
-50.931900
30
0.0
11
43.616325
21
-52.804990
31
0.0
0
LINE
8
0
6
CONTINUOUS
10
43.616325
20
-49.680830
30
0.0
11
43.616325
21
-50.931900
31
0.0
0
LINE
8
0
6
CONTINUOUS
10
43.616325
20
-49.241560
30
0.0
11
43.616325
21
-49.680830
31
0.0
0
LINE
8
0
6
CONTINUOUS
10
44.333905
20
-48.051200
30
0.0
11
43.616325
21
-49.241560
31
0.0
0
LINE
8
0
6
CONTINUOUS
10
53.893485
20
-61.954360
30
0.0
11
54.616325
21
-60.773600
31
0.0
0
LINE
8
0
6
CONTINUOUS
10
54.616325
20
-60.773600
30
0.0
11
54.616325
21
-60.334970
31
0.0
0
LINE
8
0
6
CONTINUOUS
10
43.616325
20
-57.217190
30
0.0
11
43.616325
21
-59.086240
31
0.0
0
LINE
8
0
6
CONTINUOUS
10
45.616325
20
-62.497960
30
0.0
11
45.616325
21
-61.930590
31
0.0
0
LINE
8
0
6
CONTINUOUS
10
44.339165
20
-61.954360
30
0.0
11
45.616325
21
-62.497960
31
0.0
0
LINE
8
0
6
CONTINUOUS
10
43.616325
20
-59.086240
30
0.0
11
43.616325
21
-60.334970
31
0.0
0
LINE
8
0
6
CONTINUOUS
10
45.616325
20
-57.879330
30
0.0
11
45.616325
21
-60.307920
31
0.0
0
LINE
8
0
6
CONTINUOUS
10
52.616325
20
-60.307920
30
0.0
11
52.616325
21
-57.879330
31
0.0
0
LINE
8
0
6
CONTINUOUS
10
54.616325
20
-57.217190
30
0.0
11
54.616325
21
-55.012110
31
0.0
0
LINE
8
0
6
CONTINUOUS
10
54.616325
20
-55.012110
30
0.0
11
54.616325
21
-52.804990
31
0.0
0
LINE
8
0
6
CONTINUOUS
10
54.616325
20
-52.804990
30
0.0
11
54.616325
21
-50.931900
31
0.0
0
LINE
8
0
6
CONTINUOUS
10
54.616325
20
-50.931900
30
0.0
11
54.616325
21
-49.680830
31
0.0
0
LINE
8
0
6
CONTINUOUS
10
54.616325
20
-49.241560
30
0.0
11
53.898755
21
-48.051200
31
0.0
0
LINE
8
0
6
CONTINUOUS
10
54.616325
20
-49.680830
30
0.0
11
54.616325
21
-49.241560
31
0.0
0
LINE
8
0
6
CONTINUOUS
10
54.616325
20
-59.086240
30
0.0
11
54.616325
21
-57.217190
31
0.0
0
LINE
8
0
6
CONTINUOUS
10
52.616325
20
-61.930590
30
0.0
11
52.616325
21
-62.497960
31
0.0
0
LINE
8
0
6
CONTINUOUS
10
53.893485
20
-61.954360
30
0.0
11
53.894415
21
-61.426330
31
0.0
0
LINE
8
0
6
CONTINUOUS
10
52.616325
20
-62.497960
30
0.0
11
53.893485
21
-61.954360
31
0.0
0
LINE
8
0
6
CONTINUOUS
10
54.616325
20
-60.334970
30
0.0
11
54.616325
21
-59.086240
31
0.0
0
LINE
8
0
6
CONTINUOUS
10
45.616325
20
-61.930590
30
0.0
11
45.616325
21
-62.497960
31
0.0
0
LINE
8
0
6
CONTINUOUS
10
52.616325
20
-62.497960
30
0.0
11
52.616325
21
-61.930590
31
0.0
0
LINE
8
0
6
CONTINUOUS
10
45.616325
20
-62.497960
30
0.0
11
46.626275
21
-62.497960
31
0.0
0
LINE
8
0
6
CONTINUOUS
10
51.118135
20
-62.497960
30
0.0
11
52.616325
21
-62.497960
31
0.0
0
LINE
8
0
6
CONTINUOUS
10
45.616325
20
-60.307920
30
0.0
11
45.616325
21
-61.930590
31
0.0
0
LINE
8
0
6
CONTINUOUS
10
52.616325
20
-61.930590
30
0.0
11
52.616325
21
-60.307920
31
0.0
0
LINE
8
0
6
CONTINUOUS
10
45.616325
20
-61.930590
30
0.0
11
46.626275
21
-61.930590
31
0.0
0
LINE
8
0
6
CONTINUOUS
10
51.118135
20
-61.930590
30
0.0
11
52.616325
21
-61.930590
31
0.0
0
LINE
8
0
6
CONTINUOUS
10
45.615975
20
-47.502720
30
0.0
11
45.616145
21
-48.075910
31
0.0
0
LINE
8
0
6
CONTINUOUS
10
52.616675
20
-47.502720
30
0.0
11
51.118135
21
-47.502720
31
0.0
0
LINE
8
0
6
CONTINUOUS
10
46.626275
20
-47.502720
30
0.0
11
45.615975
21
-47.502720
31
0.0
0
LINE
8
0
6
CONTINUOUS
10
52.616505
20
-48.075910
30
0.0
11
52.616675
21
-47.502720
31
0.0
0
LINE
8
0
6
CONTINUOUS
10
45.616145
20
-48.075910
30
0.0
11
45.616325
21
-49.705390
31
0.0
0
LINE
8
0
6
CONTINUOUS
10
52.616505
20
-48.075910
30
0.0
11
51.118135
21
-48.075910
31
0.0
0
LINE
8
0
6
CONTINUOUS
10
46.626275
20
-48.075910
30
0.0
11
45.616145
21
-48.075910
31
0.0
0
LINE
8
0
6
CONTINUOUS
10
52.616325
20
-49.705390
30
0.0
11
52.616505
21
-48.075910
31
0.0
0
LINE
8
0
6
CONTINUOUS
10
45.616325
20
-49.705390
30
0.0
11
45.616325
21
-52.141580
31
0.0
0
LINE
8
0
6
CONTINUOUS
10
52.616325
20
-49.705390
30
0.0
11
51.118135
21
-49.705390
31
0.0
0
LINE
8
0
6
CONTINUOUS
10
46.626275
20
-49.705390
30
0.0
11
45.616325
21
-49.705390
31
0.0
0
LINE
8
0
6
CONTINUOUS
10
52.616325
20
-52.141580
30
0.0
11
52.616325
21
-49.705390
31
0.0
0
LINE
8
0
6
CONTINUOUS
10
45.616325
20
-52.141580
30
0.0
11
45.616325
21
-55.012110
31
0.0
0
LINE
8
0
6
CONTINUOUS
10
52.616325
20
-52.141580
30
0.0
11
51.118135
21
-52.141580
31
0.0
0
LINE
8
0
6
CONTINUOUS
10
46.626275
20
-52.141580
30
0.0
11
45.616325
21
-52.141580
31
0.0
0
LINE
8
0
6
CONTINUOUS
10
52.616325
20
-55.012110
30
0.0
11
52.616325
21
-52.141580
31
0.0
0
LINE
8
0
6
CONTINUOUS
10
45.616325
20
-55.012110
30
0.0
11
45.616325
21
-57.879330
31
0.0
0
LINE
8
0
6
CONTINUOUS
10
52.616325
20
-57.879330
30
0.0
11
52.616325
21
-55.012110
31
0.0
0
LINE
8
0
6
CONTINUOUS
10
44.337795
20
-59.921210
30
0.0
11
44.338235
21
-61.426330
31
0.0
0
LINE
8
0
6
CONTINUOUS
10
45.616325
20
-61.930590
30
0.0
11
45.616325
21
-60.307920
31
0.0
0
LINE
8
0
6
CONTINUOUS
10
44.333905
20
-48.051200
30
0.0
11
44.334435
21
-48.582860
31
0.0
0
LINE
8
0
6
CONTINUOUS
10
45.615975
20
-47.502720
30
0.0
11
44.333905
21
-48.051200
31
0.0
0
LINE
8
0
6
CONTINUOUS
10
45.616145
20
-48.075910
30
0.0
11
45.615975
21
-47.502720
31
0.0
0
LINE
8
0
6
CONTINUOUS
10
44.334435
20
-48.582860
30
0.0
11
44.335375
21
-50.093010
31
0.0
0
LINE
8
0
6
CONTINUOUS
10
45.616325
20
-49.705390
30
0.0
11
45.616145
21
-48.075910
31
0.0
0
LINE
8
0
6
CONTINUOUS
10
44.335375
20
-50.093010
30
0.0
11
44.335735
21
-52.351130
31
0.0
0
LINE
8
0
6
CONTINUOUS
10
45.616325
20
-52.141580
30
0.0
11
45.616325
21
-49.705390
31
0.0
0
LINE
8
0
6
CONTINUOUS
10
44.335735
20
-52.351130
30
0.0
11
44.335755
21
-55.011630
31
0.0
0
LINE
8
0
6
CONTINUOUS
10
45.616325
20
-55.012110
30
0.0
11
45.616325
21
-52.141580
31
0.0
0
LINE
8
0
6
CONTINUOUS
10
44.335755
20
-55.011630
30
0.0
11
44.336835
21
-57.669340
31
0.0
0
LINE
8
0
6
CONTINUOUS
10
45.616325
20
-57.879330
30
0.0
11
45.616325
21
-55.012110
31
0.0
0
LINE
8
0
6
CONTINUOUS
10
44.336835
20
-57.669340
30
0.0
11
44.337795
21
-59.921210
31
0.0
0
LINE
8
0
6
CONTINUOUS
10
45.616325
20
-60.307920
30
0.0
11
45.616325
21
-57.879330
31
0.0
0
LINE
8
0
6
CONTINUOUS
10
53.894415
20
-61.426330
30
0.0
11
53.894855
21
-59.921210
31
0.0
0
LINE
8
0
6
CONTINUOUS
10
52.616325
20
-60.307920
30
0.0
11
52.616325
21
-61.930590
31
0.0
0
LINE
8
0
6
CONTINUOUS
10
53.898215
20
-48.582860
30
0.0
11
53.898755
21
-48.051200
31
0.0
0
LINE
8
0
6
CONTINUOUS
10
52.616675
20
-47.502720
30
0.0
11
52.616505
21
-48.075910
31
0.0
0
LINE
8
0
6
CONTINUOUS
10
53.898755
20
-48.051200
30
0.0
11
52.616675
21
-47.502720
31
0.0
0
LINE
8
0
6
CONTINUOUS
10
53.897275
20
-50.093010
30
0.0
11
53.898215
21
-48.582860
31
0.0
0
LINE
8
0
6
CONTINUOUS
10
52.616505
20
-48.075910
30
0.0
11
52.616325
21
-49.705390
31
0.0
0
LINE
8
0
6
CONTINUOUS
10
53.896915
20
-52.351130
30
0.0
11
53.897275
21
-50.093010
31
0.0
0
LINE
8
0
6
CONTINUOUS
10
52.616325
20
-49.705390
30
0.0
11
52.616325
21
-52.141580
31
0.0
0
LINE
8
0
6
CONTINUOUS
10
53.896895
20
-55.011630
30
0.0
11
53.896915
21
-52.351130
31
0.0
0
LINE
8
0
6
CONTINUOUS
10
52.616325
20
-52.141580
30
0.0
11
52.616325
21
-55.012110
31
0.0
0
LINE
8
0
6
CONTINUOUS
10
53.895815
20
-57.669340
30
0.0
11
53.896895
21
-55.011630
31
0.0
0
LINE
8
0
6
CONTINUOUS
10
52.616325
20
-55.012110
30
0.0
11
52.616325
21
-57.879330
31
0.0
0
LINE
8
0
6
CONTINUOUS
10
53.894855
20
-59.921210
30
0.0
11
53.895815
21
-57.669340
31
0.0
0
LINE
8
0
6
CONTINUOUS
10
52.616325
20
-57.879330
30
0.0
11
52.616325
21
-60.307920
31
0.0
0
LINE
8
0
6
CONTINUOUS
10
44.339165
20
-61.954360
30
0.0
11
44.338235
21
-61.426330
31
0.0
0
LINE
8
0
6
CONTINUOUS
10
43.616325
20
-60.773600
30
0.0
11
44.339165
21
-61.954360
31
0.0
0
LINE
8
0
6
CONTINUOUS
10
43.616325
20
-60.334970
30
0.0
11
43.616325
21
-60.773600
31
0.0
0
LINE
8
0
6
CONTINUOUS
10
25.139155
20
42.663470
30
0.0
11
25.118135
21
36.749500
31
0.0
0
LINE
8
0
6
CONTINUOUS
10
46.626285
20
63.977750
30
0.0
11
25.383655
21
63.977750
31
0.0
0
LINE
8
0
6
CONTINUOUS
10
25.118135
20
36.749500
30
0.0
11
25.118135
21
-0.000010
31
0.0
0
LINE
8
0
6
CONTINUOUS
10
25.165185
20
48.369650
30
0.0
11
25.139155
21
42.663470
31
0.0
0
LINE
8
0
6
CONTINUOUS
10
25.139155
20
42.663470
30
0.0
11
25.165185
21
48.369650
31
0.0
0
LINE
8
0
6
CONTINUOUS
10
26.555325
20
64.257780
30
0.0
11
29.437135
21
64.257780
31
0.0
0
LINE
8
0
6
CONTINUOUS
10
29.437135
20
84.999980
30
0.0
11
26.555325
21
84.999980
31
0.0
0
LINE
8
0
6
CONTINUOUS
10
33.750095
20
64.257780
30
0.0
11
38.837555
21
64.257780
31
0.0
0
LINE
8
0
6
CONTINUOUS
10
38.837555
20
84.999980
30
0.0
11
33.750095
21
84.999980
31
0.0
0
LINE
8
0
6
CONTINUOUS
10
30.094095
20
84.999980
30
0.0
11
29.373695
21
84.999980
31
0.0
0
LINE
8
0
6
CONTINUOUS
10
32.145595
20
84.999980
30
0.0
11
30.094095
21
84.999980
31
0.0
0
LINE
8
0
6
CONTINUOUS
10
38.837545
20
84.999980
30
0.0
11
35.215895
21
84.999980
31
0.0
0
LINE
8
0
6
CONTINUOUS
10
43.905075
20
64.257800
30
0.0
11
46.626275
21
64.257810
31
0.0
0
LINE
8
0
6
CONTINUOUS
10
46.626275
20
85.000010
30
0.0
11
43.905075
21
85.000000
31
0.0
0
LINE
8
0
6
CONTINUOUS
10
33.750095
20
64.257780
30
0.0
11
33.750095
21
84.999980
31
0.0
0
LINE
8
0
6
CONTINUOUS
10
29.437135
20
64.257780
30
0.0
11
33.750095
21
64.257780
31
0.0
0
LINE
8
0
6
CONTINUOUS
10
33.750095
20
84.999980
30
0.0
11
29.437135
21
84.999980
31
0.0
0
LINE
8
0
6
CONTINUOUS
10
35.215895
20
84.999980
30
0.0
11
32.145595
21
84.999980
31
0.0
0
LINE
8
0
6
CONTINUOUS
10
32.145585
20
13.295790
30
0.0
11
30.094085
21
16.371660
31
0.0
0
LINE
8
0
6
CONTINUOUS
10
26.555315
20
14.903190
30
0.0
11
29.437125
21
10.582420
31
0.0
0
LINE
8
0
6
CONTINUOUS
10
46.626275
20
59.916490
30
0.0
11
46.626275
21
55.087640
31
0.0
0
LINE
8
0
6
CONTINUOUS
10
51.118135
20
55.087640
30
0.0
11
51.118135
21
59.916530
31
0.0
0
LINE
8
0
6
CONTINUOUS
10
46.626275
20
85.000010
30
0.0
11
46.626275
21
82.889680
31
0.0
0
LINE
8
0
6
CONTINUOUS
10
51.118135
20
85.000010
30
0.0
11
46.626275
21
85.000010
31
0.0
0
LINE
8
0
6
CONTINUOUS
10
51.118135
20
82.890000
30
0.0
11
51.118135
21
85.000010
31
0.0
0
LINE
8
0
6
CONTINUOUS
10
46.626275
20
82.889680
30
0.0
11
46.626275
21
80.260600
31
0.0
0
LINE
8
0
6
CONTINUOUS
10
51.118135
20
80.260770
30
0.0
11
51.118135
21
82.890000
31
0.0
0
LINE
8
0
6
CONTINUOUS
10
51.118125
20
5.791460
30
0.0
11
51.118125
21
-0.000010
31
0.0
0
LINE
8
0
6
CONTINUOUS
10
46.626275
20
80.260600
30
0.0
11
46.626275
21
76.999830
31
0.0
0
LINE
8
0
6
CONTINUOUS
10
51.118135
20
77.000090
30
0.0
11
51.118135
21
80.260770
31
0.0
0
LINE
8
0
6
CONTINUOUS
10
47.580995
20
16.371650
30
0.0
11
45.529495
21
13.295790
31
0.0
0
LINE
8
0
6
CONTINUOUS
10
45.529495
20
13.295790
30
0.0
11
42.459195
21
11.240570
31
0.0
0
LINE
8
0
6
CONTINUOUS
10
42.459195
20
11.240570
30
0.0
11
38.837535
21
10.518870
31
0.0
0
LINE
8
0
6
CONTINUOUS
10
38.837535
20
10.518870
30
0.0
11
35.215875
21
11.240570
31
0.0
0
LINE
8
0
6
CONTINUOUS
10
33.750075
20
7.695380
30
0.0
11
38.837545
21
6.681580
31
0.0
0
LINE
8
0
6
CONTINUOUS
10
47.580995
20
23.628100
30
0.0
11
48.301385
21
19.999880
31
0.0
0
LINE
8
0
6
CONTINUOUS
10
51.118125
20
19.999880
30
0.0
11
51.118125
21
34.208270
31
0.0
0
LINE
8
0
6
CONTINUOUS
10
51.118125
20
34.208290
30
0.0
11
46.626275
21
34.208290
31
0.0
0
LINE
8
0
6
CONTINUOUS
10
45.529495
20
26.703960
30
0.0
11
47.580995
21
23.628100
31
0.0
0
LINE
8
0
6
CONTINUOUS
10
42.459195
20
28.759180
30
0.0
11
45.529495
21
26.703960
31
0.0
0
LINE
8
0
6
CONTINUOUS
10
46.626265
20
34.208290
30
0.0
11
43.905065
21
33.897300
31
0.0
0
LINE
8
0
6
CONTINUOUS
10
38.837545
20
6.681580
30
0.0
11
38.837545
21
-0.000010
31
0.0
0
LINE
8
0
6
CONTINUOUS
10
51.118125
20
-0.000010
30
0.0
11
51.118125
21
5.791460
31
0.0
0
LINE
8
0
6
CONTINUOUS
10
51.118125
20
5.791460
30
0.0
11
51.118125
21
19.999880
31
0.0
0
LINE
8
0
6
CONTINUOUS
10
48.301385
20
19.999880
30
0.0
11
47.580995
21
16.371650
31
0.0
0
LINE
8
0
6
CONTINUOUS
10
38.837535
20
29.480890
30
0.0
11
42.459195
21
28.759180
31
0.0
0
LINE
8
0
6
CONTINUOUS
10
43.905065
20
33.897300
30
0.0
11
38.837545
21
33.318170
31
0.0
0
LINE
8
0
6
CONTINUOUS
10
35.215875
20
28.759180
30
0.0
11
38.837535
21
29.480890
31
0.0
0
LINE
8
0
6
CONTINUOUS
10
38.837545
20
33.318170
30
0.0
11
33.750075
21
32.304370
31
0.0
0
LINE
8
0
6
CONTINUOUS
10
32.145585
20
26.703960
30
0.0
11
35.215875
21
28.759180
31
0.0
0
LINE
8
0
6
CONTINUOUS
10
33.750075
20
32.304370
30
0.0
11
29.437125
21
29.417330
31
0.0
0
LINE
8
0
6
CONTINUOUS
10
30.094085
20
23.628100
30
0.0
11
32.145585
21
26.703960
31
0.0
0
LINE
8
0
6
CONTINUOUS
10
29.437125
20
29.417330
30
0.0
11
26.555315
21
25.096570
31
0.0
0
LINE
8
0
6
CONTINUOUS
10
29.373685
20
19.999880
30
0.0
11
30.094085
21
23.628100
31
0.0
0
LINE
8
0
6
CONTINUOUS
10
26.555315
20
25.096570
30
0.0
11
25.543355
21
19.999880
31
0.0
0
LINE
8
0
6
CONTINUOUS
10
30.094085
20
16.371660
30
0.0
11
29.373685
21
19.999880
31
0.0
0
LINE
8
0
6
CONTINUOUS
10
25.543355
20
19.999880
30
0.0
11
26.555315
21
14.903190
31
0.0
0
LINE
8
0
6
CONTINUOUS
10
35.215875
20
11.240570
30
0.0
11
32.145585
21
13.295790
31
0.0
0
LINE
8
0
6
CONTINUOUS
10
29.437125
20
10.582420
30
0.0
11
33.750075
21
7.695380
31
0.0
0
LINE
8
0
6
CONTINUOUS
10
46.626275
20
76.999830
30
0.0
11
46.626275
21
73.240140
31
0.0
0
LINE
8
0
6
CONTINUOUS
10
51.118135
20
73.240230
30
0.0
11
51.118135
21
77.000090
31
0.0
0
LINE
8
0
6
CONTINUOUS
10
46.626275
20
73.240140
30
0.0
11
46.626275
21
69.095130
31
0.0
0
LINE
8
0
6
CONTINUOUS
10
51.118135
20
69.095210
30
0.0
11
51.118135
21
73.240230
31
0.0
0
LINE
8
0
6
CONTINUOUS
10
32.145585
20
26.703960
30
0.0
11
30.094085
21
23.628100
31
0.0
0
LINE
8
0
6
CONTINUOUS
10
35.215875
20
28.759180
30
0.0
11
32.145585
21
26.703960
31
0.0
0
LINE
8
0
6
CONTINUOUS
10
46.626275
20
69.095130
30
0.0
11
46.626275
21
64.634750
31
0.0
0
LINE
8
0
6
CONTINUOUS
10
51.118135
20
64.635020
30
0.0
11
51.118135
21
69.095210
31
0.0
0
LINE
8
0
6
CONTINUOUS
10
46.626275
20
64.634750
30
0.0
11
46.626275
21
59.916490
31
0.0
0
LINE
8
0
6
CONTINUOUS
10
51.118135
20
59.916530
30
0.0
11
51.118135
21
64.635020
31
0.0
0
LINE
8
0
6
CONTINUOUS
10
33.750075
20
7.695380
30
0.0
11
29.437137
21
10.582412
31
0.0
0
LINE
8
0
6
CONTINUOUS
10
38.837545
20
6.681580
30
0.0
11
33.750075
21
7.695380
31
0.0
0
LINE
8
0
6
CONTINUOUS
10
46.626275
20
55.087640
30
0.0
11
46.626275
21
34.208290
31
0.0
0
LINE
8
0
6
CONTINUOUS
10
51.118135
20
34.208270
30
0.0
11
51.118135
21
55.087640
31
0.0
0
LINE
8
0
6
CONTINUOUS
10
51.118135
20
85.000010
30
0.0
11
46.626275
21
85.000010
31
0.0
0
LINE
8
0
6
CONTINUOUS
10
25.543365
20
64.257780
30
0.0
11
26.555325
21
64.257780
31
0.0
0
LINE
8
0
6
CONTINUOUS
10
25.543365
20
84.999980
30
0.0
11
25.543365
21
64.257780
31
0.0
0
LINE
8
0
6
CONTINUOUS
10
26.555325
20
84.999980
30
0.0
11
25.543365
21
84.999980
31
0.0
0
LINE
8
0
6
CONTINUOUS
10
38.837555
20
64.257780
30
0.0
11
43.905075
21
64.257800
31
0.0
0
LINE
8
0
6
CONTINUOUS
10
43.905075
20
85.000000
30
0.0
11
38.837555
21
84.999980
31
0.0
0
LINE
8
0
6
CONTINUOUS
10
51.118125
20
19.999880
30
0.0
11
51.118125
21
5.791460
31
0.0
0
LINE
8
0
6
CONTINUOUS
10
51.118125
20
34.208290
30
0.0
11
51.118125
21
19.999880
31
0.0
0
LINE
8
0
6
CONTINUOUS
10
25.118135
20
-36.749520
30
0.0
11
25.139155
21
-42.663490
31
0.0
0
LINE
8
0
6
CONTINUOUS
10
25.383655
20
-63.977770
30
0.0
11
46.626275
21
-63.977770
31
0.0
0
LINE
8
0
6
CONTINUOUS
10
25.165185
20
-48.369670
30
0.0
11
25.171111
21
-50.480925
31
0.0
0
LINE
8
0
6
CONTINUOUS
10
25.118135
20
-0.000010
30
0.0
11
25.118135
21
-36.749520
31
0.0
0
LINE
8
0
6
CONTINUOUS
10
25.139155
20
-42.663490
30
0.0
11
25.165185
21
-48.369670
31
0.0
0
LINE
8
0
6
CONTINUOUS
10
25.165185
20
-48.369670
30
0.0
11
25.139155
21
-42.663490
31
0.0
0
LINE
8
0
6
CONTINUOUS
10
25.171111
20
-50.480925
30
0.0
11
25.165185
21
-48.369670
31
0.0
0
LINE
8
0
6
CONTINUOUS
10
26.555325
20
-85.000000
30
0.0
11
29.437135
21
-85.000000
31
0.0
0
LINE
8
0
6
CONTINUOUS
10
29.437135
20
-64.257800
30
0.0
11
26.555325
21
-64.257800
31
0.0
0
LINE
8
0
6
CONTINUOUS
10
33.750095
20
-85.000000
30
0.0
11
38.837555
21
-85.000000
31
0.0
0
LINE
8
0
6
CONTINUOUS
10
38.837555
20
-64.257800
30
0.0
11
33.750095
21
-64.257800
31
0.0
0
LINE
8
0
6
CONTINUOUS
10
43.905075
20
-85.000020
30
0.0
11
46.626275
21
-85.000030
31
0.0
0
LINE
8
0
6
CONTINUOUS
10
46.626275
20
-64.257830
30
0.0
11
43.905075
21
-64.257820
31
0.0
0
LINE
8
0
6
CONTINUOUS
10
29.437135
20
-85.000000
30
0.0
11
33.750095
21
-85.000000
31
0.0
0
LINE
8
0
6
CONTINUOUS
10
33.750095
20
-64.257800
30
0.0
11
29.437135
21
-64.257800
31
0.0
0
LINE
8
0
6
CONTINUOUS
10
33.750095
20
-85.000000
30
0.0
11
33.750095
21
-64.257800
31
0.0
0
LINE
8
0
6
CONTINUOUS
10
29.437125
20
-10.582440
30
0.0
11
26.555315
21
-14.903210
31
0.0
0
LINE
8
0
6
CONTINUOUS
10
30.094085
20
-16.371680
30
0.0
11
32.145585
21
-13.295810
31
0.0
0
LINE
8
0
6
CONTINUOUS
10
51.118135
20
-59.916550
30
0.0
11
51.118135
21
-55.087660
31
0.0
0
LINE
8
0
6
CONTINUOUS
10
46.626275
20
-55.087660
30
0.0
11
46.626275
21
-59.916510
31
0.0
0
LINE
8
0
6
CONTINUOUS
10
51.118135
20
-85.000030
30
0.0
11
51.118135
21
-82.890020
31
0.0
0
LINE
8
0
6
CONTINUOUS
10
46.626275
20
-85.000030
30
0.0
11
51.118135
21
-85.000030
31
0.0
0
LINE
8
0
6
CONTINUOUS
10
46.626275
20
-82.889700
30
0.0
11
46.626275
21
-85.000030
31
0.0
0
LINE
8
0
6
CONTINUOUS
10
51.118135
20
-82.890020
30
0.0
11
51.118135
21
-80.260790
31
0.0
0
LINE
8
0
6
CONTINUOUS
10
46.626275
20
-80.260620
30
0.0
11
46.626275
21
-82.889700
31
0.0
0
LINE
8
0
6
CONTINUOUS
10
51.118125
20
-0.000010
30
0.0
11
51.118125
21
-5.791480
31
0.0
0
LINE
8
0
6
CONTINUOUS
10
51.118135
20
-80.260790
30
0.0
11
51.118135
21
-77.000110
31
0.0
0
LINE
8
0
6
CONTINUOUS
10
46.626275
20
-76.999850
30
0.0
11
46.626275
21
-80.260620
31
0.0
0
LINE
8
0
6
CONTINUOUS
10
45.529495
20
-13.295810
30
0.0
11
47.580995
21
-16.371670
31
0.0
0
LINE
8
0
6
CONTINUOUS
10
42.459195
20
-11.240590
30
0.0
11
45.529495
21
-13.295810
31
0.0
0
LINE
8
0
6
CONTINUOUS
10
38.837535
20
-10.518890
30
0.0
11
42.459195
21
-11.240590
31
0.0
0
LINE
8
0
6
CONTINUOUS
10
38.837545
20
-6.681600
30
0.0
11
33.750075
21
-7.695400
31
0.0
0
LINE
8
0
6
CONTINUOUS
10
35.215875
20
-11.240590
30
0.0
11
38.837535
21
-10.518890
31
0.0
0
LINE
8
0
6
CONTINUOUS
10
51.118125
20
-34.208310
30
0.0
11
51.118125
21
-19.999900
31
0.0
0
LINE
8
0
6
CONTINUOUS
10
48.301385
20
-19.999900
30
0.0
11
47.580995
21
-23.628120
31
0.0
0
LINE
8
0
6
CONTINUOUS
10
47.580995
20
-23.628120
30
0.0
11
45.529495
21
-26.703980
31
0.0
0
LINE
8
0
6
CONTINUOUS
10
46.626265
20
-34.208310
30
0.0
11
51.118125
21
-34.208310
31
0.0
0
LINE
8
0
6
CONTINUOUS
10
43.905065
20
-33.897320
30
0.0
11
46.626265
21
-34.208310
31
0.0
0
LINE
8
0
6
CONTINUOUS
10
45.529495
20
-26.703980
30
0.0
11
42.459195
21
-28.759200
31
0.0
0
LINE
8
0
6
CONTINUOUS
10
38.837545
20
-0.000010
30
0.0
11
38.837545
21
-6.681582
31
0.0
0
LINE
8
0
6
CONTINUOUS
10
51.118125
20
-5.791480
30
0.0
11
51.118125
21
-0.000010
31
0.0
0
LINE
8
0
6
CONTINUOUS
10
47.580995
20
-16.371670
30
0.0
11
48.301385
21
-19.999900
31
0.0
0
LINE
8
0
6
CONTINUOUS
10
51.118125
20
-19.999900
30
0.0
11
51.118125
21
-5.791480
31
0.0
0
LINE
8
0
6
CONTINUOUS
10
38.837545
20
-33.318190
30
0.0
11
43.905065
21
-33.897320
31
0.0
0
LINE
8
0
6
CONTINUOUS
10
42.459195
20
-28.759200
30
0.0
11
38.837535
21
-29.480910
31
0.0
0
LINE
8
0
6
CONTINUOUS
10
33.750075
20
-32.304390
30
0.0
11
38.837545
21
-33.318190
31
0.0
0
LINE
8
0
6
CONTINUOUS
10
38.837535
20
-29.480910
30
0.0
11
35.215875
21
-28.759200
31
0.0
0
LINE
8
0
6
CONTINUOUS
10
29.437125
20
-29.417350
30
0.0
11
33.750075
21
-32.304390
31
0.0
0
LINE
8
0
6
CONTINUOUS
10
35.215875
20
-28.759200
30
0.0
11
32.145585
21
-26.703980
31
0.0
0
LINE
8
0
6
CONTINUOUS
10
26.555315
20
-25.096590
30
0.0
11
29.437125
21
-29.417350
31
0.0
0
LINE
8
0
6
CONTINUOUS
10
32.145585
20
-26.703980
30
0.0
11
30.094085
21
-23.628120
31
0.0
0
LINE
8
0
6
CONTINUOUS
10
25.543355
20
-19.999900
30
0.0
11
26.555315
21
-25.096590
31
0.0
0
LINE
8
0
6
CONTINUOUS
10
30.094085
20
-23.628120
30
0.0
11
29.373685
21
-19.999900
31
0.0
0
LINE
8
0
6
CONTINUOUS
10
26.555315
20
-14.903210
30
0.0
11
25.543355
21
-19.999900
31
0.0
0
LINE
8
0
6
CONTINUOUS
10
29.373685
20
-19.999900
30
0.0
11
30.094085
21
-16.371680
31
0.0
0
LINE
8
0
6
CONTINUOUS
10
33.750075
20
-7.695400
30
0.0
11
29.437137
21
-10.582432
31
0.0
0
LINE
8
0
6
CONTINUOUS
10
32.145585
20
-13.295810
30
0.0
11
35.215875
21
-11.240590
31
0.0
0
LINE
8
0
6
CONTINUOUS
10
51.118135
20
-77.000110
30
0.0
11
51.118135
21
-73.240250
31
0.0
0
LINE
8
0
6
CONTINUOUS
10
46.626275
20
-73.240160
30
0.0
11
46.626275
21
-76.999850
31
0.0
0
LINE
8
0
6
CONTINUOUS
10
51.118135
20
-73.240250
30
0.0
11
51.118135
21
-69.095230
31
0.0
0
LINE
8
0
6
CONTINUOUS
10
46.626275
20
-69.095150
30
0.0
11
46.626275
21
-73.240160
31
0.0
0
LINE
8
0
6
CONTINUOUS
10
30.094085
20
-23.628120
30
0.0
11
32.145585
21
-26.703980
31
0.0
0
LINE
8
0
6
CONTINUOUS
10
32.145585
20
-26.703980
30
0.0
11
35.215875
21
-28.759200
31
0.0
0
LINE
8
0
6
CONTINUOUS
10
51.118135
20
-69.095230
30
0.0
11
51.118135
21
-64.635040
31
0.0
0
LINE
8
0
6
CONTINUOUS
10
46.626275
20
-64.634770
30
0.0
11
46.626275
21
-69.095150
31
0.0
0
LINE
8
0
6
CONTINUOUS
10
51.118135
20
-64.635040
30
0.0
11
51.118135
21
-59.916550
31
0.0
0
LINE
8
0
6
CONTINUOUS
10
46.626275
20
-59.916510
30
0.0
11
46.626275
21
-64.634770
31
0.0
0
LINE
8
0
6
CONTINUOUS
10
29.437125
20
-10.582440
30
0.0
11
33.750075
21
-7.695400
31
0.0
0
LINE
8
0
6
CONTINUOUS
10
33.750075
20
-7.695400
30
0.0
11
38.837545
21
-6.681600
31
0.0
0
LINE
8
0
6
CONTINUOUS
10
51.118135
20
-55.087660
30
0.0
11
51.118135
21
-34.208290
31
0.0
0
LINE
8
0
6
CONTINUOUS
10
46.626275
20
-34.208290
30
0.0
11
46.626275
21
-55.087660
31
0.0
0
LINE
8
0
6
CONTINUOUS
10
25.543365
20
-85.000000
30
0.0
11
26.555325
21
-85.000000
31
0.0
0
LINE
8
0
6
CONTINUOUS
10
25.543365
20
-64.257800
30
0.0
11
25.543365
21
-85.000000
31
0.0
0
LINE
8
0
6
CONTINUOUS
10
26.555325
20
-64.257800
30
0.0
11
25.543365
21
-64.257800
31
0.0
0
LINE
8
0
6
CONTINUOUS
10
38.837555
20
-85.000000
30
0.0
11
43.905075
21
-85.000020
31
0.0
0
LINE
8
0
6
CONTINUOUS
10
43.905075
20
-64.257820
30
0.0
11
38.837555
21
-64.257800
31
0.0
0
LINE
8
0
6
CONTINUOUS
10
51.118125
20
-5.791480
30
0.0
11
51.118125
21
-19.999900
31
0.0
0
LINE
8
0
6
CONTINUOUS
10
51.118125
20
-19.999900
30
0.0
11
51.118125
21
-34.208290
31
0.0
0
LINE
8
0
6
CONTINUOUS
10
25.383655
20
-74.089450
30
0.0
11
25.383655
21
-67.181540
31
0.0
0
LINE
8
0
6
CONTINUOUS
10
-54.616325
20
-67.181540
30
0.0
11
-54.616325
21
-74.089450
31
0.0
0
LINE
8
0
6
CONTINUOUS
10
25.383655
20
67.181520
30
0.0
11
25.383655
21
74.089430
31
0.0
0
LINE
8
0
6
CONTINUOUS
10
-54.616325
20
74.089430
30
0.0
11
-54.616325
21
67.181520
31
0.0
0
LINE
8
0
6
CONTINUOUS
10
25.383655
20
85.000030
30
0.0
11
-54.616325
21
85.000030
31
0.0
0
LINE
8
0
6
CONTINUOUS
10
25.383655
20
74.089430
30
0.0
11
25.383655
21
79.852120
31
0.0
0
LINE
8
0
6
CONTINUOUS
10
-54.616325
20
79.852120
30
0.0
11
-54.616325
21
74.089430
31
0.0
0
LINE
8
0
6
CONTINUOUS
10
25.383655
20
-79.852080
30
0.0
11
25.383655
21
-74.089450
31
0.0
0
LINE
8
0
6
CONTINUOUS
10
-54.616325
20
-74.089450
30
0.0
11
-54.616325
21
-79.852080
31
0.0
0
LINE
8
0
6
CONTINUOUS
10
25.383655
20
79.852120
30
0.0
11
25.383655
21
83.666590
31
0.0
0
LINE
8
0
6
CONTINUOUS
10
-54.616325
20
83.666590
30
0.0
11
-54.616325
21
79.852120
31
0.0
0
LINE
8
0
6
CONTINUOUS
10
25.383655
20
-84.999940
30
0.0
11
25.383655
21
-83.666610
31
0.0
0
LINE
8
0
6
CONTINUOUS
10
-54.616325
20
-84.999940
30
0.0
11
25.383655
21
-84.999940
31
0.0
0
LINE
8
0
6
CONTINUOUS
10
-54.616325
20
-83.666610
30
0.0
11
-54.616325
21
-84.999940
31
0.0
0
LINE
8
0
6
CONTINUOUS
10
25.383655
20
-67.181540
30
0.0
11
25.383655
21
-50.480925
31
0.0
0
LINE
8
0
6
CONTINUOUS
10
25.383655
20
50.480905
30
0.0
11
25.383655
21
67.181520
31
0.0
0
LINE
8
0
6
CONTINUOUS
10
-54.616325
20
67.181520
30
0.0
11
-54.616325
21
-67.181540
31
0.0
0
LINE
8
0
6
CONTINUOUS
10
25.383655
20
83.666590
30
0.0
11
25.383655
21
84.999920
31
0.0
0
LINE
8
0
6
CONTINUOUS
10
-54.616325
20
84.999920
30
0.0
11
-54.616325
21
83.666590
31
0.0
0
LINE
8
0
6
CONTINUOUS
10
25.383655
20
-83.666610
30
0.0
11
25.383655
21
-79.852080
31
0.0
0
LINE
8
0
6
CONTINUOUS
10
-54.616325
20
-79.852080
30
0.0
11
-54.616325
21
-83.666610
31
0.0
0
LINE
8
0
6
CONTINUOUS
10
25.171111
20
-50.480925
30
0.0
11
25.383655
21
-50.480925
31
0.0
0
ENDSEC
0
EOF
