999
Erzeugt mit innoplus bad 
0
SECTION
2
HEADER
9
$ACADVER
1
AC1009
9
$DWGCODEPAGE
3
ISO8859-1
0
ENDSEC
0
SECTION
2
TABLES
0
TABLE
2
LAYER
70
1
0
LAYER
2
0
70
0
62
7
6
CONTINUOUS
0
ENDTAB
0
ENDSEC
0
SECTION
2
ENTITIES
0
LINE
8
0
6
CONTINUOUS
10
-43.016725
20
-42.375590
30
0.0
11
-44.874265
21
-42.375590
31
0.0
0
LINE
8
0
6
CONTINUOUS
10
-4.728735
20
-42.375590
30
0.0
11
-9.490845
21
-42.375590
31
0.0
0
LINE
8
0
6
CONTINUOUS
10
-0.751865
20
-42.375590
30
0.0
11
-4.728735
21
-42.375590
31
0.0
0
LINE
8
0
6
CONTINUOUS
10
-29.353575
20
-36.339390
30
0.0
11
-30.719745
21
-36.339390
31
0.0
0
LINE
8
0
6
CONTINUOUS
10
-20.388175
20
-36.339390
30
0.0
11
-22.939865
21
-36.339390
31
0.0
0
LINE
8
0
6
CONTINUOUS
10
-11.422785
20
-36.339390
30
0.0
11
-13.238515
21
-36.339390
31
0.0
0
LINE
8
0
6
CONTINUOUS
10
-30.719745
20
-36.339390
30
0.0
11
-31.567845
21
-36.339390
31
0.0
0
LINE
8
0
6
CONTINUOUS
10
-22.939865
20
-36.339390
30
0.0
11
-25.363595
21
-36.339390
31
0.0
0
LINE
8
0
6
CONTINUOUS
10
-13.238515
20
-36.339390
30
0.0
11
-15.412755
21
-36.339390
31
0.0
0
LINE
8
0
6
CONTINUOUS
10
-5.329725
20
-27.000130
30
0.0
11
-7.320945
21
-27.000130
31
0.0
0
LINE
8
0
6
CONTINUOUS
10
-16.669045
20
-27.000130
30
0.0
11
-20.388175
21
-27.000130
31
0.0
0
LINE
8
0
6
CONTINUOUS
10
-30.808955
20
-27.000130
30
0.0
11
-33.455425
21
-27.000130
31
0.0
0
LINE
8
0
6
CONTINUOUS
10
-4.093605
20
-27.000130
30
0.0
11
-5.329725
21
-27.000130
31
0.0
0
LINE
8
0
6
CONTINUOUS
10
-13.136405
20
-27.000130
30
0.0
11
-16.669045
21
-27.000130
31
0.0
0
LINE
8
0
6
CONTINUOUS
10
-27.639955
20
-27.000130
30
0.0
11
-30.808955
21
-27.000130
31
0.0
0
LINE
8
0
6
CONTINUOUS
10
-37.101805
20
-27.000130
30
0.0
11
-37.101805
21
-27.459550
31
0.0
0
LINE
8
0
6
CONTINUOUS
10
-36.682755
20
-27.000130
30
0.0
11
-37.101805
21
-27.000130
31
0.0
0
LINE
8
0
6
CONTINUOUS
10
-3.674565
20
-27.000130
30
0.0
11
-4.093605
21
-27.000130
31
0.0
0
LINE
8
0
6
CONTINUOUS
10
-3.674565
20
-27.459550
30
0.0
11
-3.674565
21
-27.000130
31
0.0
0
LINE
8
0
6
CONTINUOUS
10
-9.967405
20
-27.000130
30
0.0
11
-13.136405
21
-27.000130
31
0.0
0
LINE
8
0
6
CONTINUOUS
10
-24.107315
20
-27.000130
30
0.0
11
-27.639955
21
-27.000130
31
0.0
0
LINE
8
0
6
CONTINUOUS
10
-35.446635
20
-27.000130
30
0.0
11
-36.682755
21
-27.000130
31
0.0
0
LINE
8
0
6
CONTINUOUS
10
-7.320945
20
-27.000130
30
0.0
11
-9.967405
21
-27.000130
31
0.0
0
LINE
8
0
6
CONTINUOUS
10
-20.388175
20
-27.000130
30
0.0
11
-24.107315
21
-27.000130
31
0.0
0
LINE
8
0
6
CONTINUOUS
10
-33.455425
20
-27.000130
30
0.0
11
-35.446635
21
-27.000130
31
0.0
0
LINE
8
0
6
CONTINUOUS
10
-31.742115
20
-30.614840
30
0.0
11
-27.905425
21
-32.247020
31
0.0
0
LINE
8
0
6
CONTINUOUS
10
-12.870935
20
-32.247020
30
0.0
11
-9.034245
21
-30.614840
31
0.0
0
LINE
8
0
6
CONTINUOUS
10
-37.101805
20
-27.459550
30
0.0
11
-37.101805
21
-28.826890
31
0.0
0
LINE
8
0
6
CONTINUOUS
10
-3.674565
20
-28.826890
30
0.0
11
-3.674565
21
-27.459550
31
0.0
0
LINE
8
0
6
CONTINUOUS
10
-8.921005
20
-36.339390
30
0.0
11
-9.208515
21
-36.339390
31
0.0
0
LINE
8
0
6
CONTINUOUS
10
-8.921005
20
-36.564360
30
0.0
11
-8.921005
21
-36.339390
31
0.0
0
LINE
8
0
6
CONTINUOUS
10
-31.855355
20
-36.339390
30
0.0
11
-31.855355
21
-36.564360
31
0.0
0
LINE
8
0
6
CONTINUOUS
10
-31.567845
20
-36.339390
30
0.0
11
-31.843625
21
-36.339390
31
0.0
0
LINE
8
0
6
CONTINUOUS
10
-25.363595
20
-36.339390
30
0.0
11
-27.537845
21
-36.339390
31
0.0
0
LINE
8
0
6
CONTINUOUS
10
-15.412755
20
-36.339390
30
0.0
11
-17.836495
21
-36.339390
31
0.0
0
LINE
8
0
6
CONTINUOUS
10
-9.208515
20
-36.339390
30
0.0
11
-10.056615
21
-36.339390
31
0.0
0
LINE
8
0
6
CONTINUOUS
10
-14.689895
20
-33.879200
30
0.0
11
-12.870935
21
-32.247020
31
0.0
0
LINE
8
0
6
CONTINUOUS
10
-27.905425
20
-32.247020
30
0.0
11
-26.086465
21
-33.879200
31
0.0
0
LINE
8
0
6
CONTINUOUS
10
-45.503965
20
-122.880800
30
0.0
11
-45.503965
21
-123.764390
31
0.0
0
LINE
8
0
6
CONTINUOUS
10
-45.503965
20
-123.764390
30
0.0
11
-44.874265
21
-123.764390
31
0.0
0
LINE
8
0
6
CONTINUOUS
10
-44.874265
20
-123.764390
30
0.0
11
-43.016725
21
-123.764390
31
0.0
0
LINE
8
0
6
CONTINUOUS
10
-43.016725
20
-123.764390
30
0.0
11
-40.024495
21
-123.764390
31
0.0
0
LINE
8
0
6
CONTINUOUS
10
-40.024495
20
-123.764390
30
0.0
11
-36.047615
21
-123.764390
31
0.0
0
LINE
8
0
6
CONTINUOUS
10
-36.047615
20
-123.764390
30
0.0
11
-31.285515
21
-123.764390
31
0.0
0
LINE
8
0
6
CONTINUOUS
10
-31.285515
20
-123.764390
30
0.0
11
-25.976965
21
-123.764390
31
0.0
0
LINE
8
0
6
CONTINUOUS
10
-25.976965
20
-123.764390
30
0.0
11
-20.388175
21
-123.764390
31
0.0
0
LINE
8
0
6
CONTINUOUS
10
-20.388175
20
-123.764390
30
0.0
11
-14.799385
21
-123.764390
31
0.0
0
LINE
8
0
6
CONTINUOUS
10
-14.799385
20
-123.764390
30
0.0
11
-9.490845
21
-123.764390
31
0.0
0
LINE
8
0
6
CONTINUOUS
10
-9.490845
20
-123.764390
30
0.0
11
-4.728735
21
-123.764390
31
0.0
0
LINE
8
0
6
CONTINUOUS
10
-4.728735
20
-123.764390
30
0.0
11
-0.751865
21
-123.764390
31
0.0
0
LINE
8
0
6
CONTINUOUS
10
-0.751865
20
-123.764390
30
0.0
11
2.240365
21
-123.764390
31
0.0
0
LINE
8
0
6
CONTINUOUS
10
4.727605
20
-123.764390
30
0.0
11
4.727605
21
-122.880800
31
0.0
0
LINE
8
0
6
CONTINUOUS
10
4.097905
20
-123.764390
30
0.0
11
4.727605
21
-123.764390
31
0.0
0
LINE
8
0
6
CONTINUOUS
10
2.240365
20
-123.764390
30
0.0
11
4.097905
21
-123.764390
31
0.0
0
LINE
8
0
6
CONTINUOUS
10
-27.537845
20
-36.339390
30
0.0
11
-29.353575
21
-36.339390
31
0.0
0
LINE
8
0
6
CONTINUOUS
10
-4.268445
20
-29.626630
30
0.0
11
-3.674565
21
-29.503470
31
0.0
0
LINE
8
0
6
CONTINUOUS
10
-37.101805
20
-29.503470
30
0.0
11
-36.507915
21
-29.626630
31
0.0
0
LINE
8
0
6
CONTINUOUS
10
-20.388175
20
-29.503470
30
0.0
11
-16.669045
21
-29.503470
31
0.0
0
LINE
8
0
6
CONTINUOUS
10
-33.455425
20
-29.503470
30
0.0
11
-30.808955
21
-29.503470
31
0.0
0
LINE
8
0
6
CONTINUOUS
10
-5.329725
20
-29.503470
30
0.0
11
-4.093605
21
-29.503470
31
0.0
0
LINE
8
0
6
CONTINUOUS
10
-16.669045
20
-29.503470
30
0.0
11
-13.136405
21
-29.503470
31
0.0
0
LINE
8
0
6
CONTINUOUS
10
-30.808955
20
-29.503470
30
0.0
11
-27.639955
21
-29.503470
31
0.0
0
LINE
8
0
6
CONTINUOUS
10
-37.101805
20
-29.503470
30
0.0
11
-36.682755
21
-29.503470
31
0.0
0
LINE
8
0
6
CONTINUOUS
10
-37.101805
20
-28.826890
30
0.0
11
-37.101805
21
-29.503470
31
0.0
0
LINE
8
0
6
CONTINUOUS
10
-4.093605
20
-29.503470
30
0.0
11
-3.674565
21
-29.503470
31
0.0
0
LINE
8
0
6
CONTINUOUS
10
-3.674565
20
-29.503470
30
0.0
11
-3.674565
21
-28.826890
31
0.0
0
LINE
8
0
6
CONTINUOUS
10
-13.136405
20
-29.503470
30
0.0
11
-9.967405
21
-29.503470
31
0.0
0
LINE
8
0
6
CONTINUOUS
10
-27.639955
20
-29.503470
30
0.0
11
-24.107315
21
-29.503470
31
0.0
0
LINE
8
0
6
CONTINUOUS
10
-36.682755
20
-29.503470
30
0.0
11
-35.446635
21
-29.503470
31
0.0
0
LINE
8
0
6
CONTINUOUS
10
-9.967405
20
-29.503470
30
0.0
11
-7.320945
21
-29.503470
31
0.0
0
LINE
8
0
6
CONTINUOUS
10
-24.107315
20
-29.503470
30
0.0
11
-20.388175
21
-29.503470
31
0.0
0
LINE
8
0
6
CONTINUOUS
10
-35.446635
20
-29.503470
30
0.0
11
-33.455425
21
-29.503470
31
0.0
0
LINE
8
0
6
CONTINUOUS
10
-5.329725
20
-29.503470
30
0.0
11
-7.320945
21
-29.503470
31
0.0
0
LINE
8
0
6
CONTINUOUS
10
-9.034245
20
-30.614840
30
0.0
11
-4.268445
21
-29.626630
31
0.0
0
LINE
8
0
6
CONTINUOUS
10
-36.507915
20
-29.626630
30
0.0
11
-31.742115
21
-30.614840
31
0.0
0
LINE
8
0
6
CONTINUOUS
10
-17.836495
20
-36.339390
30
0.0
11
-20.388175
21
-36.339390
31
0.0
0
LINE
8
0
6
CONTINUOUS
10
-10.056615
20
-36.339390
30
0.0
11
-11.422785
21
-36.339390
31
0.0
0
LINE
8
0
6
CONTINUOUS
10
-19.120195
20
-33.879200
30
0.0
11
-20.388175
21
-33.879200
31
0.0
0
LINE
8
0
6
CONTINUOUS
10
-21.657045
20
-36.339390
30
0.0
11
-20.388175
21
-36.339390
31
0.0
0
LINE
8
0
6
CONTINUOUS
10
-22.862275
20
-36.339390
30
0.0
11
-21.657045
21
-36.339390
31
0.0
0
LINE
8
0
6
CONTINUOUS
10
-23.943455
20
-36.339390
30
0.0
11
-22.862275
21
-36.339390
31
0.0
0
LINE
8
0
6
CONTINUOUS
10
-24.846355
20
-36.339390
30
0.0
11
-23.943455
21
-36.339390
31
0.0
0
LINE
8
0
6
CONTINUOUS
10
-25.525695
20
-36.339390
30
0.0
11
-24.846355
21
-36.339390
31
0.0
0
LINE
8
0
6
CONTINUOUS
10
-25.947425
20
-36.339390
30
0.0
11
-25.525695
21
-36.339390
31
0.0
0
LINE
8
0
6
CONTINUOUS
10
-26.090395
20
-36.339390
30
0.0
11
-25.947425
21
-36.339390
31
0.0
0
LINE
8
0
6
CONTINUOUS
10
-26.090005
20
-36.093360
30
0.0
11
-26.090395
21
-36.339390
31
0.0
0
LINE
8
0
6
CONTINUOUS
10
-14.685965
20
-36.339390
30
0.0
11
-14.686355
21
-36.093360
31
0.0
0
LINE
8
0
6
CONTINUOUS
10
-14.828925
20
-36.339390
30
0.0
11
-14.685965
21
-36.339390
31
0.0
0
LINE
8
0
6
CONTINUOUS
10
-15.250655
20
-36.339390
30
0.0
11
-14.828925
21
-36.339390
31
0.0
0
LINE
8
0
6
CONTINUOUS
10
-15.930005
20
-36.339390
30
0.0
11
-15.250655
21
-36.339390
31
0.0
0
LINE
8
0
6
CONTINUOUS
10
-16.832905
20
-36.339390
30
0.0
11
-15.930005
21
-36.339390
31
0.0
0
LINE
8
0
6
CONTINUOUS
10
-17.914075
20
-36.339390
30
0.0
11
-16.832905
21
-36.339390
31
0.0
0
LINE
8
0
6
CONTINUOUS
10
-19.119315
20
-36.339390
30
0.0
11
-17.914075
21
-36.339390
31
0.0
0
LINE
8
0
6
CONTINUOUS
10
-20.388175
20
-36.339390
30
0.0
11
-19.119315
21
-36.339390
31
0.0
0
LINE
8
0
6
CONTINUOUS
10
-17.915785
20
-33.879200
30
0.0
11
-19.120195
21
-33.879200
31
0.0
0
LINE
8
0
6
CONTINUOUS
10
-15.933085
20
-33.879200
30
0.0
11
-16.835355
21
-33.879200
31
0.0
0
LINE
8
0
6
CONTINUOUS
10
-14.832765
20
-33.879200
30
0.0
11
-15.254205
21
-33.879200
31
0.0
0
LINE
8
0
6
CONTINUOUS
10
-26.086465
20
-33.879200
30
0.0
11
-26.090005
21
-36.093360
31
0.0
0
LINE
8
0
6
CONTINUOUS
10
-25.943595
20
-33.879200
30
0.0
11
-26.086465
21
-33.879200
31
0.0
0
LINE
8
0
6
CONTINUOUS
10
-16.835355
20
-33.879200
30
0.0
11
-17.915785
21
-33.879200
31
0.0
0
LINE
8
0
6
CONTINUOUS
10
-15.254205
20
-33.879200
30
0.0
11
-15.933085
21
-33.879200
31
0.0
0
LINE
8
0
6
CONTINUOUS
10
-14.686355
20
-36.093360
30
0.0
11
-14.689895
21
-33.879200
31
0.0
0
LINE
8
0
6
CONTINUOUS
10
-14.689895
20
-33.879200
30
0.0
11
-14.832765
21
-33.879200
31
0.0
0
LINE
8
0
6
CONTINUOUS
10
-8.921005
20
-42.039070
30
0.0
11
-8.921005
21
-36.564360
31
0.0
0
LINE
8
0
6
CONTINUOUS
10
-25.522155
20
-33.879200
30
0.0
11
-25.943595
21
-33.879200
31
0.0
0
LINE
8
0
6
CONTINUOUS
10
-31.855355
20
-36.564360
30
0.0
11
-31.855355
21
-42.039070
31
0.0
0
LINE
8
0
6
CONTINUOUS
10
-24.843275
20
-33.879200
30
0.0
11
-25.522155
21
-33.879200
31
0.0
0
LINE
8
0
6
CONTINUOUS
10
-23.941005
20
-33.879200
30
0.0
11
-24.843275
21
-33.879200
31
0.0
0
LINE
8
0
6
CONTINUOUS
10
-22.860575
20
-33.879200
30
0.0
11
-23.941005
21
-33.879200
31
0.0
0
LINE
8
0
6
CONTINUOUS
10
-21.656165
20
-33.879200
30
0.0
11
-22.860575
21
-33.879200
31
0.0
0
LINE
8
0
6
CONTINUOUS
10
-20.388175
20
-33.879200
30
0.0
11
-21.656165
21
-33.879200
31
0.0
0
LINE
8
0
6
CONTINUOUS
10
-30.719745
20
-42.375590
30
0.0
11
-29.353575
21
-42.375590
31
0.0
0
LINE
8
0
6
CONTINUOUS
10
-22.939865
20
-42.375590
30
0.0
11
-20.388175
21
-42.375590
31
0.0
0
LINE
8
0
6
CONTINUOUS
10
-13.238515
20
-42.375590
30
0.0
11
-11.422785
21
-42.375590
31
0.0
0
LINE
8
0
6
CONTINUOUS
10
-31.567845
20
-42.375590
30
0.0
11
-30.719745
21
-42.375590
31
0.0
0
LINE
8
0
6
CONTINUOUS
10
-25.363595
20
-42.375590
30
0.0
11
-22.939865
21
-42.375590
31
0.0
0
LINE
8
0
6
CONTINUOUS
10
-15.412755
20
-42.375590
30
0.0
11
-13.238515
21
-42.375590
31
0.0
0
LINE
8
0
6
CONTINUOUS
10
-9.208515
20
-42.375590
30
0.0
11
-8.921005
21
-42.375590
31
0.0
0
LINE
8
0
6
CONTINUOUS
10
-8.921005
20
-42.375590
30
0.0
11
-8.921005
21
-42.039070
31
0.0
0
LINE
8
0
6
CONTINUOUS
10
-31.855355
20
-42.375590
30
0.0
11
-31.567845
21
-42.375590
31
0.0
0
LINE
8
0
6
CONTINUOUS
10
-31.855355
20
-42.039070
30
0.0
11
-31.855355
21
-42.375590
31
0.0
0
LINE
8
0
6
CONTINUOUS
10
-27.537845
20
-42.375590
30
0.0
11
-25.363595
21
-42.375590
31
0.0
0
LINE
8
0
6
CONTINUOUS
10
-17.836495
20
-42.375590
30
0.0
11
-15.412755
21
-42.375590
31
0.0
0
LINE
8
0
6
CONTINUOUS
10
-10.056615
20
-42.375590
30
0.0
11
-9.208515
21
-42.375590
31
0.0
0
LINE
8
0
6
CONTINUOUS
10
-29.353575
20
-42.375590
30
0.0
11
-27.537845
21
-42.375590
31
0.0
0
LINE
8
0
6
CONTINUOUS
10
-20.388175
20
-42.375590
30
0.0
11
-17.836495
21
-42.375590
31
0.0
0
LINE
8
0
6
CONTINUOUS
10
-11.422785
20
-42.375590
30
0.0
11
-10.056615
21
-42.375590
31
0.0
0
LINE
8
0
6
CONTINUOUS
10
12.922405
20
-105.251200
30
0.0
11
19.328315
21
-105.213280
31
0.0
0
LINE
8
0
6
CONTINUOUS
10
9.210405
20
-62.713460
30
0.0
11
7.258215
21
-64.647210
31
0.0
0
LINE
8
0
6
CONTINUOUS
10
5.390295
20
-58.298980
30
0.0
11
4.727605
21
-55.339360
31
0.0
0
LINE
8
0
6
CONTINUOUS
10
9.948535
20
-62.032920
30
0.0
11
7.271005
21
-60.628250
31
0.0
0
LINE
8
0
6
CONTINUOUS
10
9.948535
20
-62.032920
30
0.0
11
9.210405
21
-62.713460
31
0.0
0
LINE
8
0
6
CONTINUOUS
10
12.972805
20
-62.272160
30
0.0
11
9.948535
21
-62.032920
31
0.0
0
LINE
8
0
6
CONTINUOUS
10
9.812295
20
-105.561950
30
0.0
11
12.922405
21
-105.251200
31
0.0
0
LINE
8
0
6
CONTINUOUS
10
5.253595
20
-109.526300
30
0.0
11
7.062815
21
-106.990000
31
0.0
0
LINE
8
0
6
CONTINUOUS
10
5.253595
20
-109.526300
30
0.0
11
4.724645
21
-108.911360
31
0.0
0
LINE
8
0
6
CONTINUOUS
10
4.727605
20
-112.550080
30
0.0
11
5.253595
21
-109.526300
31
0.0
0
LINE
8
0
6
CONTINUOUS
10
4.831185
20
-59.011340
30
0.0
11
3.159995
21
-60.892940
31
0.0
0
LINE
8
0
6
CONTINUOUS
10
4.916125
20
-63.095130
30
0.0
11
6.658295
21
-61.280690
31
0.0
0
LINE
8
0
6
CONTINUOUS
10
5.390295
20
-58.298980
30
0.0
11
4.831185
21
-59.011340
31
0.0
0
LINE
8
0
6
CONTINUOUS
10
7.271005
20
-60.628250
30
0.0
11
5.390295
21
-58.298980
31
0.0
0
LINE
8
0
6
CONTINUOUS
10
6.658295
20
-61.280690
30
0.0
11
7.271005
21
-60.628250
31
0.0
0
LINE
8
0
6
CONTINUOUS
10
7.062815
20
-106.990000
30
0.0
11
9.812295
21
-105.561950
31
0.0
0
LINE
8
0
6
CONTINUOUS
10
6.479825
20
-106.471650
30
0.0
11
7.062815
21
-106.990000
31
0.0
0
LINE
8
0
6
CONTINUOUS
10
19.328355
20
-62.380210
30
0.0
11
12.972805
21
-62.272160
31
0.0
0
LINE
8
0
6
CONTINUOUS
10
4.727605
20
-55.339360
30
0.0
11
4.727605
21
-43.369870
31
0.0
0
LINE
8
0
6
CONTINUOUS
10
-45.503965
20
-84.905910
30
0.0
11
-45.503965
21
-95.874720
31
0.0
0
LINE
8
0
6
CONTINUOUS
10
-45.503965
20
-72.643190
30
0.0
11
-45.503965
21
-84.905910
31
0.0
0
LINE
8
0
6
CONTINUOUS
10
-45.503965
20
-42.375590
30
0.0
11
-45.503965
21
-43.369870
31
0.0
0
LINE
8
0
6
CONTINUOUS
10
-44.874265
20
-42.375590
30
0.0
11
-45.503965
21
-42.375590
31
0.0
0
LINE
8
0
6
CONTINUOUS
10
-40.024495
20
-42.375590
30
0.0
11
-43.016725
21
-42.375590
31
0.0
0
LINE
8
0
6
CONTINUOUS
10
-36.047615
20
-42.375590
30
0.0
11
-40.024495
21
-42.375590
31
0.0
0
LINE
8
0
6
CONTINUOUS
10
-31.285515
20
-42.375590
30
0.0
11
-36.047615
21
-42.375590
31
0.0
0
LINE
8
0
6
CONTINUOUS
10
-25.976965
20
-42.375590
30
0.0
11
-31.285515
21
-42.375590
31
0.0
0
LINE
8
0
6
CONTINUOUS
10
-20.388175
20
-42.375590
30
0.0
11
-25.976965
21
-42.375590
31
0.0
0
LINE
8
0
6
CONTINUOUS
10
-14.799385
20
-42.375590
30
0.0
11
-20.388175
21
-42.375590
31
0.0
0
LINE
8
0
6
CONTINUOUS
10
-9.490845
20
-42.375590
30
0.0
11
-14.799385
21
-42.375590
31
0.0
0
LINE
8
0
6
CONTINUOUS
10
2.240365
20
-42.375590
30
0.0
11
-0.751865
21
-42.375590
31
0.0
0
LINE
8
0
6
CONTINUOUS
10
4.727605
20
-42.375590
30
0.0
11
4.097905
21
-42.375590
31
0.0
0
LINE
8
0
6
CONTINUOUS
10
4.727605
20
-43.369870
30
0.0
11
4.727605
21
-42.375590
31
0.0
0
LINE
8
0
6
CONTINUOUS
10
4.097905
20
-42.375590
30
0.0
11
2.240365
21
-42.375590
31
0.0
0
LINE
8
0
6
CONTINUOUS
10
4.727605
20
-122.880800
30
0.0
11
4.727605
21
-112.550080
31
0.0
0
LINE
8
0
6
CONTINUOUS
10
-45.503965
20
-43.369870
30
0.0
11
-45.503965
21
-72.643190
31
0.0
0
LINE
8
0
6
CONTINUOUS
10
-45.503965
20
-95.874720
30
0.0
11
-45.503965
21
-122.880800
31
0.0
0
LINE
8
0
6
CONTINUOUS
10
19.611805
20
-100.885490
30
0.0
11
19.611805
21
-97.631730
31
0.0
0
LINE
8
0
6
CONTINUOUS
10
19.611815
20
-104.778160
30
0.0
11
19.611815
21
-103.218580
31
0.0
0
LINE
8
0
6
CONTINUOUS
10
19.611805
20
-70.950890
30
0.0
11
19.611805
21
-67.325940
31
0.0
0
LINE
8
0
6
CONTINUOUS
10
19.611805
20
-79.807010
30
0.0
11
19.611805
21
-75.078670
31
0.0
0
LINE
8
0
6
CONTINUOUS
10
19.611805
20
-97.631730
30
0.0
11
19.611805
21
-93.648850
31
0.0
0
LINE
8
0
6
CONTINUOUS
10
19.611805
20
-93.648850
30
0.0
11
19.611805
21
-89.338740
31
0.0
0
LINE
8
0
6
CONTINUOUS
10
19.328315
20
-105.213280
30
0.0
11
19.611815
21
-105.211610
31
0.0
0
LINE
8
0
6
CONTINUOUS
10
19.611815
20
-105.211610
30
0.0
11
19.611815
21
-104.778160
31
0.0
0
LINE
8
0
6
CONTINUOUS
10
19.611805
20
-84.508080
30
0.0
11
19.611805
21
-79.807010
31
0.0
0
LINE
8
0
6
CONTINUOUS
10
19.611805
20
-89.338740
30
0.0
11
19.611805
21
-84.508080
31
0.0
0
LINE
8
0
6
CONTINUOUS
10
19.611805
20
-67.325940
30
0.0
11
19.611805
21
-64.675460
31
0.0
0
LINE
8
0
6
CONTINUOUS
10
19.611815
20
-62.385030
30
0.0
11
19.328355
21
-62.380210
31
0.0
0
LINE
8
0
6
CONTINUOUS
10
19.611815
20
-62.938980
30
0.0
11
19.611815
21
-62.385030
31
0.0
0
LINE
8
0
6
CONTINUOUS
10
19.611805
20
-75.078670
30
0.0
11
19.611805
21
-70.950890
31
0.0
0
LINE
8
0
6
CONTINUOUS
10
19.611805
20
-100.885490
30
0.0
11
19.611815
21
-103.218580
31
0.0
0
LINE
8
0
6
CONTINUOUS
10
19.611815
20
-62.938980
30
0.0
11
19.611805
21
-64.675460
31
0.0
0
LINE
8
0
6
CONTINUOUS
10
54.495735
20
-62.278680
30
0.0
11
53.895415
21
-62.280690
31
0.0
0
LINE
8
0
6
CONTINUOUS
10
54.496015
20
-89.338740
30
0.0
11
54.496015
21
-84.508080
31
0.0
0
LINE
8
0
6
CONTINUOUS
10
54.496025
20
-105.211610
30
0.0
11
54.496025
21
-104.778160
31
0.0
0
LINE
8
0
6
CONTINUOUS
10
53.895715
20
-105.211610
30
0.0
11
54.496025
21
-105.211610
31
0.0
0
LINE
8
0
6
CONTINUOUS
10
54.496015
20
-75.078670
30
0.0
11
54.496015
21
-70.950890
31
0.0
0
LINE
8
0
6
CONTINUOUS
10
54.496015
20
-100.885490
30
0.0
11
54.496015
21
-97.631730
31
0.0
0
LINE
8
0
6
CONTINUOUS
10
54.496025
20
-104.778160
30
0.0
11
54.496025
21
-103.218580
31
0.0
0
LINE
8
0
6
CONTINUOUS
10
54.496015
20
-70.950890
30
0.0
11
54.496015
21
-67.325940
31
0.0
0
LINE
8
0
6
CONTINUOUS
10
54.496015
20
-93.648850
30
0.0
11
54.496015
21
-89.338740
31
0.0
0
LINE
8
0
6
CONTINUOUS
10
54.496015
20
-79.807010
30
0.0
11
54.496015
21
-75.078670
31
0.0
0
LINE
8
0
6
CONTINUOUS
10
54.496015
20
-97.631730
30
0.0
11
54.496015
21
-93.648850
31
0.0
0
LINE
8
0
6
CONTINUOUS
10
54.496015
20
-84.508080
30
0.0
11
54.496015
21
-79.807010
31
0.0
0
LINE
8
0
6
CONTINUOUS
10
20.247035
20
-64.675460
30
0.0
11
20.247025
21
-67.325940
31
0.0
0
LINE
8
0
6
CONTINUOUS
10
20.497045
20
-62.392630
30
0.0
11
20.247055
21
-62.393470
31
0.0
0
LINE
8
0
6
CONTINUOUS
10
20.247055
20
-62.393470
30
0.0
11
20.246925
21
-62.895600
31
0.0
0
LINE
8
0
6
CONTINUOUS
10
20.247025
20
-97.631730
30
0.0
11
20.247025
21
-100.885490
31
0.0
0
LINE
8
0
6
CONTINUOUS
10
20.247035
20
-103.218580
30
0.0
11
20.247035
21
-104.778160
31
0.0
0
LINE
8
0
6
CONTINUOUS
10
20.247025
20
-70.950900
30
0.0
11
20.247025
21
-75.078670
31
0.0
0
LINE
8
0
6
CONTINUOUS
10
20.247025
20
-67.325940
30
0.0
11
20.247025
21
-70.950900
31
0.0
0
LINE
8
0
6
CONTINUOUS
10
20.247025
20
-75.078670
30
0.0
11
20.247025
21
-79.807010
31
0.0
0
LINE
8
0
6
CONTINUOUS
10
20.247025
20
-93.648850
30
0.0
11
20.247025
21
-97.631730
31
0.0
0
LINE
8
0
6
CONTINUOUS
10
20.247025
20
-89.338740
30
0.0
11
20.247025
21
-93.648850
31
0.0
0
LINE
8
0
6
CONTINUOUS
10
20.247035
20
-105.211610
30
0.0
11
20.497035
21
-105.211610
31
0.0
0
LINE
8
0
6
CONTINUOUS
10
20.247035
20
-104.778160
30
0.0
11
20.247035
21
-105.211610
31
0.0
0
LINE
8
0
6
CONTINUOUS
10
20.247025
20
-79.807010
30
0.0
11
20.247025
21
-84.508080
31
0.0
0
LINE
8
0
6
CONTINUOUS
10
20.247025
20
-84.508080
30
0.0
11
20.247025
21
-89.338740
31
0.0
0
LINE
8
0
6
CONTINUOUS
10
20.246925
20
-62.895600
30
0.0
11
20.247035
21
-64.675460
31
0.0
0
LINE
8
0
6
CONTINUOUS
10
20.247025
20
-100.885490
30
0.0
11
20.247035
21
-103.218580
31
0.0
0
LINE
8
0
6
CONTINUOUS
10
19.479955
20
-104.919560
30
0.0
11
20.324395
21
-104.919560
31
0.0
0
LINE
8
0
6
CONTINUOUS
10
20.247035
20
-62.677510
30
0.0
11
19.479955
21
-62.677510
31
0.0
0
LINE
8
0
6
CONTINUOUS
10
20.497035
20
-105.211610
30
0.0
11
44.757965
21
-105.211610
31
0.0
0
LINE
8
0
6
CONTINUOUS
10
44.757765
20
-62.311320
30
0.0
11
20.497045
21
-62.392630
31
0.0
0
LINE
8
0
6
CONTINUOUS
10
44.757965
20
-105.211610
30
0.0
11
46.771665
21
-105.211610
31
0.0
0
LINE
8
0
6
CONTINUOUS
10
46.771665
20
-105.211610
30
0.0
11
49.332965
21
-105.211610
31
0.0
0
LINE
8
0
6
CONTINUOUS
10
49.332965
20
-105.211610
30
0.0
11
51.894255
21
-105.211610
31
0.0
0
LINE
8
0
6
CONTINUOUS
10
51.894255
20
-105.211610
30
0.0
11
53.895715
21
-105.211610
31
0.0
0
LINE
8
0
6
CONTINUOUS
10
53.082955
20
-61.554320
30
0.0
11
53.082955
21
3.722310
31
0.0
0
LINE
8
0
6
CONTINUOUS
10
45.582955
20
3.722310
30
0.0
11
45.582955
21
-61.554320
31
0.0
0
LINE
8
0
6
CONTINUOUS
10
46.085365
20
3.722310
30
0.0
11
46.085365
21
-61.554320
31
0.0
0
LINE
8
0
6
CONTINUOUS
10
47.457955
20
3.722310
30
0.0
11
47.457955
21
-61.554320
31
0.0
0
LINE
8
0
6
CONTINUOUS
10
49.332955
20
-61.554320
30
0.0
11
49.332955
21
3.722310
31
0.0
0
LINE
8
0
6
CONTINUOUS
10
51.207955
20
3.722310
30
0.0
11
51.207955
21
-61.554320
31
0.0
0
LINE
8
0
6
CONTINUOUS
10
52.580555
20
-61.554320
30
0.0
11
52.580555
21
3.722310
31
0.0
0
LINE
8
0
6
CONTINUOUS
10
53.173485
20
-62.238590
30
0.0
11
53.082955
21
-61.885030
31
0.0
0
LINE
8
0
6
CONTINUOUS
10
53.895415
20
-62.280690
30
0.0
11
53.562055
21
-62.281810
31
0.0
0
LINE
8
0
6
CONTINUOUS
10
45.582955
20
-61.885030
30
0.0
11
45.489125
21
-62.238590
31
0.0
0
LINE
8
0
6
CONTINUOUS
10
45.092735
20
-62.310200
30
0.0
11
44.757765
21
-62.311320
31
0.0
0
LINE
8
0
6
CONTINUOUS
10
52.626715
20
-62.265200
30
0.0
11
52.580555
21
-61.885030
31
0.0
0
LINE
8
0
6
CONTINUOUS
10
51.261605
20
-62.281890
30
0.0
11
51.207955
21
-61.885030
31
0.0
0
LINE
8
0
6
CONTINUOUS
10
46.085365
20
-61.885030
30
0.0
11
46.034205
21
-62.264370
31
0.0
0
LINE
8
0
6
CONTINUOUS
10
49.332955
20
-62.302340
30
0.0
11
49.332955
21
-61.885030
31
0.0
0
LINE
8
0
6
CONTINUOUS
10
47.457955
20
-61.885030
30
0.0
11
47.404295
21
-62.281890
31
0.0
0
LINE
8
0
6
CONTINUOUS
10
53.082955
20
-61.885030
30
0.0
11
53.082955
21
-61.554320
31
0.0
0
LINE
8
0
6
CONTINUOUS
10
51.207955
20
-61.554320
30
0.0
11
51.207955
21
-61.885030
31
0.0
0
LINE
8
0
6
CONTINUOUS
10
52.580555
20
-61.885030
30
0.0
11
52.580555
21
-61.554320
31
0.0
0
LINE
8
0
6
CONTINUOUS
10
49.332955
20
-61.885030
30
0.0
11
49.332955
21
-61.554320
31
0.0
0
LINE
8
0
6
CONTINUOUS
10
47.457955
20
-61.885030
30
0.0
11
47.457955
21
-61.554320
31
0.0
0
LINE
8
0
6
CONTINUOUS
10
45.582955
20
-61.554320
30
0.0
11
45.582955
21
-61.885030
31
0.0
0
LINE
8
0
6
CONTINUOUS
10
46.085365
20
-61.885030
30
0.0
11
46.085365
21
-61.554320
31
0.0
0
LINE
8
0
6
CONTINUOUS
10
54.496025
20
-64.675460
30
0.0
11
54.496015
21
-67.325940
31
0.0
0
LINE
8
0
6
CONTINUOUS
10
54.495735
20
-62.278680
30
0.0
11
54.495725
21
-62.814690
31
0.0
0
LINE
8
0
6
CONTINUOUS
10
54.495725
20
-62.814690
30
0.0
11
54.496025
21
-64.675460
31
0.0
0
LINE
8
0
6
CONTINUOUS
10
54.496015
20
-100.885490
30
0.0
11
54.496025
21
-103.218580
31
0.0
0
LINE
8
0
6
CONTINUOUS
10
53.391785
20
-62.282380
30
0.0
11
53.173485
21
-62.238590
31
0.0
0
LINE
8
0
6
CONTINUOUS
10
52.738385
20
-62.560060
30
0.0
11
53.173485
21
-62.238590
31
0.0
0
LINE
8
0
6
CONTINUOUS
10
53.562055
20
-62.281810
30
0.0
11
53.391785
21
-62.282380
31
0.0
0
LINE
8
0
6
CONTINUOUS
10
45.262385
20
-62.309630
30
0.0
11
46.034205
21
-62.264370
31
0.0
0
LINE
8
0
6
CONTINUOUS
10
45.489125
20
-62.238590
30
0.0
11
45.262385
21
-62.309630
31
0.0
0
LINE
8
0
6
CONTINUOUS
10
46.034205
20
-62.264370
30
0.0
11
45.489125
21
-62.238590
31
0.0
0
LINE
8
0
6
CONTINUOUS
10
45.262385
20
-62.309630
30
0.0
11
45.092735
21
-62.310200
31
0.0
0
LINE
8
0
6
CONTINUOUS
10
45.910935
20
-62.574570
30
0.0
11
45.262385
21
-62.309630
31
0.0
0
LINE
8
0
6
CONTINUOUS
10
52.738385
20
-62.560060
30
0.0
11
52.626715
21
-62.265200
31
0.0
0
LINE
8
0
6
CONTINUOUS
10
52.738385
20
-62.560060
30
0.0
11
51.391535
21
-62.693450
31
0.0
0
LINE
8
0
6
CONTINUOUS
10
51.391535
20
-62.693450
30
0.0
11
51.261605
21
-62.281890
31
0.0
0
LINE
8
0
6
CONTINUOUS
10
51.391535
20
-62.693450
30
0.0
11
49.333305
21
-62.750220
31
0.0
0
LINE
8
0
6
CONTINUOUS
10
47.404295
20
-62.281890
30
0.0
11
46.034205
21
-62.264370
31
0.0
0
LINE
8
0
6
CONTINUOUS
10
47.275165
20
-62.703170
30
0.0
11
45.910935
21
-62.574570
31
0.0
0
LINE
8
0
6
CONTINUOUS
10
49.333305
20
-62.750220
30
0.0
11
49.332955
21
-62.302340
31
0.0
0
LINE
8
0
6
CONTINUOUS
10
49.333305
20
-62.750220
30
0.0
11
47.275165
21
-62.703170
31
0.0
0
LINE
8
0
6
CONTINUOUS
10
53.082955
20
3.722310
30
0.0
11
53.082955
21
4.122300
31
0.0
0
LINE
8
0
6
CONTINUOUS
10
52.668845
20
4.122310
30
0.0
11
52.221915
21
4.122310
31
0.0
0
LINE
8
0
6
CONTINUOUS
10
53.082955
20
4.122300
30
0.0
11
52.668845
21
4.122310
31
0.0
0
LINE
8
0
6
CONTINUOUS
10
52.580555
20
4.122300
30
0.0
11
53.082955
21
4.122300
31
0.0
0
LINE
8
0
6
CONTINUOUS
10
52.580555
20
3.722310
30
0.0
11
52.580555
21
4.122300
31
0.0
0
LINE
8
0
6
CONTINUOUS
10
52.221915
20
4.122310
30
0.0
11
51.000905
21
4.122310
31
0.0
0
LINE
8
0
6
CONTINUOUS
10
51.207955
20
4.122300
30
0.0
11
52.580555
21
4.122300
31
0.0
0
LINE
8
0
6
CONTINUOUS
10
51.207955
20
3.722310
30
0.0
11
51.207955
21
4.122300
31
0.0
0
LINE
8
0
6
CONTINUOUS
10
51.000905
20
4.122310
30
0.0
11
49.332955
21
4.122310
31
0.0
0
LINE
8
0
6
CONTINUOUS
10
49.332955
20
4.122300
30
0.0
11
51.207955
21
4.122300
31
0.0
0
LINE
8
0
6
CONTINUOUS
10
49.332955
20
3.722310
30
0.0
11
49.332955
21
4.122300
31
0.0
0
LINE
8
0
6
CONTINUOUS
10
49.332955
20
4.122310
30
0.0
11
47.665005
21
4.122310
31
0.0
0
LINE
8
0
6
CONTINUOUS
10
47.457955
20
4.122300
30
0.0
11
49.332955
21
4.122300
31
0.0
0
LINE
8
0
6
CONTINUOUS
10
47.457955
20
3.722310
30
0.0
11
47.457955
21
4.122300
31
0.0
0
LINE
8
0
6
CONTINUOUS
10
47.665005
20
4.122310
30
0.0
11
46.443995
21
4.122310
31
0.0
0
LINE
8
0
6
CONTINUOUS
10
46.085355
20
4.122300
30
0.0
11
47.457955
21
4.122300
31
0.0
0
LINE
8
0
6
CONTINUOUS
10
45.582955
20
4.122300
30
0.0
11
45.582955
21
3.722310
31
0.0
0
LINE
8
0
6
CONTINUOUS
10
46.085365
20
3.722310
30
0.0
11
46.085355
21
4.122300
31
0.0
0
LINE
8
0
6
CONTINUOUS
10
45.997065
20
4.122310
30
0.0
11
45.582955
21
4.122300
31
0.0
0
LINE
8
0
6
CONTINUOUS
10
46.443995
20
4.122310
30
0.0
11
45.997065
21
4.122310
31
0.0
0
LINE
8
0
6
CONTINUOUS
10
45.582955
20
4.122300
30
0.0
11
46.085355
21
4.122300
31
0.0
0
LINE
8
0
6
CONTINUOUS
10
-6.422685
20
-32.100790
30
0.0
11
-2.529735
21
-29.617890
31
0.0
0
LINE
8
0
6
CONTINUOUS
10
-38.267785
20
-29.687030
30
0.0
11
-34.229655
21
-32.154600
31
0.0
0
LINE
8
0
6
CONTINUOUS
10
-44.241735
20
-41.179760
30
0.0
11
-43.404355
21
-41.179760
31
0.0
0
LINE
8
0
6
CONTINUOUS
10
3.449165
20
-41.179760
30
0.0
11
-8.680395
21
-41.042550
31
0.0
0
LINE
8
0
6
CONTINUOUS
10
1.092605
20
-41.179760
30
0.0
11
3.449165
21
-41.179760
31
0.0
0
LINE
8
0
6
CONTINUOUS
10
-2.086025
20
-41.179760
30
0.0
11
1.092605
21
-41.179760
31
0.0
0
LINE
8
0
6
CONTINUOUS
10
-6.294005
20
-41.179760
30
0.0
11
-2.086025
21
-41.179760
31
0.0
0
LINE
8
0
6
CONTINUOUS
10
-8.921005
20
-41.179760
30
0.0
11
-6.294005
21
-41.179760
31
0.0
0
LINE
8
0
6
CONTINUOUS
10
-33.397455
20
-41.179760
30
0.0
11
-31.855355
21
-41.179760
31
0.0
0
LINE
8
0
6
CONTINUOUS
10
-39.596505
20
-41.179760
30
0.0
11
-33.397455
21
-41.179760
31
0.0
0
LINE
8
0
6
CONTINUOUS
10
-43.404355
20
-41.179760
30
0.0
11
-39.596505
21
-41.179760
31
0.0
0
LINE
8
0
6
CONTINUOUS
10
-31.433915
20
-41.081280
30
0.0
11
-44.241735
21
-41.179760
31
0.0
0
LINE
8
0
6
CONTINUOUS
10
-31.887755
20
-41.087450
30
0.0
11
-31.568880
21
-41.083115
31
0.0
0
LINE
8
0
6
CONTINUOUS
10
-31.567320
20
-41.083094
30
0.0
11
-31.433915
21
-41.081280
31
0.0
0
LINE
8
0
6
CONTINUOUS
10
-47.011415
20
1.689960
30
0.0
11
-45.782375
21
-38.695970
31
0.0
0
LINE
8
0
6
CONTINUOUS
10
4.944445
20
-38.759130
30
0.0
11
6.144055
21
0.599890
31
0.0
0
LINE
8
0
6
CONTINUOUS
10
-2.937755
20
-29.631090
30
0.0
11
-2.529735
21
-29.617890
31
0.0
0
LINE
8
0
6
CONTINUOUS
10
-2.529735
20
-29.617890
30
0.0
11
-2.415375
21
-27.742470
31
0.0
0
LINE
8
0
6
CONTINUOUS
10
-40.052155
20
28.969220
30
0.0
11
-38.443565
21
-27.700270
31
0.0
0
LINE
8
0
6
CONTINUOUS
10
-4.466245
20
-29.650240
30
0.0
11
-2.937755
21
-29.631090
31
0.0
0
LINE
8
0
6
CONTINUOUS
10
-31.866465
20
-35.210080
30
0.0
11
-31.887745
21
-41.084770
31
0.0
0
LINE
8
0
6
CONTINUOUS
10
-8.680395
20
-41.042550
30
0.0
11
-8.700915
21
-35.165250
31
0.0
0
LINE
8
0
6
CONTINUOUS
10
-8.945355
20
-41.051120
30
0.0
11
-8.680395
21
-41.042550
31
0.0
0
LINE
8
0
6
CONTINUOUS
10
-8.700915
20
-35.165250
30
0.0
11
-6.422685
21
-32.100790
31
0.0
0
LINE
8
0
6
CONTINUOUS
10
-8.965405
20
-35.173820
30
0.0
11
-8.700915
21
-35.165250
31
0.0
0
LINE
8
0
6
CONTINUOUS
10
-31.866465
20
-35.210080
30
0.0
11
-31.533815
21
-35.214780
31
0.0
0
LINE
8
0
6
CONTINUOUS
10
-34.229655
20
-32.154600
30
0.0
11
-31.866465
21
-35.210080
31
0.0
0
LINE
8
0
6
CONTINUOUS
10
-31.533815
20
-35.214780
30
0.0
11
-30.319425
21
-35.214920
31
0.0
0
LINE
8
0
6
CONTINUOUS
10
-30.319425
20
-35.214920
30
0.0
11
-28.365085
21
-35.213770
31
0.0
0
LINE
8
0
6
CONTINUOUS
10
-28.365085
20
-35.213770
30
0.0
11
-25.862865
21
-35.215490
31
0.0
0
LINE
8
0
6
CONTINUOUS
10
-14.021335
20
-35.207220
30
0.0
11
-11.704375
21
-35.197370
31
0.0
0
LINE
8
0
6
CONTINUOUS
10
-11.704375
20
-35.197370
30
0.0
11
-9.956175
21
-35.186220
31
0.0
0
LINE
8
0
6
CONTINUOUS
10
-9.956175
20
-35.186220
30
0.0
11
-8.965405
21
-35.173820
31
0.0
0
LINE
8
0
6
CONTINUOUS
10
-42.680585
20
45.205910
30
0.0
11
-47.125965
21
53.381700
31
0.0
0
LINE
8
0
6
CONTINUOUS
10
-37.444685
20
38.238140
30
0.0
11
-42.680585
21
45.205910
31
0.0
0
LINE
8
0
6
CONTINUOUS
10
-32.957445
20
34.494600
30
0.0
11
-37.444685
21
38.238140
31
0.0
0
LINE
8
0
6
CONTINUOUS
10
-27.428495
20
32.498140
30
0.0
11
-32.957445
21
34.494600
31
0.0
0
LINE
8
0
6
CONTINUOUS
10
-21.578725
20
32.824590
30
0.0
11
-27.428495
21
32.498140
31
0.0
0
LINE
8
0
6
CONTINUOUS
10
-16.318395
20
35.466520
30
0.0
11
-21.578725
21
32.824590
31
0.0
0
LINE
8
0
6
CONTINUOUS
10
-11.895475
20
39.212870
30
0.0
11
-16.318395
21
35.466520
31
0.0
0
LINE
8
0
6
CONTINUOUS
10
-5.841155
20
46.666580
30
0.0
11
-11.895475
21
39.212870
31
0.0
0
LINE
8
0
6
CONTINUOUS
10
-20.809425
20
23.791610
30
0.0
11
-20.264175
21
29.398690
31
0.0
0
LINE
8
0
6
CONTINUOUS
10
-25.290385
20
24.582940
30
0.0
11
-25.209755
21
29.381390
31
0.0
0
LINE
8
0
6
CONTINUOUS
10
-0.143825
20
47.818400
30
0.0
11
0.068805
21
58.891960
31
0.0
0
LINE
8
0
6
CONTINUOUS
10
2.416085
20
104.591000
30
0.0
11
5.469945
21
105.066230
31
0.0
0
LINE
8
0
6
CONTINUOUS
10
6.319615
20
105.207720
30
0.0
11
2.416085
21
104.591000
31
0.0
0
LINE
8
0
6
CONTINUOUS
10
5.469945
20
105.066230
30
0.0
11
6.319615
21
105.207720
31
0.0
0
LINE
8
0
6
CONTINUOUS
10
5.469945
20
105.066230
30
0.0
11
1.671875
21
104.578960
31
0.0
0
LINE
8
0
6
CONTINUOUS
10
0.068805
20
58.891960
30
0.0
11
0.473695
21
69.395170
31
0.0
0
LINE
8
0
6
CONTINUOUS
10
0.473695
20
69.395170
30
0.0
11
1.241575
21
81.883000
31
0.0
0
LINE
8
0
6
CONTINUOUS
10
-2.203445
20
104.859610
30
0.0
11
-7.003985
21
106.072570
31
0.0
0
LINE
8
0
6
CONTINUOUS
10
-2.415375
20
-27.742470
30
0.0
11
-0.771555
21
28.386390
31
0.0
0
LINE
8
0
6
CONTINUOUS
10
-21.668665
20
13.447040
30
0.0
11
-16.998975
21
14.787850
31
0.0
0
LINE
8
0
6
CONTINUOUS
10
-21.689615
20
13.927880
30
0.0
11
-17.535605
21
15.531920
31
0.0
0
LINE
8
0
6
CONTINUOUS
10
-18.153665
20
49.564700
30
0.0
11
-21.025025
21
47.535320
31
0.0
0
LINE
8
0
6
CONTINUOUS
10
-21.929165
20
16.390720
30
0.0
11
-18.402705
21
17.598530
31
0.0
0
LINE
8
0
6
CONTINUOUS
10
-17.873115
20
-41.179760
30
0.0
11
-10.682595
21
-41.179760
31
0.0
0
LINE
8
0
6
CONTINUOUS
10
-33.108395
20
21.283880
30
0.0
11
-29.986505
21
17.732710
31
0.0
0
LINE
8
0
6
CONTINUOUS
10
-32.491385
20
21.548130
30
0.0
11
-29.312405
21
18.394910
31
0.0
0
LINE
8
0
6
CONTINUOUS
10
-27.092525
20
46.341450
30
0.0
11
-30.796075
21
48.061690
31
0.0
0
LINE
8
0
6
CONTINUOUS
10
-30.569545
20
23.263700
30
0.0
11
-28.133205
21
20.482420
31
0.0
0
LINE
8
0
6
CONTINUOUS
10
-34.010375
20
-41.179760
30
0.0
11
-28.938245
21
-41.179760
31
0.0
0
LINE
8
0
6
CONTINUOUS
10
-25.270135
20
122.262220
30
0.0
11
-26.136595
21
122.806220
31
0.0
0
LINE
8
0
6
CONTINUOUS
10
-41.766995
20
44.521880
30
0.0
11
-41.202065
21
42.531730
31
0.0
0
LINE
8
0
6
CONTINUOUS
10
-39.508535
20
44.978270
30
0.0
11
-38.846415
21
43.074770
31
0.0
0
LINE
8
0
6
CONTINUOUS
10
-39.348145
20
46.242590
30
0.0
11
-38.592145
21
43.529830
31
0.0
0
LINE
8
0
6
CONTINUOUS
10
-38.592145
20
43.529830
30
0.0
11
-39.106715
21
45.391150
31
0.0
0
LINE
8
0
6
CONTINUOUS
10
-53.220695
20
72.045760
30
0.0
11
-52.829685
21
70.150210
31
0.0
0
LINE
8
0
6
CONTINUOUS
10
17.665575
20
110.236350
30
0.0
11
17.678405
21
111.140260
31
0.0
0
LINE
8
0
6
CONTINUOUS
10
17.375415
20
109.512260
30
0.0
11
17.665575
21
110.236350
31
0.0
0
LINE
8
0
6
CONTINUOUS
10
-1.779625
20
45.741420
30
0.0
11
-2.565945
21
42.656110
31
0.0
0
LINE
8
0
6
CONTINUOUS
10
-4.942545
20
42.523280
30
0.0
11
-6.978545
21
34.799480
31
0.0
0
LINE
8
0
6
CONTINUOUS
10
-5.699195
20
34.376440
30
0.0
11
-3.485765
21
42.248370
31
0.0
0
LINE
8
0
6
CONTINUOUS
10
-8.104575
20
35.307580
30
0.0
11
-6.304135
21
42.762840
31
0.0
0
LINE
8
0
6
CONTINUOUS
10
8.748195
20
106.512000
30
0.0
11
11.559965
21
109.720550
31
0.0
0
LINE
8
0
6
CONTINUOUS
10
11.991165
20
110.256320
30
0.0
11
8.748195
21
106.512000
31
0.0
0
LINE
8
0
6
CONTINUOUS
10
1.436075
20
60.274170
30
0.0
11
2.223455
21
63.827370
31
0.0
0
LINE
8
0
6
CONTINUOUS
10
11.559965
20
109.720550
30
0.0
11
8.005665
21
106.206750
31
0.0
0
LINE
8
0
6
CONTINUOUS
10
2.266085
20
86.337790
30
0.0
11
1.241575
21
81.883000
31
0.0
0
LINE
8
0
6
CONTINUOUS
10
0.139925
20
76.901220
30
0.0
11
2.266085
21
86.337790
31
0.0
0
LINE
8
0
6
CONTINUOUS
10
1.241575
20
81.883000
30
0.0
11
0.139925
21
76.901220
31
0.0
0
LINE
8
0
6
CONTINUOUS
10
-2.445435
20
72.989970
30
0.0
11
-1.087375
21
76.119340
31
0.0
0
LINE
8
0
6
CONTINUOUS
10
0.390605
20
80.950400
30
0.0
11
-2.445435
21
72.989970
31
0.0
0
LINE
8
0
6
CONTINUOUS
10
-1.087375
20
76.119340
30
0.0
11
-4.400915
21
69.720200
31
0.0
0
LINE
8
0
6
CONTINUOUS
10
-4.400915
20
69.720200
30
0.0
11
-5.845575
21
66.949190
31
0.0
0
LINE
8
0
6
CONTINUOUS
10
1.241575
20
81.883000
30
0.0
11
4.282835
21
92.156880
31
0.0
0
LINE
8
0
6
CONTINUOUS
10
-2.175355
20
43.929380
30
0.0
11
-1.200515
21
48.050130
31
0.0
0
LINE
8
0
6
CONTINUOUS
10
2.223455
20
63.827370
30
0.0
11
3.002015
21
67.479490
31
0.0
0
LINE
8
0
6
CONTINUOUS
10
3.002015
20
67.479490
30
0.0
11
4.011255
21
71.474180
31
0.0
0
LINE
8
0
6
CONTINUOUS
10
-2.069025
20
44.491110
30
0.0
11
-2.807635
21
41.975910
31
0.0
0
LINE
8
0
6
CONTINUOUS
10
-2.565945
20
42.656110
30
0.0
11
-2.069025
21
44.491110
31
0.0
0
LINE
8
0
6
CONTINUOUS
10
-1.200515
20
48.050130
30
0.0
11
-0.310225
21
52.320320
31
0.0
0
LINE
8
0
6
CONTINUOUS
10
-0.310225
20
52.320320
30
0.0
11
0.596495
21
56.451870
31
0.0
0
LINE
8
0
6
CONTINUOUS
10
0.596495
20
56.451870
30
0.0
11
1.436075
21
60.274170
31
0.0
0
LINE
8
0
6
CONTINUOUS
10
-41.659905
20
66.503570
30
0.0
11
-41.039365
21
59.141400
31
0.0
0
LINE
8
0
6
CONTINUOUS
10
-38.267785
20
-29.687030
30
0.0
11
-37.754585
21
-29.694280
31
0.0
0
LINE
8
0
6
CONTINUOUS
10
-38.443565
20
-27.700270
30
0.0
11
-38.267785
21
-29.687030
31
0.0
0
LINE
8
0
6
CONTINUOUS
10
-41.039365
20
59.141400
30
0.0
11
-40.574415
21
49.183280
31
0.0
0
LINE
8
0
6
CONTINUOUS
10
-0.395425
20
38.121860
30
0.0
11
-0.143825
21
47.818400
31
0.0
0
LINE
8
0
6
CONTINUOUS
10
-40.072505
20
39.288870
30
0.0
11
-40.345595
21
47.773940
31
0.0
0
LINE
8
0
6
CONTINUOUS
10
-40.345595
20
47.773940
30
0.0
11
-40.264595
21
38.394790
31
0.0
0
LINE
8
0
6
CONTINUOUS
10
-40.574415
20
49.183280
30
0.0
11
-40.072505
21
39.288870
31
0.0
0
LINE
8
0
6
CONTINUOUS
10
-0.771555
20
28.386390
30
0.0
11
-0.395425
21
38.121860
31
0.0
0
LINE
8
0
6
CONTINUOUS
10
-28.398725
20
123.692370
30
0.0
11
-29.553745
21
123.764390
31
0.0
0
LINE
8
0
6
CONTINUOUS
10
-29.553745
20
123.764390
30
0.0
11
-30.571535
21
123.628870
31
0.0
0
LINE
8
0
6
CONTINUOUS
10
17.182275
20
110.121050
30
0.0
11
17.535825
21
110.841320
31
0.0
0
LINE
8
0
6
CONTINUOUS
10
16.317695
20
111.284710
30
0.0
11
16.693135
21
111.947870
31
0.0
0
LINE
8
0
6
CONTINUOUS
10
-7.003985
20
106.072570
30
0.0
11
-11.831795
21
108.146960
31
0.0
0
LINE
8
0
6
CONTINUOUS
10
2.416085
20
104.591000
30
0.0
11
-2.203445
21
104.859610
31
0.0
0
LINE
8
0
6
CONTINUOUS
10
1.671875
20
104.578960
30
0.0
11
2.416085
21
104.591000
31
0.0
0
LINE
8
0
6
CONTINUOUS
10
-24.734345
20
121.172170
30
0.0
11
-20.490915
21
115.359810
31
0.0
0
LINE
8
0
6
CONTINUOUS
10
-20.490915
20
115.359810
30
0.0
11
-25.270135
21
122.262220
31
0.0
0
LINE
8
0
6
CONTINUOUS
10
15.211655
20
112.355890
30
0.0
11
13.891295
21
112.104750
31
0.0
0
LINE
8
0
6
CONTINUOUS
10
13.891295
20
112.104750
30
0.0
11
13.822245
21
112.056490
31
0.0
0
LINE
8
0
6
CONTINUOUS
10
-2.371785
20
43.451740
30
0.0
11
-2.069025
21
44.491110
31
0.0
0
LINE
8
0
6
CONTINUOUS
10
-42.456345
20
46.997730
30
0.0
11
-42.052385
21
46.088710
31
0.0
0
LINE
8
0
6
CONTINUOUS
10
-2.956445
20
44.262310
30
0.0
11
-2.635185
21
45.678550
31
0.0
0
LINE
8
0
6
CONTINUOUS
10
-39.106715
20
45.391150
30
0.0
11
-39.348145
21
46.242590
31
0.0
0
LINE
8
0
6
CONTINUOUS
10
-40.132965
20
47.013730
30
0.0
11
-39.860455
21
46.233740
31
0.0
0
LINE
8
0
6
CONTINUOUS
10
-5.669015
20
44.737900
30
0.0
11
-5.294955
21
46.067820
31
0.0
0
LINE
8
0
6
CONTINUOUS
10
-21.945205
20
17.704950
30
0.0
11
-21.942805
21
18.266630
31
0.0
0
LINE
8
0
6
CONTINUOUS
10
-37.462915
20
28.623900
30
0.0
11
-40.015245
21
34.617170
31
0.0
0
LINE
8
0
6
CONTINUOUS
10
-40.195225
20
34.933900
30
0.0
11
-37.462915
21
28.623900
31
0.0
0
LINE
8
0
6
CONTINUOUS
10
-2.069025
20
44.491110
30
0.0
11
-1.779625
21
45.741420
31
0.0
0
LINE
8
0
6
CONTINUOUS
10
-31.948715
20
122.625420
30
0.0
11
-38.608415
21
116.215530
31
0.0
0
LINE
8
0
6
CONTINUOUS
10
15.213535
20
105.278250
30
0.0
11
17.182275
21
110.121050
31
0.0
0
LINE
8
0
6
CONTINUOUS
10
-38.608415
20
116.215530
30
0.0
11
-45.124755
21
108.798400
31
0.0
0
LINE
8
0
6
CONTINUOUS
10
-45.124755
20
108.798400
30
0.0
11
-49.872825
21
100.842200
31
0.0
0
LINE
8
0
6
CONTINUOUS
10
13.046075
20
100.037850
30
0.0
11
15.213535
21
105.278250
31
0.0
0
LINE
8
0
6
CONTINUOUS
10
10.839415
20
94.361620
30
0.0
11
13.046075
21
100.037850
31
0.0
0
LINE
8
0
6
CONTINUOUS
10
-30.571535
20
123.628870
30
0.0
11
-31.948715
21
122.625420
31
0.0
0
LINE
8
0
6
CONTINUOUS
10
-42.618235
20
43.905440
30
0.0
11
-42.959195
21
45.179740
31
0.0
0
LINE
8
0
6
CONTINUOUS
10
-42.202875
20
42.508330
30
0.0
11
-42.618235
21
43.905440
31
0.0
0
LINE
8
0
6
CONTINUOUS
10
-49.872825
20
100.842200
30
0.0
11
-52.825855
21
93.731720
31
0.0
0
LINE
8
0
6
CONTINUOUS
10
-52.825855
20
93.731720
30
0.0
11
-54.122405
21
87.342160
31
0.0
0
LINE
8
0
6
CONTINUOUS
10
-54.122405
20
87.342160
30
0.0
11
-54.496045
21
81.599680
31
0.0
0
LINE
8
0
6
CONTINUOUS
10
-54.496045
20
81.599680
30
0.0
11
-54.109735
21
76.624800
31
0.0
0
LINE
8
0
6
CONTINUOUS
10
-54.109735
20
76.624800
30
0.0
11
-53.220695
21
72.045760
31
0.0
0
LINE
8
0
6
CONTINUOUS
10
-39.835265
20
34.300430
30
0.0
11
-37.123975
21
27.804070
31
0.0
0
LINE
8
0
6
CONTINUOUS
10
-29.986505
20
17.732710
30
0.0
11
-26.238225
21
14.849840
31
0.0
0
LINE
8
0
6
CONTINUOUS
10
-53.220695
20
72.045760
30
0.0
11
-51.914385
21
67.914530
31
0.0
0
LINE
8
0
6
CONTINUOUS
10
-51.914385
20
67.914530
30
0.0
11
-50.343215
21
63.919000
31
0.0
0
LINE
8
0
6
CONTINUOUS
10
7.097895
20
82.975610
30
0.0
11
8.848945
21
88.559450
31
0.0
0
LINE
8
0
6
CONTINUOUS
10
4.345955
20
73.147190
30
0.0
11
5.582245
21
77.774760
31
0.0
0
LINE
8
0
6
CONTINUOUS
10
2.561975
20
65.458230
30
0.0
11
3.363585
21
69.128520
31
0.0
0
LINE
8
0
6
CONTINUOUS
10
1.780305
20
61.900630
30
0.0
11
2.561975
21
65.458230
31
0.0
0
LINE
8
0
6
CONTINUOUS
10
-46.727605
20
54.809870
30
0.0
11
-44.837795
21
50.031020
31
0.0
0
LINE
8
0
6
CONTINUOUS
10
-37.123975
20
27.804070
30
0.0
11
-33.108395
21
21.283880
31
0.0
0
LINE
8
0
6
CONTINUOUS
10
-26.238225
20
14.849840
30
0.0
11
-21.668665
21
13.447040
31
0.0
0
LINE
8
0
6
CONTINUOUS
10
-16.998975
20
14.787850
30
0.0
11
-13.420485
21
17.805780
31
0.0
0
LINE
8
0
6
CONTINUOUS
10
-13.420485
20
17.805780
30
0.0
11
-8.417185
21
25.387070
31
0.0
0
LINE
8
0
6
CONTINUOUS
10
-8.417185
20
25.387070
30
0.0
11
-4.933695
21
34.354510
31
0.0
0
LINE
8
0
6
CONTINUOUS
10
-4.776685
20
34.967390
30
0.0
11
-2.175355
21
43.929380
31
0.0
0
LINE
8
0
6
CONTINUOUS
10
-2.565945
20
42.656110
30
0.0
11
-4.776685
21
34.967390
31
0.0
0
LINE
8
0
6
CONTINUOUS
10
-2.807635
20
41.975910
30
0.0
11
-2.371785
21
43.451740
31
0.0
0
LINE
8
0
6
CONTINUOUS
10
17.678405
20
111.140260
30
0.0
11
16.911525
21
111.958130
31
0.0
0
LINE
8
0
6
CONTINUOUS
10
17.535825
20
110.841320
30
0.0
11
17.678405
21
111.140260
31
0.0
0
LINE
8
0
6
CONTINUOUS
10
8.848945
20
88.559450
30
0.0
11
10.839415
21
94.361620
31
0.0
0
LINE
8
0
6
CONTINUOUS
10
5.582245
20
77.774760
30
0.0
11
7.097895
21
82.975610
31
0.0
0
LINE
8
0
6
CONTINUOUS
10
3.363585
20
69.128520
30
0.0
11
4.345955
21
73.147190
31
0.0
0
LINE
8
0
6
CONTINUOUS
10
0.934665
20
58.118790
30
0.0
11
1.780305
21
61.900630
31
0.0
0
LINE
8
0
6
CONTINUOUS
10
0.053115
20
54.069070
30
0.0
11
0.934665
21
58.118790
31
0.0
0
LINE
8
0
6
CONTINUOUS
10
-0.854795
20
49.895680
30
0.0
11
0.053115
21
54.069070
31
0.0
0
LINE
8
0
6
CONTINUOUS
10
-1.779625
20
45.741420
30
0.0
11
-0.854795
21
49.895680
31
0.0
0
LINE
8
0
6
CONTINUOUS
10
-2.635185
20
45.678550
30
0.0
11
-2.419785
21
47.010320
31
0.0
0
LINE
8
0
6
CONTINUOUS
10
-30.894345
20
123.019990
30
0.0
11
-37.122075
21
116.188020
31
0.0
0
LINE
8
0
6
CONTINUOUS
10
14.390595
20
106.303970
30
0.0
11
16.317695
21
111.284710
31
0.0
0
LINE
8
0
6
CONTINUOUS
10
-37.122075
20
116.188020
30
0.0
11
-43.179745
21
108.673810
31
0.0
0
LINE
8
0
6
CONTINUOUS
10
-43.179745
20
108.673810
30
0.0
11
-47.234435
21
101.092120
31
0.0
0
LINE
8
0
6
CONTINUOUS
10
12.010595
20
101.075070
30
0.0
11
14.390595
21
106.303970
31
0.0
0
LINE
8
0
6
CONTINUOUS
10
9.595055
20
95.467560
30
0.0
11
12.010595
21
101.075070
31
0.0
0
LINE
8
0
6
CONTINUOUS
10
-47.234435
20
101.092120
30
0.0
11
-50.330285
21
94.416090
31
0.0
0
LINE
8
0
6
CONTINUOUS
10
-50.330285
20
94.416090
30
0.0
11
-52.105845
21
88.429770
31
0.0
0
LINE
8
0
6
CONTINUOUS
10
-37.845215
20
35.144420
30
0.0
11
-39.433675
21
40.732600
31
0.0
0
LINE
8
0
6
CONTINUOUS
10
-40.855715
20
40.421340
30
0.0
11
-39.172495
21
34.427210
31
0.0
0
LINE
8
0
6
CONTINUOUS
10
-52.105845
20
88.429770
30
0.0
11
-52.678775
21
82.644630
31
0.0
0
LINE
8
0
6
CONTINUOUS
10
-52.678775
20
82.644630
30
0.0
11
-52.385575
21
77.573160
31
0.0
0
LINE
8
0
6
CONTINUOUS
10
-52.385575
20
77.573160
30
0.0
11
-51.700495
21
73.016900
31
0.0
0
LINE
8
0
6
CONTINUOUS
10
-39.172495
20
34.427210
30
0.0
11
-36.483895
21
27.800650
31
0.0
0
LINE
8
0
6
CONTINUOUS
10
-29.312405
20
18.394910
30
0.0
11
-26.028155
21
15.363640
31
0.0
0
LINE
8
0
6
CONTINUOUS
10
-51.700495
20
73.016900
30
0.0
11
-50.565315
21
68.893810
31
0.0
0
LINE
8
0
6
CONTINUOUS
10
-50.565315
20
68.893810
30
0.0
11
-49.022975
21
64.915720
31
0.0
0
LINE
8
0
6
CONTINUOUS
10
5.870965
20
84.237830
30
0.0
11
7.609025
21
89.784350
31
0.0
0
LINE
8
0
6
CONTINUOUS
10
3.308845
20
74.307220
30
0.0
11
4.421795
21
79.009160
31
0.0
0
LINE
8
0
6
CONTINUOUS
10
1.849075
20
66.646530
30
0.0
11
2.566475
21
70.192180
31
0.0
0
LINE
8
0
6
CONTINUOUS
10
1.024815
20
63.003070
30
0.0
11
1.849075
21
66.646530
31
0.0
0
LINE
8
0
6
CONTINUOUS
10
-26.136595
20
122.806220
30
0.0
11
-27.670375
21
123.448820
31
0.0
0
LINE
8
0
6
CONTINUOUS
10
-27.202885
20
123.016650
30
0.0
11
-26.136595
21
122.806220
31
0.0
0
LINE
8
0
6
CONTINUOUS
10
-27.670375
20
123.448820
30
0.0
11
-28.398725
21
123.692370
31
0.0
0
LINE
8
0
6
CONTINUOUS
10
-49.022975
20
64.915720
30
0.0
11
-47.310245
21
60.430820
31
0.0
0
LINE
8
0
6
CONTINUOUS
10
-47.310245
20
60.430820
30
0.0
11
-45.509695
21
55.776590
31
0.0
0
LINE
8
0
6
CONTINUOUS
10
-43.743885
20
51.000700
30
0.0
11
-42.456345
21
46.997730
31
0.0
0
LINE
8
0
6
CONTINUOUS
10
-45.509695
20
55.776590
30
0.0
11
-43.743885
21
51.000700
31
0.0
0
LINE
8
0
6
CONTINUOUS
10
-36.483895
20
27.800650
30
0.0
11
-32.491385
21
21.548130
31
0.0
0
LINE
8
0
6
CONTINUOUS
10
-26.028155
20
15.363640
30
0.0
11
-21.689615
21
13.927880
31
0.0
0
LINE
8
0
6
CONTINUOUS
10
-17.535605
20
15.531920
30
0.0
11
-13.902235
21
18.075700
31
0.0
0
LINE
8
0
6
CONTINUOUS
10
-13.902235
20
18.075700
30
0.0
11
-9.079245
21
25.452930
31
0.0
0
LINE
8
0
6
CONTINUOUS
10
-9.079245
20
25.452930
30
0.0
11
-5.699195
21
34.376440
31
0.0
0
LINE
8
0
6
CONTINUOUS
10
-3.485765
20
42.248370
30
0.0
11
-2.956445
21
44.262310
31
0.0
0
LINE
8
0
6
CONTINUOUS
10
15.608175
20
112.374890
30
0.0
11
15.211655
21
112.355890
31
0.0
0
LINE
8
0
6
CONTINUOUS
10
16.911525
20
111.958130
30
0.0
11
15.608175
21
112.374890
31
0.0
0
LINE
8
0
6
CONTINUOUS
10
16.693135
20
111.947870
30
0.0
11
16.911525
21
111.958130
31
0.0
0
LINE
8
0
6
CONTINUOUS
10
7.609025
20
89.784350
30
0.0
11
9.595055
21
95.467560
31
0.0
0
LINE
8
0
6
CONTINUOUS
10
4.421795
20
79.009160
30
0.0
11
5.870965
21
84.237830
31
0.0
0
LINE
8
0
6
CONTINUOUS
10
2.566475
20
70.192180
30
0.0
11
3.308845
21
74.307220
31
0.0
0
LINE
8
0
6
CONTINUOUS
10
0.176815
20
59.141400
30
0.0
11
1.024815
21
63.003070
31
0.0
0
LINE
8
0
6
CONTINUOUS
10
-0.699665
20
55.110730
30
0.0
11
0.176815
21
59.141400
31
0.0
0
LINE
8
0
6
CONTINUOUS
10
-1.584945
20
51.057960
30
0.0
11
-0.699665
21
55.110730
31
0.0
0
LINE
8
0
6
CONTINUOUS
10
-2.419785
20
47.010320
30
0.0
11
-1.584945
21
51.057960
31
0.0
0
LINE
8
0
6
CONTINUOUS
10
-34.576615
20
51.868260
30
0.0
11
-38.932045
21
58.837630
31
0.0
0
LINE
8
0
6
CONTINUOUS
10
-30.796075
20
48.061690
30
0.0
11
-34.576615
21
51.868260
31
0.0
0
LINE
8
0
6
CONTINUOUS
10
-23.793405
20
46.372420
30
0.0
11
-27.092525
21
46.341450
31
0.0
0
LINE
8
0
6
CONTINUOUS
10
-21.025025
20
47.535320
30
0.0
11
-23.793405
21
46.372420
31
0.0
0
LINE
8
0
6
CONTINUOUS
10
-14.708155
20
52.957600
30
0.0
11
-18.153665
21
49.564700
31
0.0
0
LINE
8
0
6
CONTINUOUS
10
-39.860455
20
46.233740
30
0.0
11
-39.508535
21
44.978270
31
0.0
0
LINE
8
0
6
CONTINUOUS
10
-5.294955
20
46.067820
30
0.0
11
-5.081655
21
46.954490
31
0.0
0
LINE
8
0
6
CONTINUOUS
10
-11.674395
20
108.191840
30
0.0
11
-16.141415
21
111.241390
31
0.0
0
LINE
8
0
6
CONTINUOUS
10
-41.202065
20
42.531730
30
0.0
11
-40.855715
21
40.421340
31
0.0
0
LINE
8
0
6
CONTINUOUS
10
-19.895655
20
114.924960
30
0.0
11
-24.734345
21
121.172170
31
0.0
0
LINE
8
0
6
CONTINUOUS
10
-38.229805
20
41.269710
30
0.0
11
-36.519995
21
35.663920
31
0.0
0
LINE
8
0
6
CONTINUOUS
10
-16.141415
20
111.241390
30
0.0
11
-19.895655
21
114.924960
31
0.0
0
LINE
8
0
6
CONTINUOUS
10
-11.831795
20
108.146960
30
0.0
11
-6.563065
21
105.804930
31
0.0
0
LINE
8
0
6
CONTINUOUS
10
-6.563065
20
105.804930
30
0.0
11
-11.674395
21
108.191840
31
0.0
0
LINE
8
0
6
CONTINUOUS
10
-36.519995
20
35.663920
30
0.0
11
-33.963545
21
29.189670
31
0.0
0
LINE
8
0
6
CONTINUOUS
10
-28.133205
20
20.482420
30
0.0
11
-25.473755
21
17.835470
31
0.0
0
LINE
8
0
6
CONTINUOUS
10
-33.963545
20
29.189670
30
0.0
11
-30.569545
21
23.263700
31
0.0
0
LINE
8
0
6
CONTINUOUS
10
-21.929165
20
16.390720
30
0.0
11
-21.947915
21
17.142850
31
0.0
0
LINE
8
0
6
CONTINUOUS
10
-25.473755
20
17.835470
30
0.0
11
-21.929165
21
16.390720
31
0.0
0
LINE
8
0
6
CONTINUOUS
10
-18.402705
20
17.598530
30
0.0
11
-15.573205
21
19.955660
31
0.0
0
LINE
8
0
6
CONTINUOUS
10
-15.573205
20
19.955660
30
0.0
11
-11.322235
21
26.691420
31
0.0
0
LINE
8
0
6
CONTINUOUS
10
-11.322235
20
26.691420
30
0.0
11
-8.104575
21
35.307580
31
0.0
0
LINE
8
0
6
CONTINUOUS
10
-6.304135
20
42.762840
30
0.0
11
-5.669015
21
44.737900
31
0.0
0
LINE
8
0
6
CONTINUOUS
10
13.822245
20
112.056490
30
0.0
11
12.992985
21
111.257140
31
0.0
0
LINE
8
0
6
CONTINUOUS
10
12.992985
20
111.257140
30
0.0
11
12.896675
21
111.150900
31
0.0
0
LINE
8
0
6
CONTINUOUS
10
-38.846415
20
43.074770
30
0.0
11
-38.229805
21
41.269710
31
0.0
0
LINE
8
0
6
CONTINUOUS
10
8.005665
20
106.206750
30
0.0
11
5.469945
21
105.066230
31
0.0
0
LINE
8
0
6
CONTINUOUS
10
-37.754585
20
-29.694280
30
0.0
11
-35.881125
21
-29.694510
31
0.0
0
LINE
8
0
6
CONTINUOUS
10
12.896675
20
111.150900
30
0.0
11
11.991165
21
110.256320
31
0.0
0
LINE
8
0
6
CONTINUOUS
10
-41.095425
20
63.091590
30
0.0
11
-41.659905
21
66.503570
31
0.0
0
LINE
8
0
6
CONTINUOUS
10
-38.932045
20
58.837630
30
0.0
11
-43.553175
21
68.844140
31
0.0
0
LINE
8
0
6
CONTINUOUS
10
-40.264595
20
38.394790
30
0.0
11
-40.052155
21
28.969220
31
0.0
0
LINE
8
0
6
CONTINUOUS
10
-43.553175
20
68.844140
30
0.0
11
-41.095425
21
63.091590
31
0.0
0
LINE
8
0
6
CONTINUOUS
10
4.282835
20
92.156880
30
0.0
11
2.266085
21
86.337790
31
0.0
0
LINE
8
0
6
CONTINUOUS
10
-24.158845
20
42.114590
30
0.0
11
-24.464385
21
38.267780
31
0.0
0
LINE
8
0
6
CONTINUOUS
10
-10.227355
20
58.690750
30
0.0
11
-14.708155
21
52.957600
31
0.0
0
LINE
8
0
6
CONTINUOUS
10
-5.845575
20
66.949190
30
0.0
11
-10.227355
21
58.690750
31
0.0
0
LINE
8
0
6
CONTINUOUS
10
-21.947915
20
17.142850
30
0.0
11
-21.945205
21
17.704950
31
0.0
0
LINE
8
0
6
CONTINUOUS
10
2.266085
20
86.337790
30
0.0
11
0.390605
21
80.950400
31
0.0
0
LINE
8
0
6
CONTINUOUS
10
-39.009065
20
32.299240
30
0.0
11
-40.186136
21
34.913712
31
0.0
0
LINE
8
0
6
CONTINUOUS
10
-42.219005
20
39.426430
30
0.0
11
-39.009065
21
32.299240
31
0.0
0
LINE
8
0
6
CONTINUOUS
10
-43.262545
20
46.079440
30
0.0
11
-44.837795
21
50.031020
31
0.0
0
LINE
8
0
6
CONTINUOUS
10
-1.200515
20
48.050130
30
0.0
11
-4.604415
21
35.575930
31
0.0
0
LINE
8
0
6
CONTINUOUS
10
-3.420465
20
39.313860
30
0.0
11
-1.200515
21
48.050130
31
0.0
0
LINE
8
0
6
CONTINUOUS
10
-4.604415
20
35.575930
30
0.0
11
-3.420465
21
39.313860
31
0.0
0
LINE
8
0
6
CONTINUOUS
10
0.969965
20
-41.179760
30
0.0
11
4.416505
21
-41.179760
31
0.0
0
LINE
8
0
6
CONTINUOUS
10
-28.938245
20
-41.179760
30
0.0
11
-23.466125
21
-41.179760
31
0.0
0
LINE
8
0
6
CONTINUOUS
10
-10.682595
20
-41.179760
30
0.0
11
-5.089235
21
-41.179760
31
0.0
0
LINE
8
0
6
CONTINUOUS
10
-39.117665
20
-41.179760
30
0.0
11
-34.010375
21
-41.179760
31
0.0
0
LINE
8
0
6
CONTINUOUS
10
-45.706785
20
-41.179760
30
0.0
11
-43.333195
21
-41.179760
31
0.0
0
LINE
8
0
6
CONTINUOUS
10
-45.782375
20
-38.695970
30
0.0
11
-45.706785
21
-41.179760
31
0.0
0
LINE
8
0
6
CONTINUOUS
10
4.870665
20
-41.179760
30
0.0
11
4.944445
21
-38.759130
31
0.0
0
LINE
8
0
6
CONTINUOUS
10
4.416505
20
-41.179760
30
0.0
11
4.870665
21
-41.179760
31
0.0
0
LINE
8
0
6
CONTINUOUS
10
-43.333195
20
-41.179760
30
0.0
11
-39.117665
21
-41.179760
31
0.0
0
LINE
8
0
6
CONTINUOUS
10
-23.466125
20
-41.179760
30
0.0
11
-17.873115
21
-41.179760
31
0.0
0
LINE
8
0
6
CONTINUOUS
10
-5.089235
20
-41.179760
30
0.0
11
0.969965
21
-41.179760
31
0.0
0
LINE
8
0
6
CONTINUOUS
10
14.814795
20
103.140710
30
0.0
11
17.375415
21
109.512260
31
0.0
0
LINE
8
0
6
CONTINUOUS
10
17.102725
20
108.950630
30
0.0
11
14.814795
21
103.140710
31
0.0
0
LINE
8
0
6
CONTINUOUS
10
11.289895
20
91.640650
30
0.0
11
13.673145
21
98.759910
31
0.0
0
LINE
8
0
6
CONTINUOUS
10
12.985325
20
98.810890
30
0.0
11
11.289895
21
91.640650
31
0.0
0
LINE
8
0
6
CONTINUOUS
10
-50.265185
20
61.214460
30
0.0
11
-48.971715
21
57.853630
31
0.0
0
LINE
8
0
6
CONTINUOUS
10
-48.294725
20
55.446180
30
0.0
11
-52.136475
21
68.089420
31
0.0
0
LINE
8
0
6
CONTINUOUS
10
-52.136475
20
68.089420
30
0.0
11
-49.555645
21
58.255360
31
0.0
0
LINE
8
0
6
CONTINUOUS
10
-47.125965
20
53.381700
30
0.0
11
-51.308055
21
64.518200
31
0.0
0
LINE
8
0
6
CONTINUOUS
10
-51.308055
20
64.518200
30
0.0
11
-48.294725
21
55.446180
31
0.0
0
LINE
8
0
6
CONTINUOUS
10
-46.236805
20
50.761600
30
0.0
11
-47.458205
21
54.053550
31
0.0
0
LINE
8
0
6
CONTINUOUS
10
-48.971715
20
57.853630
30
0.0
11
-46.236805
21
50.761600
31
0.0
0
LINE
8
0
6
CONTINUOUS
10
-42.959195
20
45.179740
30
0.0
11
-43.262545
21
46.079440
31
0.0
0
LINE
8
0
6
CONTINUOUS
10
-46.727605
20
54.809870
30
0.0
11
-48.566815
21
59.457450
31
0.0
0
LINE
8
0
6
CONTINUOUS
10
-48.566815
20
59.457450
30
0.0
11
-50.343215
21
63.919000
31
0.0
0
LINE
8
0
6
CONTINUOUS
10
-51.308055
20
64.518200
30
0.0
11
-50.265185
21
61.214460
31
0.0
0
LINE
8
0
6
CONTINUOUS
10
-52.829685
20
70.150210
30
0.0
11
-51.308055
21
64.518200
31
0.0
0
LINE
8
0
6
CONTINUOUS
10
-47.680145
20
25.134650
30
0.0
11
-47.380965
21
13.249700
31
0.0
0
LINE
8
0
6
CONTINUOUS
10
-47.999425
20
37.608940
30
0.0
11
-47.680145
21
25.134650
31
0.0
0
LINE
8
0
6
CONTINUOUS
10
-47.380965
20
13.249700
30
0.0
11
-47.011415
21
1.689960
31
0.0
0
LINE
8
0
6
CONTINUOUS
10
-48.864895
20
50.707350
30
0.0
11
-47.999425
21
37.608940
31
0.0
0
LINE
8
0
6
CONTINUOUS
10
-47.556115
20
48.461030
30
0.0
11
-50.227815
21
63.906930
31
0.0
0
LINE
8
0
6
CONTINUOUS
10
-50.227815
20
63.906930
30
0.0
11
-48.864895
21
50.707350
31
0.0
0
LINE
8
0
6
CONTINUOUS
10
-45.975615
20
46.502330
30
0.0
11
-50.107005
21
60.801460
31
0.0
0
LINE
8
0
6
CONTINUOUS
10
-50.107005
20
60.801460
30
0.0
11
-47.556115
21
48.461030
31
0.0
0
LINE
8
0
6
CONTINUOUS
10
-49.555645
20
58.255360
30
0.0
11
-52.476825
21
72.163270
31
0.0
0
LINE
8
0
6
CONTINUOUS
10
-50.107005
20
60.801460
30
0.0
11
-49.555645
21
58.255360
31
0.0
0
LINE
8
0
6
CONTINUOUS
10
-52.476825
20
72.163270
30
0.0
11
-50.107005
21
60.801460
31
0.0
0
LINE
8
0
6
CONTINUOUS
10
-49.555645
20
58.255360
30
0.0
11
-45.975615
21
46.502330
31
0.0
0
LINE
8
0
6
CONTINUOUS
10
-37.294265
20
28.213570
30
0.0
11
-39.835265
21
34.300430
31
0.0
0
LINE
8
0
6
CONTINUOUS
10
-40.015245
20
34.617170
30
0.0
11
-37.294265
21
28.213570
31
0.0
0
LINE
8
0
6
CONTINUOUS
10
8.366925
20
62.763190
30
0.0
11
9.174359
21
81.451322
31
0.0
0
LINE
8
0
6
CONTINUOUS
10
9.174375
20
81.451690
30
0.0
11
8.517875
21
76.605560
31
0.0
0
LINE
8
0
6
CONTINUOUS
10
13.673145
20
98.759910
30
0.0
11
17.102725
21
108.950630
31
0.0
0
LINE
8
0
6
CONTINUOUS
10
8.517875
20
76.605560
30
0.0
11
10.721475
21
92.871180
31
0.0
0
LINE
8
0
6
CONTINUOUS
10
6.602445
20
12.696170
30
0.0
11
7.054555
21
24.669160
31
0.0
0
LINE
8
0
6
CONTINUOUS
10
7.537765
20
36.723200
30
0.0
11
8.016415
21
49.344190
31
0.0
0
LINE
8
0
6
CONTINUOUS
10
-4.068235
20
48.825920
30
0.0
11
-0.435615
21
55.953780
31
0.0
0
LINE
8
0
6
CONTINUOUS
10
-0.435615
20
55.953780
30
0.0
11
-5.841155
21
46.666580
31
0.0
0
LINE
8
0
6
CONTINUOUS
10
7.054555
20
24.669160
30
0.0
11
7.537765
21
36.723200
31
0.0
0
LINE
8
0
6
CONTINUOUS
10
8.016415
20
49.344190
30
0.0
11
8.366925
21
62.763190
31
0.0
0
LINE
8
0
6
CONTINUOUS
10
0.412775
20
59.391280
30
0.0
11
-4.068235
21
48.825920
31
0.0
0
LINE
8
0
6
CONTINUOUS
10
6.144055
20
0.599890
30
0.0
11
6.602445
21
12.696170
31
0.0
0
LINE
8
0
6
CONTINUOUS
10
-43.772905
20
43.610950
30
0.0
11
-42.219005
21
39.426430
31
0.0
0
LINE
8
0
6
CONTINUOUS
10
-47.458205
20
54.053550
30
0.0
11
-45.163575
21
47.464690
31
0.0
0
LINE
8
0
6
CONTINUOUS
10
-45.163575
20
47.464690
30
0.0
11
-43.772905
21
43.610950
31
0.0
0
LINE
8
0
6
CONTINUOUS
10
4.011255
20
71.474180
30
0.0
11
0.412775
21
59.391280
31
0.0
0
LINE
8
0
6
CONTINUOUS
10
-4.933695
20
34.354510
30
0.0
11
-2.565945
21
42.656110
31
0.0
0
LINE
8
0
6
CONTINUOUS
10
9.174375
20
81.451690
30
0.0
11
12.985325
21
98.810890
31
0.0
0
LINE
8
0
6
CONTINUOUS
10
10.721475
20
92.871180
30
0.0
11
9.174375
21
81.451690
31
0.0
0
ENDSEC
0
EOF
