999
Erzeugt mit innoplus bad 
0
SECTION
2
HEADER
9
$ACADVER
1
AC1009
9
$DWGCODEPAGE
3
ISO8859-1
0
ENDSEC
0
SECTION
2
TABLES
0
TABLE
2
LAYER
70
1
0
LAYER
2
0
70
0
62
7
6
CONTINUOUS
0
ENDTAB
0
ENDSEC
0
SECTION
2
ENTITIES
0
LINE
8
0
6
CONTINUOUS
10
-21.380125
20
118.301600
30
0.0
11
-21.342285
21
122.683570
31
0.0
0
LINE
8
0
6
CONTINUOUS
10
-21.197385
20
125.380080
30
0.0
11
-21.197385
21
125.810210
31
0.0
0
LINE
8
0
6
CONTINUOUS
10
-23.103495
20
118.052200
30
0.0
11
-23.103485
21
118.482330
31
0.0
0
LINE
8
0
6
CONTINUOUS
10
-49.651935
20
125.810260
30
0.0
11
-49.651935
21
125.380120
31
0.0
0
LINE
8
0
6
CONTINUOUS
10
-47.745855
20
118.482360
30
0.0
11
-47.745855
21
118.052260
31
0.0
0
LINE
8
0
6
CONTINUOUS
10
-28.311045
20
112.687800
30
0.0
11
-28.311045
21
113.117930
31
0.0
0
LINE
8
0
6
CONTINUOUS
10
-42.538315
20
113.117980
30
0.0
11
-42.538315
21
112.687840
31
0.0
0
LINE
8
0
6
CONTINUOUS
10
-35.424685
20
110.724380
30
0.0
11
-35.424685
21
111.154440
31
0.0
0
LINE
8
0
6
CONTINUOUS
10
-35.424685
20
110.690350
30
0.0
11
-28.311045
21
112.653850
31
0.0
0
LINE
8
0
6
CONTINUOUS
10
-42.538315
20
112.653870
30
0.0
11
-35.424685
21
110.690350
31
0.0
0
LINE
8
0
6
CONTINUOUS
10
-47.745855
20
118.018230
30
0.0
11
-42.538315
21
112.653870
31
0.0
0
LINE
8
0
6
CONTINUOUS
10
-28.311045
20
112.653850
30
0.0
11
-23.103495
21
118.018230
31
0.0
0
LINE
8
0
6
CONTINUOUS
10
-49.651935
20
125.346190
30
0.0
11
-47.745855
21
118.018230
31
0.0
0
LINE
8
0
6
CONTINUOUS
10
-23.103495
20
118.018230
30
0.0
11
-21.197385
21
125.346090
31
0.0
0
LINE
8
0
6
CONTINUOUS
10
-35.424685
20
111.188430
30
0.0
11
-28.311045
21
113.151900
31
0.0
0
LINE
8
0
6
CONTINUOUS
10
-42.538315
20
113.151930
30
0.0
11
-35.424685
21
111.188430
31
0.0
0
LINE
8
0
6
CONTINUOUS
10
-28.310995
20
138.536460
30
0.0
11
-35.424635
21
140.499990
31
0.0
0
LINE
8
0
6
CONTINUOUS
10
-47.745855
20
118.516350
30
0.0
11
-42.538315
21
113.151930
31
0.0
0
LINE
8
0
6
CONTINUOUS
10
-21.197385
20
125.844180
30
0.0
11
-23.103465
21
133.172060
31
0.0
0
LINE
8
0
6
CONTINUOUS
10
-28.311045
20
113.151900
30
0.0
11
-23.103485
21
118.516310
31
0.0
0
LINE
8
0
6
CONTINUOUS
10
-47.745825
20
133.172090
30
0.0
11
-49.651935
21
125.844230
31
0.0
0
LINE
8
0
6
CONTINUOUS
10
-35.424635
20
140.499990
30
0.0
11
-42.538275
21
138.536490
31
0.0
0
LINE
8
0
6
CONTINUOUS
10
-42.538275
20
138.536490
30
0.0
11
-47.745825
21
133.172090
31
0.0
0
LINE
8
0
6
CONTINUOUS
10
-23.103465
20
133.172060
30
0.0
11
-28.310995
21
138.536460
31
0.0
0
LINE
8
0
6
CONTINUOUS
10
-49.651935
20
125.844230
30
0.0
11
-47.745855
21
118.516350
31
0.0
0
LINE
8
0
6
CONTINUOUS
10
-23.103485
20
118.516310
30
0.0
11
-21.197385
21
125.844180
31
0.0
0
LINE
8
0
6
CONTINUOUS
10
-35.429425
20
105.830190
30
0.0
11
-43.689995
21
107.779790
31
0.0
0
LINE
8
0
6
CONTINUOUS
10
-49.494405
20
125.159950
30
0.0
11
-49.494475
21
123.825360
31
0.0
0
LINE
8
0
6
CONTINUOUS
10
-43.689995
20
107.779790
30
0.0
11
-42.469585
21
111.318860
31
0.0
0
LINE
8
0
6
CONTINUOUS
10
-21.354995
20
123.825300
30
0.0
11
-21.354915
21
125.159910
31
0.0
0
LINE
8
0
6
CONTINUOUS
10
-21.339975
20
114.280860
30
0.0
11
-21.380125
21
118.301600
31
0.0
0
LINE
8
0
6
CONTINUOUS
10
-23.239995
20
117.002530
30
0.0
11
-23.239915
21
117.913170
31
0.0
0
LINE
8
0
6
CONTINUOUS
10
-49.467665
20
118.513910
30
0.0
11
-49.512365
21
114.281010
31
0.0
0
LINE
8
0
6
CONTINUOUS
10
-35.429425
20
105.830190
30
0.0
11
-35.428785
21
102.589080
31
0.0
0
LINE
8
0
6
CONTINUOUS
10
-35.424685
20
110.666450
30
0.0
11
-35.424765
21
110.183430
31
0.0
0
LINE
8
0
6
CONTINUOUS
10
-28.389885
20
112.010580
30
0.0
11
-28.389805
21
112.608230
31
0.0
0
LINE
8
0
6
CONTINUOUS
10
-22.528055
20
109.325530
30
0.0
11
-22.479195
21
112.640420
31
0.0
0
LINE
8
0
6
CONTINUOUS
10
-27.169045
20
107.772280
30
0.0
11
-27.271525
21
104.564080
31
0.0
0
LINE
8
0
6
CONTINUOUS
10
-47.609425
20
117.913210
30
0.0
11
-47.609505
21
117.002570
31
0.0
0
LINE
8
0
6
CONTINUOUS
10
-42.459625
20
112.010580
30
0.0
11
-42.459555
21
112.608210
31
0.0
0
LINE
8
0
6
CONTINUOUS
10
-35.429425
20
105.830190
30
0.0
11
-27.169045
21
107.772280
31
0.0
0
LINE
8
0
6
CONTINUOUS
10
-35.424605
20
109.911730
30
0.0
11
-35.429425
21
105.830190
31
0.0
0
LINE
8
0
6
CONTINUOUS
10
-27.169045
20
107.772280
30
0.0
11
-28.412215
21
111.319620
31
0.0
0
LINE
8
0
6
CONTINUOUS
10
-22.844825
20
116.322580
30
0.0
11
-22.479195
21
112.640420
31
0.0
0
LINE
8
0
6
CONTINUOUS
10
-49.512465
20
122.643610
30
0.0
11
-49.467665
21
118.513910
31
0.0
0
LINE
8
0
6
CONTINUOUS
10
-49.494475
20
123.825360
30
0.0
11
-49.512465
21
122.643610
31
0.0
0
LINE
8
0
6
CONTINUOUS
10
-21.342285
20
122.683570
30
0.0
11
-21.354995
21
123.825300
31
0.0
0
LINE
8
0
6
CONTINUOUS
10
-42.469585
20
111.318860
30
0.0
11
-35.424605
21
109.911730
31
0.0
0
LINE
8
0
6
CONTINUOUS
10
-35.424605
20
109.911730
30
0.0
11
-28.412215
21
111.319620
31
0.0
0
LINE
8
0
6
CONTINUOUS
10
-35.424765
20
110.183430
30
0.0
11
-35.424605
21
109.911730
31
0.0
0
LINE
8
0
6
CONTINUOUS
10
-48.029755
20
116.391510
30
0.0
11
-42.469585
21
111.318860
31
0.0
0
LINE
8
0
6
CONTINUOUS
10
-47.609505
20
117.002570
30
0.0
11
-48.029755
21
116.391510
31
0.0
0
LINE
8
0
6
CONTINUOUS
10
-42.469585
20
111.318860
30
0.0
11
-42.459625
21
112.010580
31
0.0
0
LINE
8
0
6
CONTINUOUS
10
-48.370555
20
113.130650
30
0.0
11
-48.334265
21
109.334470
31
0.0
0
LINE
8
0
6
CONTINUOUS
10
-43.689995
20
107.779790
30
0.0
11
-48.370555
21
113.130650
31
0.0
0
LINE
8
0
6
CONTINUOUS
10
-43.588065
20
104.556850
30
0.0
11
-43.689995
21
107.779790
31
0.0
0
LINE
8
0
6
CONTINUOUS
10
-28.412215
20
111.319620
30
0.0
11
-22.850964
21
116.317064
31
0.0
0
LINE
8
0
6
CONTINUOUS
10
-28.389885
20
112.010580
30
0.0
11
-28.412215
21
111.319620
31
0.0
0
LINE
8
0
6
CONTINUOUS
10
-22.844825
20
116.322580
30
0.0
11
-23.239995
21
117.002530
31
0.0
0
LINE
8
0
6
CONTINUOUS
10
-48.095635
20
96.873920
30
0.0
11
-48.334265
21
109.334470
31
0.0
0
LINE
8
0
6
CONTINUOUS
10
-49.512365
20
114.281010
30
0.0
11
-50.044165
21
96.350100
31
0.0
0
LINE
8
0
6
CONTINUOUS
10
-43.588065
20
104.556850
30
0.0
11
-42.772145
21
97.257410
31
0.0
0
LINE
8
0
6
CONTINUOUS
10
-28.228055
20
97.257390
30
0.0
11
-27.271525
21
104.564080
31
0.0
0
LINE
8
0
6
CONTINUOUS
10
-35.428785
20
102.589080
30
0.0
11
-35.500105
21
97.397730
31
0.0
0
LINE
8
0
6
CONTINUOUS
10
-20.955995
20
96.350100
30
0.0
11
-21.339975
21
114.280860
31
0.0
0
LINE
8
0
6
CONTINUOUS
10
-22.528055
20
109.325530
30
0.0
11
-22.904545
21
96.873930
31
0.0
0
LINE
8
0
6
CONTINUOUS
10
-22.904525
20
94.827390
30
0.0
11
-20.955995
21
95.351260
31
0.0
0
LINE
8
0
6
CONTINUOUS
10
-28.228065
20
96.258590
30
0.0
11
-22.904545
21
95.875090
31
0.0
0
LINE
8
0
6
CONTINUOUS
10
-22.904545
20
95.875090
30
0.0
11
-20.955995
21
95.351260
31
0.0
0
LINE
8
0
6
CONTINUOUS
10
-22.904545
20
96.873930
30
0.0
11
-22.904545
21
95.875090
31
0.0
0
LINE
8
0
6
CONTINUOUS
10
-20.955995
20
95.351260
30
0.0
11
-20.955995
21
96.350100
31
0.0
0
LINE
8
0
6
CONTINUOUS
10
-48.095615
20
94.827370
30
0.0
11
-47.734232
21
94.801340
31
0.0
0
LINE
8
0
6
CONTINUOUS
10
-23.265925
20
94.801358
30
0.0
11
-22.904525
21
94.827390
31
0.0
0
LINE
8
0
6
CONTINUOUS
10
-42.772145
20
96.258590
30
0.0
11
-35.500105
21
96.398950
31
0.0
0
LINE
8
0
6
CONTINUOUS
10
-50.044165
20
95.351240
30
0.0
11
-48.095615
21
94.827370
31
0.0
0
LINE
8
0
6
CONTINUOUS
10
-50.044165
20
95.351240
30
0.0
11
-48.095635
21
95.875070
31
0.0
0
LINE
8
0
6
CONTINUOUS
10
-50.044165
20
96.350100
30
0.0
11
-50.044165
21
95.351240
31
0.0
0
LINE
8
0
6
CONTINUOUS
10
-48.095635
20
95.875070
30
0.0
11
-42.772145
21
96.258590
31
0.0
0
LINE
8
0
6
CONTINUOUS
10
-48.095635
20
96.873920
30
0.0
11
-48.095635
21
95.875070
31
0.0
0
LINE
8
0
6
CONTINUOUS
10
-42.772145
20
96.258590
30
0.0
11
-42.772145
21
97.257410
31
0.0
0
LINE
8
0
6
CONTINUOUS
10
-35.500105
20
96.398950
30
0.0
11
-28.228065
21
96.258590
31
0.0
0
LINE
8
0
6
CONTINUOUS
10
-35.500105
20
97.397730
30
0.0
11
-35.500105
21
96.398950
31
0.0
0
LINE
8
0
6
CONTINUOUS
10
-28.228065
20
96.258590
30
0.0
11
-28.228055
21
97.257390
31
0.0
0
LINE
8
0
6
CONTINUOUS
10
-47.624375
20
1.803480
30
0.0
11
-42.500025
21
1.803460
31
0.0
0
LINE
8
0
6
CONTINUOUS
10
-21.500015
20
1.803480
30
0.0
11
-21.500015
21
3.102920
31
0.0
0
LINE
8
0
6
CONTINUOUS
10
-23.375675
20
1.803460
30
0.0
11
-21.500015
21
1.803480
31
0.0
0
LINE
8
0
6
CONTINUOUS
10
-35.500025
20
1.803460
30
0.0
11
-35.500025
21
3.102920
31
0.0
0
LINE
8
0
6
CONTINUOUS
10
-42.500025
20
3.102900
30
0.0
11
-42.500025
21
1.803460
31
0.0
0
LINE
8
0
6
CONTINUOUS
10
-23.375675
20
1.803460
30
0.0
11
-23.375675
21
3.102910
31
0.0
0
LINE
8
0
6
CONTINUOUS
10
-28.500035
20
3.102920
30
0.0
11
-28.500035
21
1.803460
31
0.0
0
LINE
8
0
6
CONTINUOUS
10
-47.624375
20
1.803480
30
0.0
11
-47.624375
21
3.102920
31
0.0
0
LINE
8
0
6
CONTINUOUS
10
-49.500015
20
1.803470
30
0.0
11
-47.624375
21
1.803480
31
0.0
0
LINE
8
0
6
CONTINUOUS
10
-49.500015
20
3.102920
30
0.0
11
-49.500015
21
1.803470
31
0.0
0
LINE
8
0
6
CONTINUOUS
10
-47.624375
20
3.524630
30
0.0
11
-42.500025
21
3.524630
31
0.0
0
LINE
8
0
6
CONTINUOUS
10
-49.500015
20
3.860820
30
0.0
11
-49.500015
21
3.524620
31
0.0
0
LINE
8
0
6
CONTINUOUS
10
-47.624375
20
3.524630
30
0.0
11
-47.624375
21
3.860840
31
0.0
0
LINE
8
0
6
CONTINUOUS
10
-49.500015
20
3.524620
30
0.0
11
-47.624375
21
3.524630
31
0.0
0
LINE
8
0
6
CONTINUOUS
10
-21.500015
20
3.524630
30
0.0
11
-21.500015
21
3.860830
31
0.0
0
LINE
8
0
6
CONTINUOUS
10
-23.375675
20
3.524610
30
0.0
11
-21.500015
21
3.524630
31
0.0
0
LINE
8
0
6
CONTINUOUS
10
-23.375675
20
3.524610
30
0.0
11
-23.375675
21
3.860820
31
0.0
0
LINE
8
0
6
CONTINUOUS
10
-28.500035
20
3.524610
30
0.0
11
-23.375675
21
3.524610
31
0.0
0
LINE
8
0
6
CONTINUOUS
10
-42.500025
20
3.860830
30
0.0
11
-42.500025
21
3.524630
31
0.0
0
LINE
8
0
6
CONTINUOUS
10
-42.500025
20
3.524630
30
0.0
11
-35.500025
21
3.524630
31
0.0
0
LINE
8
0
6
CONTINUOUS
10
-35.500025
20
3.860800
30
0.0
11
-35.500025
21
3.524630
31
0.0
0
LINE
8
0
6
CONTINUOUS
10
-28.500035
20
3.524610
30
0.0
11
-28.500035
21
3.860820
31
0.0
0
LINE
8
0
6
CONTINUOUS
10
-35.500025
20
3.524630
30
0.0
11
-28.500035
21
3.524610
31
0.0
0
LINE
8
0
6
CONTINUOUS
10
-42.500025
20
3.439110
30
0.0
11
-47.624375
21
3.439130
31
0.0
0
LINE
8
0
6
CONTINUOUS
10
-49.500005
20
3.439120
30
0.0
11
-49.500015
21
3.102920
31
0.0
0
LINE
8
0
6
CONTINUOUS
10
-47.624375
20
3.439130
30
0.0
11
-49.500005
21
3.439120
31
0.0
0
LINE
8
0
6
CONTINUOUS
10
-47.624375
20
3.102920
30
0.0
11
-47.624375
21
3.439130
31
0.0
0
LINE
8
0
6
CONTINUOUS
10
-21.500015
20
3.102920
30
0.0
11
-21.500015
21
3.439110
31
0.0
0
LINE
8
0
6
CONTINUOUS
10
-21.837085
20
3.439110
30
0.0
11
-23.667575
21
3.439120
31
0.0
0
LINE
8
0
6
CONTINUOUS
10
-23.375675
20
3.439100
30
0.0
11
-21.500015
21
3.439110
31
0.0
0
LINE
8
0
6
CONTINUOUS
10
-23.375675
20
3.102910
30
0.0
11
-23.375675
21
3.439100
31
0.0
0
LINE
8
0
6
CONTINUOUS
10
-23.667575
20
3.439120
30
0.0
11
-28.668565
21
3.439120
31
0.0
0
LINE
8
0
6
CONTINUOUS
10
-28.500035
20
3.439100
30
0.0
11
-23.375675
21
3.439100
31
0.0
0
LINE
8
0
6
CONTINUOUS
10
-42.500025
20
3.439110
30
0.0
11
-42.500025
21
3.102900
31
0.0
0
LINE
8
0
6
CONTINUOUS
10
-42.331495
20
3.439120
30
0.0
11
-42.500025
21
3.439110
31
0.0
0
LINE
8
0
6
CONTINUOUS
10
-35.500025
20
3.439120
30
0.0
11
-42.331495
21
3.439120
31
0.0
0
LINE
8
0
6
CONTINUOUS
10
-42.500025
20
3.439110
30
0.0
11
-35.500025
21
3.439110
31
0.0
0
LINE
8
0
6
CONTINUOUS
10
-35.500025
20
3.439110
30
0.0
11
-35.500025
21
3.102920
31
0.0
0
LINE
8
0
6
CONTINUOUS
10
-28.500035
20
3.102920
30
0.0
11
-28.500035
21
3.439100
31
0.0
0
LINE
8
0
6
CONTINUOUS
10
-28.668565
20
3.439120
30
0.0
11
-35.500025
21
3.439120
31
0.0
0
LINE
8
0
6
CONTINUOUS
10
-35.500025
20
3.439110
30
0.0
11
-28.500035
21
3.439100
31
0.0
0
LINE
8
0
6
CONTINUOUS
10
-49.500005
20
68.208410
30
0.0
11
-49.500015
21
3.860820
31
0.0
0
LINE
8
0
6
CONTINUOUS
10
-28.500025
20
68.208390
30
0.0
11
-28.500035
21
3.860820
31
0.0
0
LINE
8
0
6
CONTINUOUS
10
-47.624375
20
68.208410
30
0.0
11
-47.624375
21
3.860840
31
0.0
0
LINE
8
0
6
CONTINUOUS
10
-42.500035
20
68.208410
30
0.0
11
-42.500025
21
3.860830
31
0.0
0
LINE
8
0
6
CONTINUOUS
10
-35.500025
20
3.860800
30
0.0
11
-35.500025
21
68.208410
31
0.0
0
LINE
8
0
6
CONTINUOUS
10
-21.500015
20
3.860830
30
0.0
11
-21.500015
21
68.208450
31
0.0
0
LINE
8
0
6
CONTINUOUS
10
-23.375675
20
68.208410
30
0.0
11
-23.375675
21
3.860820
31
0.0
0
LINE
8
0
6
CONTINUOUS
10
-49.495045
20
121.211400
30
0.0
11
-49.500025
21
110.939870
31
0.0
0
LINE
8
0
6
CONTINUOUS
10
-23.265925
20
90.467530
30
0.0
11
-23.265925
21
90.774350
31
0.0
0
LINE
8
0
6
CONTINUOUS
10
-24.905005
20
90.883910
30
0.0
11
-24.905005
21
91.190720
31
0.0
0
LINE
8
0
6
CONTINUOUS
10
-29.383015
20
91.188700
30
0.0
11
-29.383015
21
91.495520
31
0.0
0
LINE
8
0
6
CONTINUOUS
10
-35.500095
20
91.300280
30
0.0
11
-35.500095
21
91.607100
31
0.0
0
LINE
8
0
6
CONTINUOUS
10
-41.617165
20
91.188700
30
0.0
11
-41.617165
21
91.495540
31
0.0
0
LINE
8
0
6
CONTINUOUS
10
-46.095175
20
90.883910
30
0.0
11
-46.095175
21
91.190720
31
0.0
0
LINE
8
0
6
CONTINUOUS
10
-47.734235
20
90.774330
30
0.0
11
-47.734235
21
90.467530
31
0.0
0
LINE
8
0
6
CONTINUOUS
10
-29.382975
20
89.746360
30
0.0
11
-24.904975
21
90.051180
31
0.0
0
LINE
8
0
6
CONTINUOUS
10
-24.904975
20
90.051180
30
0.0
11
-23.265925
21
90.467530
31
0.0
0
LINE
8
0
6
CONTINUOUS
10
-23.265925
20
90.467530
30
0.0
11
-24.905005
21
90.883910
31
0.0
0
LINE
8
0
6
CONTINUOUS
10
-24.905005
20
90.883910
30
0.0
11
-29.383015
21
91.188700
31
0.0
0
LINE
8
0
6
CONTINUOUS
10
-29.383015
20
91.188700
30
0.0
11
-35.500095
21
91.300280
31
0.0
0
LINE
8
0
6
CONTINUOUS
10
-35.500095
20
91.300280
30
0.0
11
-41.617165
21
91.188700
31
0.0
0
LINE
8
0
6
CONTINUOUS
10
-41.617165
20
91.188700
30
0.0
11
-46.095175
21
90.883910
31
0.0
0
LINE
8
0
6
CONTINUOUS
10
-46.095175
20
90.883910
30
0.0
11
-47.734235
21
90.467530
31
0.0
0
LINE
8
0
6
CONTINUOUS
10
-47.734235
20
90.467530
30
0.0
11
-46.095155
21
90.051160
31
0.0
0
LINE
8
0
6
CONTINUOUS
10
-46.095155
20
90.051160
30
0.0
11
-41.617135
21
89.746360
31
0.0
0
LINE
8
0
6
CONTINUOUS
10
-41.617135
20
89.746360
30
0.0
11
-35.500055
21
89.634780
31
0.0
0
LINE
8
0
6
CONTINUOUS
10
-35.500055
20
89.762310
30
0.0
11
-30.319715
21
89.856800
31
0.0
0
LINE
8
0
6
CONTINUOUS
10
-30.319715
20
89.856800
30
0.0
11
-30.319715
21
89.974010
31
0.0
0
LINE
8
0
6
CONTINUOUS
10
-35.500055
20
89.762310
30
0.0
11
-35.500055
21
89.879500
31
0.0
0
LINE
8
0
6
CONTINUOUS
10
-23.265925
20
90.774350
30
0.0
11
-23.265925
21
94.801358
31
0.0
0
LINE
8
0
6
CONTINUOUS
10
-24.905005
20
91.190720
30
0.0
11
-24.905005
21
94.683292
31
0.0
0
LINE
8
0
6
CONTINUOUS
10
-29.383015
20
91.495520
30
0.0
11
-29.383015
21
94.421640
31
0.0
0
LINE
8
0
6
CONTINUOUS
10
-35.500095
20
91.607100
30
0.0
11
-35.500097
21
94.303591
31
0.0
0
LINE
8
0
6
CONTINUOUS
10
-41.617165
20
91.495540
30
0.0
11
-41.617165
21
94.421642
31
0.0
0
LINE
8
0
6
CONTINUOUS
10
-46.095175
20
91.190720
30
0.0
11
-46.095175
21
94.683283
31
0.0
0
LINE
8
0
6
CONTINUOUS
10
-47.734232
20
94.801340
30
0.0
11
-47.734235
21
90.774330
31
0.0
0
LINE
8
0
6
CONTINUOUS
10
-40.680415
20
89.856820
30
0.0
11
-40.680415
21
89.973990
31
0.0
0
LINE
8
0
6
CONTINUOUS
10
-44.472695
20
90.232110
30
0.0
11
-44.472695
21
90.114940
31
0.0
0
LINE
8
0
6
CONTINUOUS
10
-26.527435
20
90.114920
30
0.0
11
-30.319715
21
89.856800
31
0.0
0
LINE
8
0
6
CONTINUOUS
10
-26.527455
20
90.820160
30
0.0
11
-25.139375
21
90.467530
31
0.0
0
LINE
8
0
6
CONTINUOUS
10
-30.319745
20
91.078260
30
0.0
11
-26.527455
21
90.820160
31
0.0
0
LINE
8
0
6
CONTINUOUS
10
-35.500095
20
91.172750
30
0.0
11
-30.319745
21
91.078260
31
0.0
0
LINE
8
0
6
CONTINUOUS
10
-40.680435
20
91.078260
30
0.0
11
-35.500095
21
91.172750
31
0.0
0
LINE
8
0
6
CONTINUOUS
10
-44.472705
20
90.820140
30
0.0
11
-40.680435
21
91.078260
31
0.0
0
LINE
8
0
6
CONTINUOUS
10
-45.860775
20
90.467530
30
0.0
11
-44.472705
21
90.820140
31
0.0
0
LINE
8
0
6
CONTINUOUS
10
-44.472695
20
90.114940
30
0.0
11
-45.860775
21
90.467530
31
0.0
0
LINE
8
0
6
CONTINUOUS
10
-40.680415
20
89.856820
30
0.0
11
-44.472695
21
90.114940
31
0.0
0
LINE
8
0
6
CONTINUOUS
10
-35.500055
20
89.762310
30
0.0
11
-40.680415
21
89.856820
31
0.0
0
LINE
8
0
6
CONTINUOUS
10
-44.472695
20
90.232110
30
0.0
11
-44.472695
21
91.000370
31
0.0
0
LINE
8
0
6
CONTINUOUS
10
-26.527435
20
90.232130
30
0.0
11
-26.527435
21
91.000370
31
0.0
0
LINE
8
0
6
CONTINUOUS
10
-30.319715
20
89.974010
30
0.0
11
-30.319715
21
90.742250
31
0.0
0
LINE
8
0
6
CONTINUOUS
10
-35.500055
20
89.879500
30
0.0
11
-35.500055
21
90.647760
31
0.0
0
LINE
8
0
6
CONTINUOUS
10
-40.680415
20
90.742270
30
0.0
11
-40.680415
21
89.973990
31
0.0
0
LINE
8
0
6
CONTINUOUS
10
-26.527435
20
90.114920
30
0.0
11
-25.139375
21
90.467530
31
0.0
0
LINE
8
0
6
CONTINUOUS
10
-26.527435
20
90.232130
30
0.0
11
-26.527435
21
90.114920
31
0.0
0
LINE
8
0
6
CONTINUOUS
10
-40.680415
20
90.742270
30
0.0
11
-35.500055
21
90.647760
31
0.0
0
LINE
8
0
6
CONTINUOUS
10
-44.472695
20
91.000370
30
0.0
11
-40.680415
21
90.742270
31
0.0
0
LINE
8
0
6
CONTINUOUS
10
-30.319715
20
90.742250
30
0.0
11
-26.527435
21
91.000370
31
0.0
0
LINE
8
0
6
CONTINUOUS
10
-35.500055
20
90.647760
30
0.0
11
-30.319715
21
90.742250
31
0.0
0
LINE
8
0
6
CONTINUOUS
10
-35.500055
20
89.634780
30
0.0
11
-29.382975
21
89.746360
31
0.0
0
LINE
8
0
6
CONTINUOUS
10
-42.500035
20
75.446780
30
0.0
11
-42.500035
21
68.208410
31
0.0
0
LINE
8
0
6
CONTINUOUS
10
-35.500025
20
74.991460
30
0.0
11
-35.500025
21
68.208410
31
0.0
0
LINE
8
0
6
CONTINUOUS
10
-28.500025
20
75.446760
30
0.0
11
-28.500025
21
68.208390
31
0.0
0
LINE
8
0
6
CONTINUOUS
10
-23.375675
20
76.690710
30
0.0
11
-23.375675
21
68.208410
31
0.0
0
LINE
8
0
6
CONTINUOUS
10
-21.500015
20
68.208450
30
0.0
11
-21.500025
21
78.389970
31
0.0
0
LINE
8
0
6
CONTINUOUS
10
-49.500005
20
78.389970
30
0.0
11
-49.500005
21
68.208410
31
0.0
0
LINE
8
0
6
CONTINUOUS
10
-47.624375
20
68.208410
30
0.0
11
-47.624385
21
76.690710
31
0.0
0
LINE
8
0
6
CONTINUOUS
10
-49.500005
20
88.039060
30
0.0
11
-49.500005
21
78.389970
31
0.0
0
LINE
8
0
6
CONTINUOUS
10
-47.624385
20
84.742210
30
0.0
11
-47.624385
21
76.690710
31
0.0
0
LINE
8
0
6
CONTINUOUS
10
-42.500035
20
82.328760
30
0.0
11
-42.500035
21
75.446780
31
0.0
0
LINE
8
0
6
CONTINUOUS
10
-35.500025
20
81.445370
30
0.0
11
-35.500025
21
74.991460
31
0.0
0
LINE
8
0
6
CONTINUOUS
10
-28.500025
20
82.328760
30
0.0
11
-28.500025
21
75.446760
31
0.0
0
LINE
8
0
6
CONTINUOUS
10
-23.375675
20
84.742210
30
0.0
11
-23.375675
21
76.690710
31
0.0
0
LINE
8
0
6
CONTINUOUS
10
-21.500025
20
78.389970
30
0.0
11
-21.500025
21
88.039100
31
0.0
0
LINE
8
0
6
CONTINUOUS
10
-49.500013
20
95.204944
30
0.0
11
-49.500005
21
88.039060
31
0.0
0
LINE
8
0
6
CONTINUOUS
10
-47.624385
20
90.439625
30
0.0
11
-47.624385
21
84.742210
31
0.0
0
LINE
8
0
6
CONTINUOUS
10
-42.500035
20
88.442650
30
0.0
11
-42.500035
21
82.328760
31
0.0
0
LINE
8
0
6
CONTINUOUS
10
-35.500025
20
87.184050
30
0.0
11
-35.500025
21
81.445370
31
0.0
0
LINE
8
0
6
CONTINUOUS
10
-28.500035
20
88.442670
30
0.0
11
-28.500025
21
82.328760
31
0.0
0
LINE
8
0
6
CONTINUOUS
10
-23.375683
20
90.439649
30
0.0
11
-23.375675
21
84.742210
31
0.0
0
LINE
8
0
6
CONTINUOUS
10
-21.500025
20
88.039100
30
0.0
11
-21.500025
21
95.204995
31
0.0
0
LINE
8
0
6
CONTINUOUS
10
-42.500038
20
89.806455
30
0.0
11
-42.500035
21
88.442650
31
0.0
0
LINE
8
0
6
CONTINUOUS
10
-35.500030
20
89.634780
30
0.0
11
-35.500025
21
87.184050
31
0.0
0
LINE
8
0
6
CONTINUOUS
10
-28.500035
20
89.806462
30
0.0
11
-28.500035
21
88.442670
31
0.0
0
LINE
8
0
6
CONTINUOUS
10
-3.500015
20
-139.977650
30
0.0
11
-3.500015
21
-129.022330
31
0.0
0
LINE
8
0
6
CONTINUOUS
10
-67.500015
20
-129.022330
30
0.0
11
-67.500015
21
-139.977650
31
0.0
0
LINE
8
0
6
CONTINUOUS
10
-3.500015
20
-140.499990
30
0.0
11
-3.500015
21
-139.977650
31
0.0
0
LINE
8
0
6
CONTINUOUS
10
-4.590385
20
-140.499990
30
0.0
11
-3.500015
21
-140.499990
31
0.0
0
LINE
8
0
6
CONTINUOUS
10
-7.787205
20
-140.499990
30
0.0
11
-4.590385
21
-140.499990
31
0.0
0
LINE
8
0
6
CONTINUOUS
10
-12.872585
20
-140.499990
30
0.0
11
-7.787205
21
-140.499990
31
0.0
0
LINE
8
0
6
CONTINUOUS
10
-19.500005
20
-140.499990
30
0.0
11
-12.872585
21
-140.499990
31
0.0
0
LINE
8
0
6
CONTINUOUS
10
-27.217795
20
-140.499990
30
0.0
11
-19.500005
21
-140.499990
31
0.0
0
LINE
8
0
6
CONTINUOUS
10
-35.500005
20
-140.499990
30
0.0
11
-27.217795
21
-140.499990
31
0.0
0
LINE
8
0
6
CONTINUOUS
10
-43.782215
20
-140.499990
30
0.0
11
-35.500005
21
-140.499990
31
0.0
0
LINE
8
0
6
CONTINUOUS
10
-51.500005
20
-140.499990
30
0.0
11
-43.782215
21
-140.499990
31
0.0
0
LINE
8
0
6
CONTINUOUS
10
-58.127425
20
-140.499990
30
0.0
11
-51.500005
21
-140.499990
31
0.0
0
LINE
8
0
6
CONTINUOUS
10
-63.212825
20
-140.499990
30
0.0
11
-58.127425
21
-140.499990
31
0.0
0
LINE
8
0
6
CONTINUOUS
10
-66.409635
20
-140.499990
30
0.0
11
-63.212825
21
-140.499990
31
0.0
0
LINE
8
0
6
CONTINUOUS
10
-67.500015
20
-140.499990
30
0.0
11
-66.409635
21
-140.499990
31
0.0
0
LINE
8
0
6
CONTINUOUS
10
-67.500015
20
-139.977650
30
0.0
11
-67.500015
21
-140.499990
31
0.0
0
LINE
8
0
6
CONTINUOUS
10
-3.500015
20
-128.499990
30
0.0
11
-4.590385
21
-128.499990
31
0.0
0
LINE
8
0
6
CONTINUOUS
10
-3.500015
20
-129.022330
30
0.0
11
-3.500015
21
-128.499990
31
0.0
0
LINE
8
0
6
CONTINUOUS
10
-4.590385
20
-128.499990
30
0.0
11
-7.787205
21
-128.499990
31
0.0
0
LINE
8
0
6
CONTINUOUS
10
-7.787205
20
-128.499990
30
0.0
11
-12.872585
21
-128.499990
31
0.0
0
LINE
8
0
6
CONTINUOUS
10
-12.872585
20
-128.499990
30
0.0
11
-19.500005
21
-128.499990
31
0.0
0
LINE
8
0
6
CONTINUOUS
10
-19.500005
20
-128.499990
30
0.0
11
-27.217795
21
-128.499990
31
0.0
0
LINE
8
0
6
CONTINUOUS
10
-27.217795
20
-128.499990
30
0.0
11
-35.500005
21
-128.499990
31
0.0
0
LINE
8
0
6
CONTINUOUS
10
-35.500005
20
-128.499990
30
0.0
11
-43.782215
21
-128.499990
31
0.0
0
LINE
8
0
6
CONTINUOUS
10
-43.782215
20
-128.499990
30
0.0
11
-51.500005
21
-128.499990
31
0.0
0
LINE
8
0
6
CONTINUOUS
10
-51.500005
20
-128.499990
30
0.0
11
-58.127425
21
-128.499990
31
0.0
0
LINE
8
0
6
CONTINUOUS
10
-58.127425
20
-128.499990
30
0.0
11
-63.212825
21
-128.499990
31
0.0
0
LINE
8
0
6
CONTINUOUS
10
-63.212825
20
-128.499990
30
0.0
11
-66.409635
21
-128.499990
31
0.0
0
LINE
8
0
6
CONTINUOUS
10
-67.500015
20
-128.499990
30
0.0
11
-67.500015
21
-129.022330
31
0.0
0
LINE
8
0
6
CONTINUOUS
10
-66.409635
20
-128.499990
30
0.0
11
-67.500015
21
-128.499990
31
0.0
0
LINE
8
0
6
CONTINUOUS
10
-49.500015
20
-38.933490
30
0.0
11
-49.500015
21
-43.991600
31
0.0
0
LINE
8
0
6
CONTINUOUS
10
-21.500015
20
-43.991600
30
0.0
11
-21.500015
21
-38.933490
31
0.0
0
LINE
8
0
6
CONTINUOUS
10
-21.500015
20
-15.674260
30
0.0
11
-21.500015
21
1.303460
31
0.0
0
LINE
8
0
6
CONTINUOUS
10
-49.500015
20
-21.715710
30
0.0
11
-49.500015
21
-26.650040
31
0.0
0
LINE
8
0
6
CONTINUOUS
10
-21.500015
20
-128.499990
30
0.0
11
-21.500015
21
-51.152870
31
0.0
0
LINE
8
0
6
CONTINUOUS
10
-49.500015
20
1.303460
30
0.0
11
-49.500015
21
-15.674260
31
0.0
0
LINE
8
0
6
CONTINUOUS
10
-49.500015
20
-43.991600
30
0.0
11
-49.500015
21
-47.572240
31
0.0
0
LINE
8
0
6
CONTINUOUS
10
-49.500015
20
-47.572240
30
0.0
11
-49.500015
21
-51.152870
31
0.0
0
LINE
8
0
6
CONTINUOUS
10
-21.500015
20
-47.572240
30
0.0
11
-21.500015
21
-43.991600
31
0.0
0
LINE
8
0
6
CONTINUOUS
10
-21.500015
20
-51.152870
30
0.0
11
-21.500015
21
-47.572240
31
0.0
0
LINE
8
0
6
CONTINUOUS
10
-49.500015
20
-51.152870
30
0.0
11
-49.500015
21
-128.499990
31
0.0
0
LINE
8
0
6
CONTINUOUS
10
-21.500015
20
-26.650040
30
0.0
11
-21.500015
21
-21.715710
31
0.0
0
LINE
8
0
6
CONTINUOUS
10
-49.500015
20
-26.650040
30
0.0
11
-49.500015
21
-32.791760
31
0.0
0
LINE
8
0
6
CONTINUOUS
10
-49.500015
20
-32.791760
30
0.0
11
-49.500015
21
-38.933490
31
0.0
0
LINE
8
0
6
CONTINUOUS
10
-21.500015
20
-32.791760
30
0.0
11
-21.500015
21
-26.650040
31
0.0
0
LINE
8
0
6
CONTINUOUS
10
-21.500015
20
-38.933490
30
0.0
11
-21.500015
21
-32.791760
31
0.0
0
LINE
8
0
6
CONTINUOUS
10
-21.500015
20
-21.715710
30
0.0
11
-21.500015
21
-15.674260
31
0.0
0
LINE
8
0
6
CONTINUOUS
10
-21.500015
20
1.803470
30
0.0
11
-21.977055
21
1.803470
31
0.0
0
LINE
8
0
6
CONTINUOUS
10
-21.500015
20
1.303460
30
0.0
11
-21.500015
21
1.803470
31
0.0
0
LINE
8
0
6
CONTINUOUS
10
-21.977055
20
1.803470
30
0.0
11
-23.375655
21
1.803470
31
0.0
0
LINE
8
0
6
CONTINUOUS
10
-23.375655
20
1.803470
30
0.0
11
-25.600515
21
1.803470
31
0.0
0
LINE
8
0
6
CONTINUOUS
10
-25.600515
20
1.803470
30
0.0
11
-28.500015
21
1.803470
31
0.0
0
LINE
8
0
6
CONTINUOUS
10
-28.500015
20
1.803470
30
0.0
11
-31.876545
21
1.803470
31
0.0
0
LINE
8
0
6
CONTINUOUS
10
-31.876545
20
1.803470
30
0.0
11
-35.500015
21
1.803470
31
0.0
0
LINE
8
0
6
CONTINUOUS
10
-35.500015
20
1.803470
30
0.0
11
-39.123475
21
1.803470
31
0.0
0
LINE
8
0
6
CONTINUOUS
10
-39.123475
20
1.803470
30
0.0
11
-42.500005
21
1.803470
31
0.0
0
LINE
8
0
6
CONTINUOUS
10
-42.500005
20
1.803470
30
0.0
11
-45.399505
21
1.803470
31
0.0
0
LINE
8
0
6
CONTINUOUS
10
-45.399505
20
1.803470
30
0.0
11
-47.624365
21
1.803470
31
0.0
0
LINE
8
0
6
CONTINUOUS
10
-47.624365
20
1.803470
30
0.0
11
-49.022975
21
1.803470
31
0.0
0
LINE
8
0
6
CONTINUOUS
10
-49.500015
20
1.803470
30
0.0
11
-49.500015
21
1.303460
31
0.0
0
LINE
8
0
6
CONTINUOUS
10
-49.022975
20
1.803470
30
0.0
11
-49.500015
21
1.803470
31
0.0
0
LINE
8
0
6
CONTINUOUS
10
-49.500015
20
-15.674260
30
0.0
11
-49.500015
21
-21.715710
31
0.0
0
LINE
8
0
6
CONTINUOUS
10
-21.500015
20
-78.444550
30
0.0
11
9.258215
21
-78.444550
31
0.0
0
LINE
8
0
6
CONTINUOUS
10
9.258215
20
-36.051240
30
0.0
11
-21.500015
21
-36.051247
31
0.0
0
LINE
8
0
6
CONTINUOUS
10
9.758225
20
-63.798020
30
0.0
11
9.758225
21
-57.247890
31
0.0
0
LINE
8
0
6
CONTINUOUS
10
9.758225
20
-69.706970
30
0.0
11
9.758225
21
-63.798020
31
0.0
0
LINE
8
0
6
CONTINUOUS
10
9.758225
20
-74.396340
30
0.0
11
9.758225
21
-69.706970
31
0.0
0
LINE
8
0
6
CONTINUOUS
10
9.758225
20
-77.407110
30
0.0
11
9.758225
21
-74.396340
31
0.0
0
LINE
8
0
6
CONTINUOUS
10
9.758215
20
-78.444550
30
0.0
11
9.758225
21
-77.407110
31
0.0
0
LINE
8
0
6
CONTINUOUS
10
9.258215
20
-78.444550
30
0.0
11
9.758215
21
-78.444550
31
0.0
0
LINE
8
0
6
CONTINUOUS
10
9.758225
20
-36.051240
30
0.0
11
9.258215
21
-36.051240
31
0.0
0
LINE
8
0
6
CONTINUOUS
10
9.758225
20
-37.088680
30
0.0
11
9.758225
21
-36.051240
31
0.0
0
LINE
8
0
6
CONTINUOUS
10
9.758225
20
-40.099460
30
0.0
11
9.758225
21
-37.088680
31
0.0
0
LINE
8
0
6
CONTINUOUS
10
9.758235
20
-44.788830
30
0.0
11
9.758225
21
-40.099460
31
0.0
0
LINE
8
0
6
CONTINUOUS
10
9.758225
20
-50.697780
30
0.0
11
9.758235
21
-44.788830
31
0.0
0
LINE
8
0
6
CONTINUOUS
10
9.758225
20
-57.247890
30
0.0
11
9.758225
21
-50.697780
31
0.0
0
LINE
8
0
6
CONTINUOUS
10
12.936485
20
-37.437360
30
0.0
11
9.758225
21
-37.437360
31
0.0
0
LINE
8
0
6
CONTINUOUS
10
9.758225
20
-77.058450
30
0.0
11
12.323765
21
-77.058450
31
0.0
0
LINE
8
0
6
CONTINUOUS
10
44.249905
20
-78.385950
30
0.0
11
46.778795
21
-78.385950
31
0.0
0
LINE
8
0
6
CONTINUOUS
10
40.679815
20
-36.109850
30
0.0
11
40.145605
21
-36.109850
31
0.0
0
LINE
8
0
6
CONTINUOUS
10
40.145595
20
-78.385950
30
0.0
11
40.679805
21
-78.385950
31
0.0
0
LINE
8
0
6
CONTINUOUS
10
12.323785
20
-41.072600
30
0.0
11
12.323775
21
-46.097470
31
0.0
0
LINE
8
0
6
CONTINUOUS
10
12.323775
20
-46.097470
30
0.0
11
12.323775
21
-52.213800
31
0.0
0
LINE
8
0
6
CONTINUOUS
10
12.323775
20
-52.213800
30
0.0
11
12.323775
21
-58.822900
31
0.0
0
LINE
8
0
6
CONTINUOUS
10
12.323775
20
-58.822900
30
0.0
11
12.323775
21
-65.277840
31
0.0
0
LINE
8
0
6
CONTINUOUS
10
12.323775
20
-65.277840
30
0.0
11
12.323765
21
-70.946750
31
0.0
0
LINE
8
0
6
CONTINUOUS
10
12.323765
20
-70.946750
30
0.0
11
12.323775
21
-75.274710
31
0.0
0
LINE
8
0
6
CONTINUOUS
10
12.323775
20
-75.274710
30
0.0
11
12.323775
21
-77.838080
31
0.0
0
LINE
8
0
6
CONTINUOUS
10
12.323775
20
-78.385960
30
0.0
11
12.823765
21
-78.385960
31
0.0
0
LINE
8
0
6
CONTINUOUS
10
12.323775
20
-77.838080
30
0.0
11
12.323775
21
-78.385960
31
0.0
0
LINE
8
0
6
CONTINUOUS
10
12.823775
20
-36.109840
30
0.0
11
12.323785
21
-36.109840
31
0.0
0
LINE
8
0
6
CONTINUOUS
10
12.323785
20
-36.109840
30
0.0
11
12.323785
21
-37.631130
31
0.0
0
LINE
8
0
6
CONTINUOUS
10
12.323785
20
-37.631130
30
0.0
11
12.323785
21
-41.072600
31
0.0
0
LINE
8
0
6
CONTINUOUS
10
67.500005
20
33.700830
30
0.0
11
67.500005
21
35.627940
31
0.0
0
LINE
8
0
6
CONTINUOUS
10
67.500005
20
35.627940
30
0.0
11
67.500005
21
37.534180
31
0.0
0
LINE
8
0
6
CONTINUOUS
10
41.179805
20
-68.331210
30
0.0
11
41.180535
21
-70.285980
31
0.0
0
LINE
8
0
6
CONTINUOUS
10
41.200405
20
-78.385950
30
0.0
11
41.721005
21
-78.385950
31
0.0
0
LINE
8
0
6
CONTINUOUS
10
40.679805
20
-78.385950
30
0.0
11
41.200405
21
-78.385950
31
0.0
0
LINE
8
0
6
CONTINUOUS
10
41.179815
20
-36.109850
30
0.0
11
40.679815
21
-36.109850
31
0.0
0
LINE
8
0
6
CONTINUOUS
10
47.278815
20
-75.274720
30
0.0
11
47.278815
21
-70.946750
31
0.0
0
LINE
8
0
6
CONTINUOUS
10
47.278815
20
-77.838080
30
0.0
11
47.278815
21
-75.274720
31
0.0
0
LINE
8
0
6
CONTINUOUS
10
46.778795
20
-78.385950
30
0.0
11
47.278805
21
-78.385950
31
0.0
0
LINE
8
0
6
CONTINUOUS
10
47.278805
20
-78.385950
30
0.0
11
47.278815
21
-77.838080
31
0.0
0
LINE
8
0
6
CONTINUOUS
10
47.278815
20
-70.946750
30
0.0
11
47.278805
21
-40.101080
31
0.0
0
LINE
8
0
6
CONTINUOUS
10
41.179815
20
33.707050
30
0.0
11
41.179815
21
33.383910
31
0.0
0
LINE
8
0
6
CONTINUOUS
10
41.550795
20
34.501020
30
0.0
11
41.179815
21
33.383910
31
0.0
0
LINE
8
0
6
CONTINUOUS
10
42.304465
20
39.943950
30
0.0
11
41.550795
21
38.989110
31
0.0
0
LINE
8
0
6
CONTINUOUS
10
43.527005
20
36.039180
30
0.0
11
42.304465
21
35.455860
31
0.0
0
LINE
8
0
6
CONTINUOUS
10
45.019605
20
40.802180
30
0.0
11
43.527005
21
40.527270
31
0.0
0
LINE
8
0
6
CONTINUOUS
10
65.090285
20
35.992590
30
0.0
11
63.660215
21
36.314050
31
0.0
0
LINE
8
0
6
CONTINUOUS
10
66.375365
20
39.943930
30
0.0
11
65.090475
21
40.481380
31
0.0
0
LINE
8
0
6
CONTINUOUS
10
67.110125
20
34.509810
30
0.0
11
66.375365
21
35.455860
31
0.0
0
LINE
8
0
6
CONTINUOUS
10
67.500005
20
37.871970
30
0.0
11
67.103635
21
38.994520
31
0.0
0
LINE
8
0
6
CONTINUOUS
10
67.500005
20
37.534180
30
0.0
11
67.500005
21
37.871970
31
0.0
0
LINE
8
0
6
CONTINUOUS
10
41.179815
20
-0.143320
30
0.0
11
41.179815
21
-4.508570
31
0.0
0
LINE
8
0
6
CONTINUOUS
10
45.019605
20
36.314070
30
0.0
11
63.660215
21
36.314050
31
0.0
0
LINE
8
0
6
CONTINUOUS
10
63.660215
20
40.802160
30
0.0
11
45.019605
21
40.802180
31
0.0
0
LINE
8
0
6
CONTINUOUS
10
58.396255
20
9.159700
30
0.0
11
62.431045
21
12.725790
31
0.0
0
LINE
8
0
6
CONTINUOUS
10
54.442515
20
4.671520
30
0.0
11
58.396255
21
9.159700
31
0.0
0
LINE
8
0
6
CONTINUOUS
10
51.171715
20
-0.055470
30
0.0
11
54.442515
21
4.671520
31
0.0
0
LINE
8
0
6
CONTINUOUS
10
49.081835
20
-4.301660
30
0.0
11
51.171715
21
-0.055470
31
0.0
0
LINE
8
0
6
CONTINUOUS
10
47.278805
20
-40.101080
30
0.0
11
47.278815
21
-10.185170
31
0.0
0
LINE
8
0
6
CONTINUOUS
10
66.871145
20
16.697080
30
0.0
11
67.500015
21
18.696920
31
0.0
0
LINE
8
0
6
CONTINUOUS
10
65.360025
20
14.965900
30
0.0
11
66.871145
21
16.697080
31
0.0
0
LINE
8
0
6
CONTINUOUS
10
67.500015
20
18.696920
30
0.0
11
67.500005
21
33.383910
31
0.0
0
LINE
8
0
6
CONTINUOUS
10
41.179815
20
-40.101060
30
0.0
11
41.179805
21
-68.331210
31
0.0
0
LINE
8
0
6
CONTINUOUS
10
41.179815
20
33.383910
30
0.0
11
41.179815
21
18.696920
31
0.0
0
LINE
8
0
6
CONTINUOUS
10
41.179815
20
18.696920
30
0.0
11
41.179815
21
14.922950
31
0.0
0
LINE
8
0
6
CONTINUOUS
10
41.179815
20
3.623260
30
0.0
11
41.179815
21
-0.143320
31
0.0
0
LINE
8
0
6
CONTINUOUS
10
41.179815
20
14.922950
30
0.0
11
41.179815
21
11.156390
31
0.0
0
LINE
8
0
6
CONTINUOUS
10
41.179815
20
11.156390
30
0.0
11
41.179815
21
7.389810
31
0.0
0
LINE
8
0
6
CONTINUOUS
10
41.179815
20
7.389810
30
0.0
11
41.179815
21
3.623260
31
0.0
0
LINE
8
0
6
CONTINUOUS
10
41.179815
20
-4.508570
30
0.0
11
41.179815
21
-8.313750
31
0.0
0
LINE
8
0
6
CONTINUOUS
10
41.179815
20
-10.185170
30
0.0
11
41.179815
21
-40.101060
31
0.0
0
LINE
8
0
6
CONTINUOUS
10
62.431045
20
12.725790
30
0.0
11
65.360025
21
14.965900
31
0.0
0
LINE
8
0
6
CONTINUOUS
10
66.375365
20
39.943930
30
0.0
11
66.375355
21
39.606130
31
0.0
0
LINE
8
0
6
CONTINUOUS
10
67.103635
20
38.994520
30
0.0
11
66.375365
21
39.943930
31
0.0
0
LINE
8
0
6
CONTINUOUS
10
67.500005
20
33.383910
30
0.0
11
67.500005
21
33.700830
31
0.0
0
LINE
8
0
6
CONTINUOUS
10
67.110125
20
34.509810
30
0.0
11
67.500005
21
33.383910
31
0.0
0
LINE
8
0
6
CONTINUOUS
10
66.375355
20
39.606130
30
0.0
11
66.375355
21
37.699890
31
0.0
0
LINE
8
0
6
CONTINUOUS
10
66.375355
20
37.699890
30
0.0
11
66.375355
21
35.772780
31
0.0
0
LINE
8
0
6
CONTINUOUS
10
65.090475
20
40.481380
30
0.0
11
63.660215
21
40.802160
31
0.0
0
LINE
8
0
6
CONTINUOUS
10
66.375365
20
35.455860
30
0.0
11
66.375355
21
35.772780
31
0.0
0
LINE
8
0
6
CONTINUOUS
10
65.090285
20
35.992590
30
0.0
11
66.375365
21
35.455860
31
0.0
0
LINE
8
0
6
CONTINUOUS
10
42.304465
20
39.943950
30
0.0
11
42.304465
21
39.606130
31
0.0
0
LINE
8
0
6
CONTINUOUS
10
43.527005
20
40.527270
30
0.0
11
42.304465
21
39.943950
31
0.0
0
LINE
8
0
6
CONTINUOUS
10
43.527005
20
36.039180
30
0.0
11
45.019605
21
36.314070
31
0.0
0
LINE
8
0
6
CONTINUOUS
10
42.304465
20
37.699890
30
0.0
11
42.304465
21
35.775890
31
0.0
0
LINE
8
0
6
CONTINUOUS
10
42.304465
20
39.606130
30
0.0
11
42.304465
21
37.699890
31
0.0
0
LINE
8
0
6
CONTINUOUS
10
41.179815
20
37.871990
30
0.0
11
41.179815
21
37.534180
31
0.0
0
LINE
8
0
6
CONTINUOUS
10
41.550795
20
38.989110
30
0.0
11
41.179815
21
37.871990
31
0.0
0
LINE
8
0
6
CONTINUOUS
10
42.304465
20
35.455860
30
0.0
11
42.304465
21
35.775890
31
0.0
0
LINE
8
0
6
CONTINUOUS
10
41.550795
20
34.501020
30
0.0
11
42.304465
21
35.455860
31
0.0
0
LINE
8
0
6
CONTINUOUS
10
41.179815
20
35.627940
30
0.0
11
41.179815
21
33.707050
31
0.0
0
LINE
8
0
6
CONTINUOUS
10
41.179815
20
37.534180
30
0.0
11
41.179815
21
35.627940
31
0.0
0
LINE
8
0
6
CONTINUOUS
10
41.179815
20
-8.313750
30
0.0
11
41.179815
21
-9.255390
31
0.0
0
LINE
8
0
6
CONTINUOUS
10
41.179815
20
-9.255390
30
0.0
11
41.179815
21
-10.185170
31
0.0
0
LINE
8
0
6
CONTINUOUS
10
47.278815
20
-10.185170
30
0.0
11
47.278815
21
-9.255390
31
0.0
0
LINE
8
0
6
CONTINUOUS
10
47.628915
20
-8.293490
30
0.0
11
49.081835
21
-4.301660
31
0.0
0
LINE
8
0
6
CONTINUOUS
10
47.278815
20
-9.255390
30
0.0
11
47.628915
21
-8.293490
31
0.0
0
LINE
8
0
6
CONTINUOUS
10
41.721005
20
-78.385950
30
0.0
11
44.249905
21
-78.385950
31
0.0
0
LINE
8
0
6
CONTINUOUS
10
12.823765
20
-78.385960
30
0.0
11
40.145595
21
-78.385950
31
0.0
0
LINE
8
0
6
CONTINUOUS
10
40.145605
20
-36.109850
30
0.0
11
12.823775
21
-36.109840
31
0.0
0
ENDSEC
0
EOF
