999
Erzeugt mit innoplus bad 
0
SECTION
2
HEADER
9
$ACADVER
1
AC1009
9
$DWGCODEPAGE
3
ISO8859-1
0
ENDSEC
0
SECTION
2
TABLES
0
TABLE
2
LAYER
70
1
0
LAYER
2
0
70
0
62
7
6
CONTINUOUS
0
ENDTAB
0
ENDSEC
0
SECTION
2
ENTITIES
0
LINE
8
0
6
CONTINUOUS
10
-6.781770
20
55.306285
30
0.0
11
-6.350280
21
56.096095
31
0.0
0
LINE
8
0
6
CONTINUOUS
10
-7.681510
20
55.285055
30
0.0
11
-6.781770
21
55.306285
31
0.0
0
LINE
8
0
6
CONTINUOUS
10
-8.149770
20
56.053615
30
0.0
11
-7.681510
21
55.285055
31
0.0
0
LINE
8
0
6
CONTINUOUS
10
4.281720
20
59.885275
30
0.0
11
3.850220
21
59.095455
31
0.0
0
LINE
8
0
6
CONTINUOUS
10
5.181460
20
59.906525
30
0.0
11
4.281720
21
59.885275
31
0.0
0
LINE
8
0
6
CONTINUOUS
10
5.649730
20
59.137935
30
0.0
11
5.181460
21
59.906525
31
0.0
0
LINE
8
0
6
CONTINUOUS
10
2.518230
20
61.305635
30
0.0
11
2.949720
21
62.095475
31
0.0
0
LINE
8
0
6
CONTINUOUS
10
1.618490
20
61.284385
30
0.0
11
2.518230
21
61.305635
31
0.0
0
LINE
8
0
6
CONTINUOUS
10
1.150220
20
62.052995
30
0.0
11
1.618490
21
61.284385
31
0.0
0
LINE
8
0
6
CONTINUOUS
10
-0.468280
20
58.305645
30
0.0
11
0.431460
21
58.284395
31
0.0
0
LINE
8
0
6
CONTINUOUS
10
-0.899780
20
59.095435
30
0.0
11
-0.468280
21
58.305645
31
0.0
0
LINE
8
0
6
CONTINUOUS
10
0.431460
20
58.284395
30
0.0
11
0.899730
21
59.052985
31
0.0
0
LINE
8
0
6
CONTINUOUS
10
6.350220
20
62.052995
30
0.0
11
6.818490
21
61.284385
31
0.0
0
LINE
8
0
6
CONTINUOUS
10
7.718230
20
61.305635
30
0.0
11
8.149730
21
62.095475
31
0.0
0
LINE
8
0
6
CONTINUOUS
10
6.818490
20
61.284385
30
0.0
11
7.718230
21
61.305635
31
0.0
0
LINE
8
0
6
CONTINUOUS
10
2.949720
20
62.095475
30
0.0
11
2.481460
21
62.864055
31
0.0
0
LINE
8
0
6
CONTINUOUS
10
1.581720
20
62.842805
30
0.0
11
1.150220
21
62.052995
31
0.0
0
LINE
8
0
6
CONTINUOUS
10
2.481460
20
62.864055
30
0.0
11
1.581720
21
62.842805
31
0.0
0
LINE
8
0
6
CONTINUOUS
10
-6.350280
20
62.095455
30
0.0
11
-6.818550
21
62.864035
31
0.0
0
LINE
8
0
6
CONTINUOUS
10
-7.718280
20
62.842805
30
0.0
11
-8.149770
21
62.052975
31
0.0
0
LINE
8
0
6
CONTINUOUS
10
-6.818550
20
62.864035
30
0.0
11
-7.718280
21
62.842805
31
0.0
0
LINE
8
0
6
CONTINUOUS
10
-0.468280
20
52.306285
30
0.0
11
0.431460
21
52.285045
31
0.0
0
LINE
8
0
6
CONTINUOUS
10
-0.899780
20
53.096085
30
0.0
11
-0.468280
21
52.306285
31
0.0
0
LINE
8
0
6
CONTINUOUS
10
0.431460
20
52.285045
30
0.0
11
0.899730
21
53.053625
31
0.0
0
LINE
8
0
6
CONTINUOUS
10
3.850220
20
53.096105
30
0.0
11
4.318490
21
52.327495
31
0.0
0
LINE
8
0
6
CONTINUOUS
10
5.218230
20
52.348745
30
0.0
11
5.649730
21
53.138585
31
0.0
0
LINE
8
0
6
CONTINUOUS
10
4.318490
20
52.327495
30
0.0
11
5.218230
21
52.348745
31
0.0
0
LINE
8
0
6
CONTINUOUS
10
3.850220
20
59.095455
30
0.0
11
4.318490
21
58.326855
31
0.0
0
LINE
8
0
6
CONTINUOUS
10
5.218230
20
58.348105
30
0.0
11
5.649730
21
59.137935
31
0.0
0
LINE
8
0
6
CONTINUOUS
10
4.318490
20
58.326855
30
0.0
11
5.218230
21
58.348105
31
0.0
0
LINE
8
0
6
CONTINUOUS
10
-2.518280
20
56.843435
30
0.0
11
-2.949770
21
56.053615
31
0.0
0
LINE
8
0
6
CONTINUOUS
10
-1.618540
20
56.864685
30
0.0
11
-2.518280
21
56.843435
31
0.0
0
LINE
8
0
6
CONTINUOUS
10
-1.150270
20
56.096095
30
0.0
11
-1.618540
21
56.864685
31
0.0
0
LINE
8
0
6
CONTINUOUS
10
-5.181510
20
59.864065
30
0.0
11
-5.649780
21
59.095435
31
0.0
0
LINE
8
0
6
CONTINUOUS
10
-4.281770
20
59.842795
30
0.0
11
-5.181510
21
59.864065
31
0.0
0
LINE
8
0
6
CONTINUOUS
10
-3.850270
20
59.052985
30
0.0
11
-4.281770
21
59.842795
31
0.0
0
LINE
8
0
6
CONTINUOUS
10
-6.781770
20
61.305635
30
0.0
11
-6.350280
21
62.095455
31
0.0
0
LINE
8
0
6
CONTINUOUS
10
-7.681510
20
61.284405
30
0.0
11
-6.781770
21
61.305635
31
0.0
0
LINE
8
0
6
CONTINUOUS
10
-8.149770
20
62.052975
30
0.0
11
-7.681510
21
61.284405
31
0.0
0
LINE
8
0
6
CONTINUOUS
10
2.518230
20
55.306285
30
0.0
11
2.949720
21
56.096115
31
0.0
0
LINE
8
0
6
CONTINUOUS
10
1.618490
20
55.285035
30
0.0
11
2.518230
21
55.306285
31
0.0
0
LINE
8
0
6
CONTINUOUS
10
1.150220
20
56.053635
30
0.0
11
1.618490
21
55.285035
31
0.0
0
LINE
8
0
6
CONTINUOUS
10
6.350220
20
56.053635
30
0.0
11
6.818490
21
55.285035
31
0.0
0
LINE
8
0
6
CONTINUOUS
10
7.718230
20
55.306285
30
0.0
11
8.149730
21
56.096115
31
0.0
0
LINE
8
0
6
CONTINUOUS
10
6.818490
20
55.285035
30
0.0
11
7.718230
21
55.306285
31
0.0
0
LINE
8
0
6
CONTINUOUS
10
-2.518280
20
62.842785
30
0.0
11
-2.949770
21
62.052975
31
0.0
0
LINE
8
0
6
CONTINUOUS
10
-1.618540
20
62.864035
30
0.0
11
-2.518280
21
62.842785
31
0.0
0
LINE
8
0
6
CONTINUOUS
10
-1.150270
20
62.095455
30
0.0
11
-1.618540
21
62.864035
31
0.0
0
LINE
8
0
6
CONTINUOUS
10
-0.431510
20
59.864065
30
0.0
11
-0.899780
21
59.095435
31
0.0
0
LINE
8
0
6
CONTINUOUS
10
0.468230
20
59.842795
30
0.0
11
-0.431510
21
59.864065
31
0.0
0
LINE
8
0
6
CONTINUOUS
10
0.899730
20
59.052985
30
0.0
11
0.468230
21
59.842795
31
0.0
0
LINE
8
0
6
CONTINUOUS
10
6.781720
20
56.843455
30
0.0
11
6.350220
21
56.053635
31
0.0
0
LINE
8
0
6
CONTINUOUS
10
7.681460
20
56.864705
30
0.0
11
6.781720
21
56.843455
31
0.0
0
LINE
8
0
6
CONTINUOUS
10
8.149730
20
56.096115
30
0.0
11
7.681460
21
56.864705
31
0.0
0
LINE
8
0
6
CONTINUOUS
10
-5.649780
20
59.095435
30
0.0
11
-5.218280
21
58.305645
31
0.0
0
LINE
8
0
6
CONTINUOUS
10
-4.318540
20
58.284395
30
0.0
11
-3.850270
21
59.052985
31
0.0
0
LINE
8
0
6
CONTINUOUS
10
-5.218280
20
58.305645
30
0.0
11
-4.318540
21
58.284395
31
0.0
0
LINE
8
0
6
CONTINUOUS
10
2.949720
20
56.096115
30
0.0
11
2.481460
21
56.864705
31
0.0
0
LINE
8
0
6
CONTINUOUS
10
1.581720
20
56.843455
30
0.0
11
1.150220
21
56.053635
31
0.0
0
LINE
8
0
6
CONTINUOUS
10
2.481460
20
56.864705
30
0.0
11
1.581720
21
56.843455
31
0.0
0
LINE
8
0
6
CONTINUOUS
10
-2.949770
20
56.053615
30
0.0
11
-2.481510
21
55.285015
31
0.0
0
LINE
8
0
6
CONTINUOUS
10
-1.581770
20
55.306265
30
0.0
11
-1.150270
21
56.096095
31
0.0
0
LINE
8
0
6
CONTINUOUS
10
-2.481510
20
55.285015
30
0.0
11
-1.581770
21
55.306265
31
0.0
0
LINE
8
0
6
CONTINUOUS
10
6.781720
20
62.842805
30
0.0
11
6.350220
21
62.052995
31
0.0
0
LINE
8
0
6
CONTINUOUS
10
7.681460
20
62.864055
30
0.0
11
6.781720
21
62.842805
31
0.0
0
LINE
8
0
6
CONTINUOUS
10
8.149730
20
62.095475
30
0.0
11
7.681460
21
62.864055
31
0.0
0
LINE
8
0
6
CONTINUOUS
10
-5.181510
20
53.864705
30
0.0
11
-5.649780
21
53.096085
31
0.0
0
LINE
8
0
6
CONTINUOUS
10
-4.281770
20
53.843445
30
0.0
11
-5.181510
21
53.864705
31
0.0
0
LINE
8
0
6
CONTINUOUS
10
-3.850270
20
53.053625
30
0.0
11
-4.281770
21
53.843445
31
0.0
0
LINE
8
0
6
CONTINUOUS
10
-5.649780
20
53.096085
30
0.0
11
-5.218280
21
52.306285
31
0.0
0
LINE
8
0
6
CONTINUOUS
10
-4.318540
20
52.285045
30
0.0
11
-3.850270
21
53.053625
31
0.0
0
LINE
8
0
6
CONTINUOUS
10
-5.218280
20
52.306285
30
0.0
11
-4.318540
21
52.285045
31
0.0
0
LINE
8
0
6
CONTINUOUS
10
-6.350280
20
56.096095
30
0.0
11
-6.818550
21
56.864685
31
0.0
0
LINE
8
0
6
CONTINUOUS
10
-7.718280
20
56.843455
30
0.0
11
-8.149770
21
56.053615
31
0.0
0
LINE
8
0
6
CONTINUOUS
10
-6.818550
20
56.864685
30
0.0
11
-7.718280
21
56.843455
31
0.0
0
LINE
8
0
6
CONTINUOUS
10
-0.431510
20
53.864705
30
0.0
11
-0.899780
21
53.096085
31
0.0
0
LINE
8
0
6
CONTINUOUS
10
0.468230
20
53.843445
30
0.0
11
-0.431510
21
53.864705
31
0.0
0
LINE
8
0
6
CONTINUOUS
10
0.899730
20
53.053625
30
0.0
11
0.468230
21
53.843445
31
0.0
0
LINE
8
0
6
CONTINUOUS
10
-2.949770
20
62.052975
30
0.0
11
-2.481510
21
61.284375
31
0.0
0
LINE
8
0
6
CONTINUOUS
10
-1.581770
20
61.305615
30
0.0
11
-1.150270
21
62.095455
31
0.0
0
LINE
8
0
6
CONTINUOUS
10
-2.481510
20
61.284375
30
0.0
11
-1.581770
21
61.305615
31
0.0
0
LINE
8
0
6
CONTINUOUS
10
4.281720
20
53.885915
30
0.0
11
3.850220
21
53.096105
31
0.0
0
LINE
8
0
6
CONTINUOUS
10
5.181460
20
53.907165
30
0.0
11
4.281720
21
53.885915
31
0.0
0
LINE
8
0
6
CONTINUOUS
10
5.649730
20
53.138585
30
0.0
11
5.181460
21
53.907165
31
0.0
0
LINE
8
0
6
CONTINUOUS
10
2.949720
20
50.096755
30
0.0
11
2.481460
21
50.865345
31
0.0
0
LINE
8
0
6
CONTINUOUS
10
1.581720
20
50.844095
30
0.0
11
1.150220
21
50.054285
31
0.0
0
LINE
8
0
6
CONTINUOUS
10
2.481460
20
50.865345
30
0.0
11
1.581720
21
50.844095
31
0.0
0
LINE
8
0
6
CONTINUOUS
10
6.350220
20
50.054285
30
0.0
11
6.818490
21
49.285675
31
0.0
0
LINE
8
0
6
CONTINUOUS
10
7.718230
20
49.306925
30
0.0
11
8.149730
21
50.096755
31
0.0
0
LINE
8
0
6
CONTINUOUS
10
6.818490
20
49.285675
30
0.0
11
7.718230
21
49.306925
31
0.0
0
LINE
8
0
6
CONTINUOUS
10
-0.468280
20
46.306945
30
0.0
11
0.431460
21
46.285695
31
0.0
0
LINE
8
0
6
CONTINUOUS
10
-0.899780
20
47.096725
30
0.0
11
-0.468280
21
46.306945
31
0.0
0
LINE
8
0
6
CONTINUOUS
10
0.431460
20
46.285695
30
0.0
11
0.899730
21
47.054275
31
0.0
0
LINE
8
0
6
CONTINUOUS
10
-5.649780
20
47.096725
30
0.0
11
-5.218280
21
46.306945
31
0.0
0
LINE
8
0
6
CONTINUOUS
10
-4.318540
20
46.285695
30
0.0
11
-3.850270
21
47.054275
31
0.0
0
LINE
8
0
6
CONTINUOUS
10
-5.218280
20
46.306945
30
0.0
11
-4.318540
21
46.285695
31
0.0
0
LINE
8
0
6
CONTINUOUS
10
-6.350280
20
50.096745
30
0.0
11
-6.818550
21
50.865325
31
0.0
0
LINE
8
0
6
CONTINUOUS
10
-7.718280
20
50.844095
30
0.0
11
-8.149770
21
50.054265
31
0.0
0
LINE
8
0
6
CONTINUOUS
10
-6.818550
20
50.865325
30
0.0
11
-7.718280
21
50.844095
31
0.0
0
LINE
8
0
6
CONTINUOUS
10
3.850220
20
47.096745
30
0.0
11
4.318490
21
46.328155
31
0.0
0
LINE
8
0
6
CONTINUOUS
10
5.218230
20
46.349405
30
0.0
11
5.649730
21
47.139225
31
0.0
0
LINE
8
0
6
CONTINUOUS
10
4.318490
20
46.328155
30
0.0
11
5.218230
21
46.349405
31
0.0
0
LINE
8
0
6
CONTINUOUS
10
-2.949770
20
50.054265
30
0.0
11
-2.481510
21
49.285655
31
0.0
0
LINE
8
0
6
CONTINUOUS
10
-1.581770
20
49.306905
30
0.0
11
-1.150270
21
50.096745
31
0.0
0
LINE
8
0
6
CONTINUOUS
10
-2.481510
20
49.285655
30
0.0
11
-1.581770
21
49.306905
31
0.0
0
LINE
8
0
6
CONTINUOUS
10
-6.781770
20
49.306925
30
0.0
11
-6.350280
21
50.096745
31
0.0
0
LINE
8
0
6
CONTINUOUS
10
-7.681510
20
49.285695
30
0.0
11
-6.781770
21
49.306925
31
0.0
0
LINE
8
0
6
CONTINUOUS
10
-8.149770
20
50.054265
30
0.0
11
-7.681510
21
49.285695
31
0.0
0
LINE
8
0
6
CONTINUOUS
10
-2.518280
20
50.844075
30
0.0
11
-2.949770
21
50.054265
31
0.0
0
LINE
8
0
6
CONTINUOUS
10
-1.618540
20
50.865325
30
0.0
11
-2.518280
21
50.844075
31
0.0
0
LINE
8
0
6
CONTINUOUS
10
-1.150270
20
50.096745
30
0.0
11
-1.618540
21
50.865325
31
0.0
0
LINE
8
0
6
CONTINUOUS
10
2.518230
20
49.306925
30
0.0
11
2.949720
21
50.096755
31
0.0
0
LINE
8
0
6
CONTINUOUS
10
1.618490
20
49.285675
30
0.0
11
2.518230
21
49.306925
31
0.0
0
LINE
8
0
6
CONTINUOUS
10
1.150220
20
50.054285
30
0.0
11
1.618490
21
49.285675
31
0.0
0
LINE
8
0
6
CONTINUOUS
10
6.781720
20
50.844095
30
0.0
11
6.350220
21
50.054285
31
0.0
0
LINE
8
0
6
CONTINUOUS
10
7.681460
20
50.865345
30
0.0
11
6.781720
21
50.844095
31
0.0
0
LINE
8
0
6
CONTINUOUS
10
8.149730
20
50.096755
30
0.0
11
7.681460
21
50.865345
31
0.0
0
LINE
8
0
6
CONTINUOUS
10
-5.181510
20
47.865355
30
0.0
11
-5.649780
21
47.096725
31
0.0
0
LINE
8
0
6
CONTINUOUS
10
-4.281770
20
47.844085
30
0.0
11
-5.181510
21
47.865355
31
0.0
0
LINE
8
0
6
CONTINUOUS
10
-3.850270
20
47.054275
30
0.0
11
-4.281770
21
47.844085
31
0.0
0
LINE
8
0
6
CONTINUOUS
10
-0.431510
20
47.865355
30
0.0
11
-0.899780
21
47.096725
31
0.0
0
LINE
8
0
6
CONTINUOUS
10
0.468230
20
47.844085
30
0.0
11
-0.431510
21
47.865355
31
0.0
0
LINE
8
0
6
CONTINUOUS
10
0.899730
20
47.054275
30
0.0
11
0.468230
21
47.844085
31
0.0
0
LINE
8
0
6
CONTINUOUS
10
4.281720
20
47.886565
30
0.0
11
3.850220
21
47.096745
31
0.0
0
LINE
8
0
6
CONTINUOUS
10
5.181460
20
47.907815
30
0.0
11
4.281720
21
47.886565
31
0.0
0
LINE
8
0
6
CONTINUOUS
10
5.649730
20
47.139225
30
0.0
11
5.181460
21
47.907815
31
0.0
0
LINE
8
0
6
CONTINUOUS
10
2.949720
20
44.097415
30
0.0
11
2.481460
21
44.865995
31
0.0
0
LINE
8
0
6
CONTINUOUS
10
1.581720
20
44.844755
30
0.0
11
1.150220
21
44.054935
31
0.0
0
LINE
8
0
6
CONTINUOUS
10
2.481460
20
44.865995
30
0.0
11
1.581720
21
44.844755
31
0.0
0
LINE
8
0
6
CONTINUOUS
10
6.350220
20
44.054935
30
0.0
11
6.818490
21
43.286335
31
0.0
0
LINE
8
0
6
CONTINUOUS
10
7.718230
20
43.307585
30
0.0
11
8.149730
21
44.097415
31
0.0
0
LINE
8
0
6
CONTINUOUS
10
6.818490
20
43.286335
30
0.0
11
7.718230
21
43.307585
31
0.0
0
LINE
8
0
6
CONTINUOUS
10
-0.468280
20
40.307585
30
0.0
11
0.431460
21
40.286345
31
0.0
0
LINE
8
0
6
CONTINUOUS
10
-0.899780
20
41.097385
30
0.0
11
-0.468280
21
40.307585
31
0.0
0
LINE
8
0
6
CONTINUOUS
10
0.431460
20
40.286345
30
0.0
11
0.899730
21
41.054925
31
0.0
0
LINE
8
0
6
CONTINUOUS
10
-5.649780
20
41.097385
30
0.0
11
-5.218280
21
40.307585
31
0.0
0
LINE
8
0
6
CONTINUOUS
10
-4.318540
20
40.286345
30
0.0
11
-3.850270
21
41.054925
31
0.0
0
LINE
8
0
6
CONTINUOUS
10
-5.218280
20
40.307585
30
0.0
11
-4.318540
21
40.286345
31
0.0
0
LINE
8
0
6
CONTINUOUS
10
-6.350280
20
44.097395
30
0.0
11
-6.818550
21
44.865985
31
0.0
0
LINE
8
0
6
CONTINUOUS
10
-7.718280
20
44.844755
30
0.0
11
-8.149770
21
44.054915
31
0.0
0
LINE
8
0
6
CONTINUOUS
10
-6.818550
20
44.865985
30
0.0
11
-7.718280
21
44.844755
31
0.0
0
LINE
8
0
6
CONTINUOUS
10
3.850220
20
41.097405
30
0.0
11
4.318490
21
40.328795
31
0.0
0
LINE
8
0
6
CONTINUOUS
10
5.218230
20
40.350045
30
0.0
11
5.649730
21
41.139875
31
0.0
0
LINE
8
0
6
CONTINUOUS
10
4.318490
20
40.328795
30
0.0
11
5.218230
21
40.350045
31
0.0
0
LINE
8
0
6
CONTINUOUS
10
-2.949770
20
44.054915
30
0.0
11
-2.481510
21
43.286315
31
0.0
0
LINE
8
0
6
CONTINUOUS
10
-1.581770
20
43.307565
30
0.0
11
-1.150270
21
44.097395
31
0.0
0
LINE
8
0
6
CONTINUOUS
10
-2.481510
20
43.286315
30
0.0
11
-1.581770
21
43.307565
31
0.0
0
LINE
8
0
6
CONTINUOUS
10
-6.781770
20
43.307585
30
0.0
11
-6.350280
21
44.097395
31
0.0
0
LINE
8
0
6
CONTINUOUS
10
-7.681510
20
43.286355
30
0.0
11
-6.781770
21
43.307585
31
0.0
0
LINE
8
0
6
CONTINUOUS
10
-8.149770
20
44.054915
30
0.0
11
-7.681510
21
43.286355
31
0.0
0
LINE
8
0
6
CONTINUOUS
10
-2.518280
20
44.844735
30
0.0
11
-2.949770
21
44.054915
31
0.0
0
LINE
8
0
6
CONTINUOUS
10
-1.618540
20
44.865985
30
0.0
11
-2.518280
21
44.844735
31
0.0
0
LINE
8
0
6
CONTINUOUS
10
-1.150270
20
44.097395
30
0.0
11
-1.618540
21
44.865985
31
0.0
0
LINE
8
0
6
CONTINUOUS
10
2.518230
20
43.307585
30
0.0
11
2.949720
21
44.097415
31
0.0
0
LINE
8
0
6
CONTINUOUS
10
1.618490
20
43.286335
30
0.0
11
2.518230
21
43.307585
31
0.0
0
LINE
8
0
6
CONTINUOUS
10
1.150220
20
44.054935
30
0.0
11
1.618490
21
43.286335
31
0.0
0
LINE
8
0
6
CONTINUOUS
10
6.781720
20
44.844755
30
0.0
11
6.350220
21
44.054935
31
0.0
0
LINE
8
0
6
CONTINUOUS
10
7.681460
20
44.865995
30
0.0
11
6.781720
21
44.844755
31
0.0
0
LINE
8
0
6
CONTINUOUS
10
8.149730
20
44.097415
30
0.0
11
7.681460
21
44.865995
31
0.0
0
LINE
8
0
6
CONTINUOUS
10
-5.181510
20
41.866005
30
0.0
11
-5.649780
21
41.097385
31
0.0
0
LINE
8
0
6
CONTINUOUS
10
-4.281770
20
41.844735
30
0.0
11
-5.181510
21
41.866005
31
0.0
0
LINE
8
0
6
CONTINUOUS
10
-3.850270
20
41.054925
30
0.0
11
-4.281770
21
41.844735
31
0.0
0
LINE
8
0
6
CONTINUOUS
10
-0.431510
20
41.866005
30
0.0
11
-0.899780
21
41.097385
31
0.0
0
LINE
8
0
6
CONTINUOUS
10
0.468230
20
41.844735
30
0.0
11
-0.431510
21
41.866005
31
0.0
0
LINE
8
0
6
CONTINUOUS
10
0.899730
20
41.054925
30
0.0
11
0.468230
21
41.844735
31
0.0
0
LINE
8
0
6
CONTINUOUS
10
4.281720
20
41.887215
30
0.0
11
3.850220
21
41.097405
31
0.0
0
LINE
8
0
6
CONTINUOUS
10
5.181460
20
41.908465
30
0.0
11
4.281720
21
41.887215
31
0.0
0
LINE
8
0
6
CONTINUOUS
10
5.649730
20
41.139875
30
0.0
11
5.181460
21
41.908465
31
0.0
0
LINE
8
0
6
CONTINUOUS
10
2.949720
20
38.098055
30
0.0
11
2.481460
21
38.866645
31
0.0
0
LINE
8
0
6
CONTINUOUS
10
1.581720
20
38.845395
30
0.0
11
1.150220
21
38.055585
31
0.0
0
LINE
8
0
6
CONTINUOUS
10
2.481460
20
38.866645
30
0.0
11
1.581720
21
38.845395
31
0.0
0
LINE
8
0
6
CONTINUOUS
10
6.350220
20
38.055585
30
0.0
11
6.818490
21
37.286975
31
0.0
0
LINE
8
0
6
CONTINUOUS
10
7.718230
20
37.308225
30
0.0
11
8.149730
21
38.098055
31
0.0
0
LINE
8
0
6
CONTINUOUS
10
6.818490
20
37.286975
30
0.0
11
7.718230
21
37.308225
31
0.0
0
LINE
8
0
6
CONTINUOUS
10
-0.468280
20
34.308235
30
0.0
11
0.431460
21
34.286985
31
0.0
0
LINE
8
0
6
CONTINUOUS
10
-0.899780
20
35.098025
30
0.0
11
-0.468280
21
34.308235
31
0.0
0
LINE
8
0
6
CONTINUOUS
10
0.431460
20
34.286985
30
0.0
11
0.899730
21
35.055575
31
0.0
0
LINE
8
0
6
CONTINUOUS
10
-5.649780
20
35.098025
30
0.0
11
-5.218280
21
34.308235
31
0.0
0
LINE
8
0
6
CONTINUOUS
10
-4.318540
20
34.286985
30
0.0
11
-3.850270
21
35.055575
31
0.0
0
LINE
8
0
6
CONTINUOUS
10
-5.218280
20
34.308235
30
0.0
11
-4.318540
21
34.286985
31
0.0
0
LINE
8
0
6
CONTINUOUS
10
-6.350280
20
38.098035
30
0.0
11
-6.818550
21
38.866625
31
0.0
0
LINE
8
0
6
CONTINUOUS
10
-7.718280
20
38.845395
30
0.0
11
-8.149770
21
38.055565
31
0.0
0
LINE
8
0
6
CONTINUOUS
10
-6.818550
20
38.866625
30
0.0
11
-7.718280
21
38.845395
31
0.0
0
LINE
8
0
6
CONTINUOUS
10
3.850220
20
35.098045
30
0.0
11
4.318490
21
34.329445
31
0.0
0
LINE
8
0
6
CONTINUOUS
10
5.218230
20
34.350695
30
0.0
11
5.649730
21
35.140525
31
0.0
0
LINE
8
0
6
CONTINUOUS
10
4.318490
20
34.329445
30
0.0
11
5.218230
21
34.350695
31
0.0
0
LINE
8
0
6
CONTINUOUS
10
-2.949770
20
38.055565
30
0.0
11
-2.481510
21
37.286955
31
0.0
0
LINE
8
0
6
CONTINUOUS
10
-1.581770
20
37.308205
30
0.0
11
-1.150270
21
38.098035
31
0.0
0
LINE
8
0
6
CONTINUOUS
10
-2.481510
20
37.286955
30
0.0
11
-1.581770
21
37.308205
31
0.0
0
LINE
8
0
6
CONTINUOUS
10
-6.781770
20
37.308225
30
0.0
11
-6.350280
21
38.098035
31
0.0
0
LINE
8
0
6
CONTINUOUS
10
-7.681510
20
37.286995
30
0.0
11
-6.781770
21
37.308225
31
0.0
0
LINE
8
0
6
CONTINUOUS
10
-8.149770
20
38.055565
30
0.0
11
-7.681510
21
37.286995
31
0.0
0
LINE
8
0
6
CONTINUOUS
10
-2.518280
20
38.845375
30
0.0
11
-2.949770
21
38.055565
31
0.0
0
LINE
8
0
6
CONTINUOUS
10
-1.618540
20
38.866625
30
0.0
11
-2.518280
21
38.845375
31
0.0
0
LINE
8
0
6
CONTINUOUS
10
-1.150270
20
38.098035
30
0.0
11
-1.618540
21
38.866625
31
0.0
0
LINE
8
0
6
CONTINUOUS
10
2.518230
20
37.308225
30
0.0
11
2.949720
21
38.098055
31
0.0
0
LINE
8
0
6
CONTINUOUS
10
1.618490
20
37.286975
30
0.0
11
2.518230
21
37.308225
31
0.0
0
LINE
8
0
6
CONTINUOUS
10
1.150220
20
38.055585
30
0.0
11
1.618490
21
37.286975
31
0.0
0
LINE
8
0
6
CONTINUOUS
10
6.781720
20
38.845395
30
0.0
11
6.350220
21
38.055585
31
0.0
0
LINE
8
0
6
CONTINUOUS
10
7.681460
20
38.866645
30
0.0
11
6.781720
21
38.845395
31
0.0
0
LINE
8
0
6
CONTINUOUS
10
8.149730
20
38.098055
30
0.0
11
7.681460
21
38.866645
31
0.0
0
LINE
8
0
6
CONTINUOUS
10
-5.181510
20
35.866655
30
0.0
11
-5.649780
21
35.098025
31
0.0
0
LINE
8
0
6
CONTINUOUS
10
-4.281770
20
35.845385
30
0.0
11
-5.181510
21
35.866655
31
0.0
0
LINE
8
0
6
CONTINUOUS
10
-3.850270
20
35.055575
30
0.0
11
-4.281770
21
35.845385
31
0.0
0
LINE
8
0
6
CONTINUOUS
10
-0.431510
20
35.866655
30
0.0
11
-0.899780
21
35.098025
31
0.0
0
LINE
8
0
6
CONTINUOUS
10
0.468230
20
35.845385
30
0.0
11
-0.431510
21
35.866655
31
0.0
0
LINE
8
0
6
CONTINUOUS
10
0.899730
20
35.055575
30
0.0
11
0.468230
21
35.845385
31
0.0
0
LINE
8
0
6
CONTINUOUS
10
4.281720
20
35.887865
30
0.0
11
3.850220
21
35.098045
31
0.0
0
LINE
8
0
6
CONTINUOUS
10
5.181460
20
35.909105
30
0.0
11
4.281720
21
35.887865
31
0.0
0
LINE
8
0
6
CONTINUOUS
10
5.649730
20
35.140525
30
0.0
11
5.181460
21
35.909105
31
0.0
0
LINE
8
0
6
CONTINUOUS
10
2.949720
20
32.098715
30
0.0
11
2.481460
21
32.867295
31
0.0
0
LINE
8
0
6
CONTINUOUS
10
1.581720
20
32.846055
30
0.0
11
1.150220
21
32.056235
31
0.0
0
LINE
8
0
6
CONTINUOUS
10
2.481460
20
32.867295
30
0.0
11
1.581720
21
32.846055
31
0.0
0
LINE
8
0
6
CONTINUOUS
10
6.350220
20
32.056235
30
0.0
11
6.818490
21
31.287635
31
0.0
0
LINE
8
0
6
CONTINUOUS
10
7.718230
20
31.308875
30
0.0
11
8.149730
21
32.098715
31
0.0
0
LINE
8
0
6
CONTINUOUS
10
6.818490
20
31.287635
30
0.0
11
7.718230
21
31.308875
31
0.0
0
LINE
8
0
6
CONTINUOUS
10
-0.468280
20
28.308885
30
0.0
11
0.431460
21
28.287635
31
0.0
0
LINE
8
0
6
CONTINUOUS
10
-0.899780
20
29.098685
30
0.0
11
-0.468280
21
28.308885
31
0.0
0
LINE
8
0
6
CONTINUOUS
10
0.431460
20
28.287635
30
0.0
11
0.899730
21
29.056225
31
0.0
0
LINE
8
0
6
CONTINUOUS
10
-5.649780
20
29.098685
30
0.0
11
-5.218280
21
28.308885
31
0.0
0
LINE
8
0
6
CONTINUOUS
10
-4.318540
20
28.287635
30
0.0
11
-3.850270
21
29.056225
31
0.0
0
LINE
8
0
6
CONTINUOUS
10
-5.218280
20
28.308885
30
0.0
11
-4.318540
21
28.287635
31
0.0
0
LINE
8
0
6
CONTINUOUS
10
-6.350280
20
32.098695
30
0.0
11
-6.818550
21
32.867275
31
0.0
0
LINE
8
0
6
CONTINUOUS
10
-7.718280
20
32.846055
30
0.0
11
-8.149770
21
32.056215
31
0.0
0
LINE
8
0
6
CONTINUOUS
10
-6.818550
20
32.867275
30
0.0
11
-7.718280
21
32.846055
31
0.0
0
LINE
8
0
6
CONTINUOUS
10
3.850220
20
29.098705
30
0.0
11
4.318490
21
28.330095
31
0.0
0
LINE
8
0
6
CONTINUOUS
10
5.218230
20
28.351345
30
0.0
11
5.649730
21
29.141175
31
0.0
0
LINE
8
0
6
CONTINUOUS
10
4.318490
20
28.330095
30
0.0
11
5.218230
21
28.351345
31
0.0
0
LINE
8
0
6
CONTINUOUS
10
-2.949770
20
32.056215
30
0.0
11
-2.481510
21
31.287615
31
0.0
0
LINE
8
0
6
CONTINUOUS
10
-1.581770
20
31.308865
30
0.0
11
-1.150270
21
32.098695
31
0.0
0
LINE
8
0
6
CONTINUOUS
10
-2.481510
20
31.287615
30
0.0
11
-1.581770
21
31.308865
31
0.0
0
LINE
8
0
6
CONTINUOUS
10
-6.781770
20
31.308875
30
0.0
11
-6.350280
21
32.098695
31
0.0
0
LINE
8
0
6
CONTINUOUS
10
-7.681510
20
31.287655
30
0.0
11
-6.781770
21
31.308875
31
0.0
0
LINE
8
0
6
CONTINUOUS
10
-8.149770
20
32.056215
30
0.0
11
-7.681510
21
31.287655
31
0.0
0
LINE
8
0
6
CONTINUOUS
10
-2.518280
20
32.846035
30
0.0
11
-2.949770
21
32.056215
31
0.0
0
LINE
8
0
6
CONTINUOUS
10
-1.618540
20
32.867275
30
0.0
11
-2.518280
21
32.846035
31
0.0
0
LINE
8
0
6
CONTINUOUS
10
-1.150270
20
32.098695
30
0.0
11
-1.618540
21
32.867275
31
0.0
0
LINE
8
0
6
CONTINUOUS
10
2.518230
20
31.308875
30
0.0
11
2.949720
21
32.098715
31
0.0
0
LINE
8
0
6
CONTINUOUS
10
1.618490
20
31.287635
30
0.0
11
2.518230
21
31.308875
31
0.0
0
LINE
8
0
6
CONTINUOUS
10
1.150220
20
32.056235
30
0.0
11
1.618490
21
31.287635
31
0.0
0
LINE
8
0
6
CONTINUOUS
10
6.781720
20
32.846055
30
0.0
11
6.350220
21
32.056235
31
0.0
0
LINE
8
0
6
CONTINUOUS
10
7.681460
20
32.867295
30
0.0
11
6.781720
21
32.846055
31
0.0
0
LINE
8
0
6
CONTINUOUS
10
8.149730
20
32.098715
30
0.0
11
7.681460
21
32.867295
31
0.0
0
LINE
8
0
6
CONTINUOUS
10
-5.181510
20
29.867305
30
0.0
11
-5.649780
21
29.098685
31
0.0
0
LINE
8
0
6
CONTINUOUS
10
-4.281770
20
29.846035
30
0.0
11
-5.181510
21
29.867305
31
0.0
0
LINE
8
0
6
CONTINUOUS
10
-3.850270
20
29.056225
30
0.0
11
-4.281770
21
29.846035
31
0.0
0
LINE
8
0
6
CONTINUOUS
10
-0.431510
20
29.867305
30
0.0
11
-0.899780
21
29.098685
31
0.0
0
LINE
8
0
6
CONTINUOUS
10
0.468230
20
29.846035
30
0.0
11
-0.431510
21
29.867305
31
0.0
0
LINE
8
0
6
CONTINUOUS
10
0.899730
20
29.056225
30
0.0
11
0.468230
21
29.846035
31
0.0
0
LINE
8
0
6
CONTINUOUS
10
4.281720
20
29.888515
30
0.0
11
3.850220
21
29.098705
31
0.0
0
LINE
8
0
6
CONTINUOUS
10
5.181460
20
29.909765
30
0.0
11
4.281720
21
29.888515
31
0.0
0
LINE
8
0
6
CONTINUOUS
10
5.649730
20
29.141175
30
0.0
11
5.181460
21
29.909765
31
0.0
0
LINE
8
0
6
CONTINUOUS
10
2.949720
20
26.099355
30
0.0
11
2.481460
21
26.867945
31
0.0
0
LINE
8
0
6
CONTINUOUS
10
1.581720
20
26.846695
30
0.0
11
1.150220
21
26.056885
31
0.0
0
LINE
8
0
6
CONTINUOUS
10
2.481460
20
26.867945
30
0.0
11
1.581720
21
26.846695
31
0.0
0
LINE
8
0
6
CONTINUOUS
10
6.350220
20
26.056885
30
0.0
11
6.818490
21
25.288275
31
0.0
0
LINE
8
0
6
CONTINUOUS
10
7.718230
20
25.309525
30
0.0
11
8.149730
21
26.099355
31
0.0
0
LINE
8
0
6
CONTINUOUS
10
6.818490
20
25.288275
30
0.0
11
7.718230
21
25.309525
31
0.0
0
LINE
8
0
6
CONTINUOUS
10
-0.468280
20
22.309535
30
0.0
11
0.431460
21
22.288285
31
0.0
0
LINE
8
0
6
CONTINUOUS
10
-0.899780
20
23.099325
30
0.0
11
-0.468280
21
22.309535
31
0.0
0
LINE
8
0
6
CONTINUOUS
10
0.431460
20
22.288285
30
0.0
11
0.899730
21
23.056865
31
0.0
0
LINE
8
0
6
CONTINUOUS
10
-5.649780
20
23.099325
30
0.0
11
-5.218280
21
22.309535
31
0.0
0
LINE
8
0
6
CONTINUOUS
10
-4.318540
20
22.288285
30
0.0
11
-3.850270
21
23.056865
31
0.0
0
LINE
8
0
6
CONTINUOUS
10
-5.218280
20
22.309535
30
0.0
11
-4.318540
21
22.288285
31
0.0
0
LINE
8
0
6
CONTINUOUS
10
-6.350280
20
26.099335
30
0.0
11
-6.818550
21
26.867925
31
0.0
0
LINE
8
0
6
CONTINUOUS
10
-7.718280
20
26.846695
30
0.0
11
-8.149770
21
26.056865
31
0.0
0
LINE
8
0
6
CONTINUOUS
10
-6.818550
20
26.867925
30
0.0
11
-7.718280
21
26.846695
31
0.0
0
LINE
8
0
6
CONTINUOUS
10
3.850220
20
23.099345
30
0.0
11
4.318490
21
22.330745
31
0.0
0
LINE
8
0
6
CONTINUOUS
10
5.218230
20
22.351985
30
0.0
11
5.649730
21
23.141825
31
0.0
0
LINE
8
0
6
CONTINUOUS
10
4.318490
20
22.330745
30
0.0
11
5.218230
21
22.351985
31
0.0
0
LINE
8
0
6
CONTINUOUS
10
-2.949770
20
26.056865
30
0.0
11
-2.481510
21
25.288255
31
0.0
0
LINE
8
0
6
CONTINUOUS
10
-1.581770
20
25.309505
30
0.0
11
-1.150270
21
26.099335
31
0.0
0
LINE
8
0
6
CONTINUOUS
10
-2.481510
20
25.288255
30
0.0
11
-1.581770
21
25.309505
31
0.0
0
LINE
8
0
6
CONTINUOUS
10
-6.781770
20
25.309525
30
0.0
11
-6.350280
21
26.099335
31
0.0
0
LINE
8
0
6
CONTINUOUS
10
-7.681510
20
25.288295
30
0.0
11
-6.781770
21
25.309525
31
0.0
0
LINE
8
0
6
CONTINUOUS
10
-8.149770
20
26.056865
30
0.0
11
-7.681510
21
25.288295
31
0.0
0
LINE
8
0
6
CONTINUOUS
10
-2.518280
20
26.846675
30
0.0
11
-2.949770
21
26.056865
31
0.0
0
LINE
8
0
6
CONTINUOUS
10
-1.618540
20
26.867925
30
0.0
11
-2.518280
21
26.846675
31
0.0
0
LINE
8
0
6
CONTINUOUS
10
-1.150270
20
26.099335
30
0.0
11
-1.618540
21
26.867925
31
0.0
0
LINE
8
0
6
CONTINUOUS
10
2.518230
20
25.309525
30
0.0
11
2.949720
21
26.099355
31
0.0
0
LINE
8
0
6
CONTINUOUS
10
1.618490
20
25.288275
30
0.0
11
2.518230
21
25.309525
31
0.0
0
LINE
8
0
6
CONTINUOUS
10
1.150220
20
26.056885
30
0.0
11
1.618490
21
25.288275
31
0.0
0
LINE
8
0
6
CONTINUOUS
10
6.781720
20
26.846695
30
0.0
11
6.350220
21
26.056885
31
0.0
0
LINE
8
0
6
CONTINUOUS
10
7.681460
20
26.867945
30
0.0
11
6.781720
21
26.846695
31
0.0
0
LINE
8
0
6
CONTINUOUS
10
8.149730
20
26.099355
30
0.0
11
7.681460
21
26.867945
31
0.0
0
LINE
8
0
6
CONTINUOUS
10
-5.181510
20
23.867955
30
0.0
11
-5.649780
21
23.099325
31
0.0
0
LINE
8
0
6
CONTINUOUS
10
-4.281770
20
23.846685
30
0.0
11
-5.181510
21
23.867955
31
0.0
0
LINE
8
0
6
CONTINUOUS
10
-3.850270
20
23.056865
30
0.0
11
-4.281770
21
23.846685
31
0.0
0
LINE
8
0
6
CONTINUOUS
10
-0.431510
20
23.867955
30
0.0
11
-0.899780
21
23.099325
31
0.0
0
LINE
8
0
6
CONTINUOUS
10
0.468230
20
23.846685
30
0.0
11
-0.431510
21
23.867955
31
0.0
0
LINE
8
0
6
CONTINUOUS
10
0.899730
20
23.056865
30
0.0
11
0.468230
21
23.846685
31
0.0
0
LINE
8
0
6
CONTINUOUS
10
4.281720
20
23.889165
30
0.0
11
3.850220
21
23.099345
31
0.0
0
LINE
8
0
6
CONTINUOUS
10
5.181460
20
23.910405
30
0.0
11
4.281720
21
23.889165
31
0.0
0
LINE
8
0
6
CONTINUOUS
10
5.649730
20
23.141825
30
0.0
11
5.181460
21
23.910405
31
0.0
0
LINE
8
0
6
CONTINUOUS
10
2.949720
20
20.100005
30
0.0
11
2.481460
21
20.868585
31
0.0
0
LINE
8
0
6
CONTINUOUS
10
1.581720
20
20.847335
30
0.0
11
1.150220
21
20.057525
31
0.0
0
LINE
8
0
6
CONTINUOUS
10
2.481460
20
20.868585
30
0.0
11
1.581720
21
20.847335
31
0.0
0
LINE
8
0
6
CONTINUOUS
10
6.350220
20
20.057525
30
0.0
11
6.818490
21
19.288925
31
0.0
0
LINE
8
0
6
CONTINUOUS
10
7.718230
20
19.310165
30
0.0
11
8.149730
21
20.100005
31
0.0
0
LINE
8
0
6
CONTINUOUS
10
6.818490
20
19.288925
30
0.0
11
7.718230
21
19.310165
31
0.0
0
LINE
8
0
6
CONTINUOUS
10
-0.468280
20
16.310175
30
0.0
11
0.431460
21
16.288925
31
0.0
0
LINE
8
0
6
CONTINUOUS
10
-0.899780
20
17.099975
30
0.0
11
-0.468280
21
16.310175
31
0.0
0
LINE
8
0
6
CONTINUOUS
10
0.431460
20
16.288925
30
0.0
11
0.899730
21
17.057515
31
0.0
0
LINE
8
0
6
CONTINUOUS
10
-5.649780
20
17.099975
30
0.0
11
-5.218280
21
16.310175
31
0.0
0
LINE
8
0
6
CONTINUOUS
10
-4.318540
20
16.288925
30
0.0
11
-3.850270
21
17.057515
31
0.0
0
LINE
8
0
6
CONTINUOUS
10
-5.218280
20
16.310175
30
0.0
11
-4.318540
21
16.288925
31
0.0
0
LINE
8
0
6
CONTINUOUS
10
-6.350280
20
20.099985
30
0.0
11
-6.818550
21
20.868565
31
0.0
0
LINE
8
0
6
CONTINUOUS
10
-7.718280
20
20.847335
30
0.0
11
-8.149770
21
20.057505
31
0.0
0
LINE
8
0
6
CONTINUOUS
10
-6.818550
20
20.868565
30
0.0
11
-7.718280
21
20.847335
31
0.0
0
LINE
8
0
6
CONTINUOUS
10
3.850220
20
17.099995
30
0.0
11
4.318490
21
16.331385
31
0.0
0
LINE
8
0
6
CONTINUOUS
10
5.218230
20
16.352635
30
0.0
11
5.649730
21
17.142465
31
0.0
0
LINE
8
0
6
CONTINUOUS
10
4.318490
20
16.331385
30
0.0
11
5.218230
21
16.352635
31
0.0
0
LINE
8
0
6
CONTINUOUS
10
-2.949770
20
20.057505
30
0.0
11
-2.481510
21
19.288905
31
0.0
0
LINE
8
0
6
CONTINUOUS
10
-1.581770
20
19.310155
30
0.0
11
-1.150270
21
20.099985
31
0.0
0
LINE
8
0
6
CONTINUOUS
10
-2.481510
20
19.288905
30
0.0
11
-1.581770
21
19.310155
31
0.0
0
LINE
8
0
6
CONTINUOUS
10
-6.781770
20
19.310165
30
0.0
11
-6.350280
21
20.099985
31
0.0
0
LINE
8
0
6
CONTINUOUS
10
-7.681510
20
19.288945
30
0.0
11
-6.781770
21
19.310165
31
0.0
0
LINE
8
0
6
CONTINUOUS
10
-8.149770
20
20.057505
30
0.0
11
-7.681510
21
19.288945
31
0.0
0
LINE
8
0
6
CONTINUOUS
10
-2.518280
20
20.847325
30
0.0
11
-2.949770
21
20.057505
31
0.0
0
LINE
8
0
6
CONTINUOUS
10
-1.618540
20
20.868565
30
0.0
11
-2.518280
21
20.847325
31
0.0
0
LINE
8
0
6
CONTINUOUS
10
-1.150270
20
20.099985
30
0.0
11
-1.618540
21
20.868565
31
0.0
0
LINE
8
0
6
CONTINUOUS
10
2.518230
20
19.310165
30
0.0
11
2.949720
21
20.100005
31
0.0
0
LINE
8
0
6
CONTINUOUS
10
1.618490
20
19.288925
30
0.0
11
2.518230
21
19.310165
31
0.0
0
LINE
8
0
6
CONTINUOUS
10
1.150220
20
20.057525
30
0.0
11
1.618490
21
19.288925
31
0.0
0
LINE
8
0
6
CONTINUOUS
10
6.781720
20
20.847335
30
0.0
11
6.350220
21
20.057525
31
0.0
0
LINE
8
0
6
CONTINUOUS
10
7.681460
20
20.868585
30
0.0
11
6.781720
21
20.847335
31
0.0
0
LINE
8
0
6
CONTINUOUS
10
8.149730
20
20.100005
30
0.0
11
7.681460
21
20.868585
31
0.0
0
LINE
8
0
6
CONTINUOUS
10
-5.181510
20
17.868595
30
0.0
11
-5.649780
21
17.099975
31
0.0
0
LINE
8
0
6
CONTINUOUS
10
-4.281770
20
17.847325
30
0.0
11
-5.181510
21
17.868595
31
0.0
0
LINE
8
0
6
CONTINUOUS
10
-3.850270
20
17.057515
30
0.0
11
-4.281770
21
17.847325
31
0.0
0
LINE
8
0
6
CONTINUOUS
10
-0.431510
20
17.868595
30
0.0
11
-0.899780
21
17.099975
31
0.0
0
LINE
8
0
6
CONTINUOUS
10
0.468230
20
17.847325
30
0.0
11
-0.431510
21
17.868595
31
0.0
0
LINE
8
0
6
CONTINUOUS
10
0.899730
20
17.057515
30
0.0
11
0.468230
21
17.847325
31
0.0
0
LINE
8
0
6
CONTINUOUS
10
4.281720
20
17.889805
30
0.0
11
3.850220
21
17.099995
31
0.0
0
LINE
8
0
6
CONTINUOUS
10
5.181460
20
17.911055
30
0.0
11
4.281720
21
17.889805
31
0.0
0
LINE
8
0
6
CONTINUOUS
10
5.649730
20
17.142465
30
0.0
11
5.181460
21
17.911055
31
0.0
0
LINE
8
0
6
CONTINUOUS
10
2.949720
20
14.100645
30
0.0
11
2.481460
21
14.869235
31
0.0
0
LINE
8
0
6
CONTINUOUS
10
1.581720
20
14.847985
30
0.0
11
1.150220
21
14.058175
31
0.0
0
LINE
8
0
6
CONTINUOUS
10
2.481460
20
14.869235
30
0.0
11
1.581720
21
14.847985
31
0.0
0
LINE
8
0
6
CONTINUOUS
10
6.350220
20
14.058175
30
0.0
11
6.818490
21
13.289565
31
0.0
0
LINE
8
0
6
CONTINUOUS
10
7.718230
20
13.310815
30
0.0
11
8.149730
21
14.100645
31
0.0
0
LINE
8
0
6
CONTINUOUS
10
6.818490
20
13.289565
30
0.0
11
7.718230
21
13.310815
31
0.0
0
LINE
8
0
6
CONTINUOUS
10
-0.468280
20
10.310825
30
0.0
11
0.431460
21
10.289575
31
0.0
0
LINE
8
0
6
CONTINUOUS
10
-0.899780
20
11.100615
30
0.0
11
-0.468280
21
10.310825
31
0.0
0
LINE
8
0
6
CONTINUOUS
10
0.431460
20
10.289575
30
0.0
11
0.899730
21
11.058155
31
0.0
0
LINE
8
0
6
CONTINUOUS
10
-5.649780
20
11.100615
30
0.0
11
-5.218280
21
10.310825
31
0.0
0
LINE
8
0
6
CONTINUOUS
10
-4.318540
20
10.289575
30
0.0
11
-3.850270
21
11.058155
31
0.0
0
LINE
8
0
6
CONTINUOUS
10
-5.218280
20
10.310825
30
0.0
11
-4.318540
21
10.289575
31
0.0
0
LINE
8
0
6
CONTINUOUS
10
-6.350280
20
14.100625
30
0.0
11
-6.818550
21
14.869215
31
0.0
0
LINE
8
0
6
CONTINUOUS
10
-7.718280
20
14.847985
30
0.0
11
-8.149770
21
14.058155
31
0.0
0
LINE
8
0
6
CONTINUOUS
10
-6.818550
20
14.869215
30
0.0
11
-7.718280
21
14.847985
31
0.0
0
LINE
8
0
6
CONTINUOUS
10
3.850220
20
11.100635
30
0.0
11
4.318490
21
10.332035
31
0.0
0
LINE
8
0
6
CONTINUOUS
10
5.218230
20
10.353275
30
0.0
11
5.649730
21
11.143115
31
0.0
0
LINE
8
0
6
CONTINUOUS
10
4.318490
20
10.332035
30
0.0
11
5.218230
21
10.353275
31
0.0
0
LINE
8
0
6
CONTINUOUS
10
-2.949770
20
14.058155
30
0.0
11
-2.481510
21
13.289545
31
0.0
0
LINE
8
0
6
CONTINUOUS
10
-1.581770
20
13.310795
30
0.0
11
-1.150270
21
14.100625
31
0.0
0
LINE
8
0
6
CONTINUOUS
10
-2.481510
20
13.289545
30
0.0
11
-1.581770
21
13.310795
31
0.0
0
LINE
8
0
6
CONTINUOUS
10
-6.781770
20
13.310815
30
0.0
11
-6.350280
21
14.100625
31
0.0
0
LINE
8
0
6
CONTINUOUS
10
-7.681510
20
13.289585
30
0.0
11
-6.781770
21
13.310815
31
0.0
0
LINE
8
0
6
CONTINUOUS
10
-8.149770
20
14.058155
30
0.0
11
-7.681510
21
13.289585
31
0.0
0
LINE
8
0
6
CONTINUOUS
10
-2.518280
20
14.847965
30
0.0
11
-2.949770
21
14.058155
31
0.0
0
LINE
8
0
6
CONTINUOUS
10
-1.618540
20
14.869215
30
0.0
11
-2.518280
21
14.847965
31
0.0
0
LINE
8
0
6
CONTINUOUS
10
-1.150270
20
14.100625
30
0.0
11
-1.618540
21
14.869215
31
0.0
0
LINE
8
0
6
CONTINUOUS
10
2.518230
20
13.310815
30
0.0
11
2.949720
21
14.100645
31
0.0
0
LINE
8
0
6
CONTINUOUS
10
1.618490
20
13.289565
30
0.0
11
2.518230
21
13.310815
31
0.0
0
LINE
8
0
6
CONTINUOUS
10
1.150220
20
14.058175
30
0.0
11
1.618490
21
13.289565
31
0.0
0
LINE
8
0
6
CONTINUOUS
10
6.781720
20
14.847985
30
0.0
11
6.350220
21
14.058175
31
0.0
0
LINE
8
0
6
CONTINUOUS
10
7.681460
20
14.869235
30
0.0
11
6.781720
21
14.847985
31
0.0
0
LINE
8
0
6
CONTINUOUS
10
8.149730
20
14.100645
30
0.0
11
7.681460
21
14.869235
31
0.0
0
LINE
8
0
6
CONTINUOUS
10
-5.181510
20
11.869235
30
0.0
11
-5.649780
21
11.100615
31
0.0
0
LINE
8
0
6
CONTINUOUS
10
-4.281770
20
11.847975
30
0.0
11
-5.181510
21
11.869235
31
0.0
0
LINE
8
0
6
CONTINUOUS
10
-3.850270
20
11.058155
30
0.0
11
-4.281770
21
11.847975
31
0.0
0
LINE
8
0
6
CONTINUOUS
10
-0.431510
20
11.869235
30
0.0
11
-0.899780
21
11.100615
31
0.0
0
LINE
8
0
6
CONTINUOUS
10
0.468230
20
11.847975
30
0.0
11
-0.431510
21
11.869235
31
0.0
0
LINE
8
0
6
CONTINUOUS
10
0.899730
20
11.058155
30
0.0
11
0.468230
21
11.847975
31
0.0
0
LINE
8
0
6
CONTINUOUS
10
4.281720
20
11.890445
30
0.0
11
3.850220
21
11.100635
31
0.0
0
LINE
8
0
6
CONTINUOUS
10
5.181460
20
11.911695
30
0.0
11
4.281720
21
11.890445
31
0.0
0
LINE
8
0
6
CONTINUOUS
10
5.649730
20
11.143115
30
0.0
11
5.181460
21
11.911695
31
0.0
0
LINE
8
0
6
CONTINUOUS
10
2.949720
20
8.101305
30
0.0
11
2.481460
21
8.869885
31
0.0
0
LINE
8
0
6
CONTINUOUS
10
1.581720
20
8.848635
30
0.0
11
1.150220
21
8.058825
31
0.0
0
LINE
8
0
6
CONTINUOUS
10
2.481460
20
8.869885
30
0.0
11
1.581720
21
8.848635
31
0.0
0
LINE
8
0
6
CONTINUOUS
10
6.350220
20
8.058825
30
0.0
11
6.818490
21
7.290225
31
0.0
0
LINE
8
0
6
CONTINUOUS
10
7.718230
20
7.311465
30
0.0
11
8.149730
21
8.101305
31
0.0
0
LINE
8
0
6
CONTINUOUS
10
6.818490
20
7.290225
30
0.0
11
7.718230
21
7.311465
31
0.0
0
LINE
8
0
6
CONTINUOUS
10
-0.468280
20
4.311475
30
0.0
11
0.431460
21
4.290225
31
0.0
0
LINE
8
0
6
CONTINUOUS
10
-0.899780
20
5.101275
30
0.0
11
-0.468280
21
4.311475
31
0.0
0
LINE
8
0
6
CONTINUOUS
10
0.431460
20
4.290225
30
0.0
11
0.899730
21
5.058815
31
0.0
0
LINE
8
0
6
CONTINUOUS
10
-5.649780
20
5.101275
30
0.0
11
-5.218280
21
4.311475
31
0.0
0
LINE
8
0
6
CONTINUOUS
10
-4.318540
20
4.290225
30
0.0
11
-3.850270
21
5.058815
31
0.0
0
LINE
8
0
6
CONTINUOUS
10
-5.218280
20
4.311475
30
0.0
11
-4.318540
21
4.290225
31
0.0
0
LINE
8
0
6
CONTINUOUS
10
-6.350280
20
8.101285
30
0.0
11
-6.818550
21
8.869865
31
0.0
0
LINE
8
0
6
CONTINUOUS
10
-7.718280
20
8.848635
30
0.0
11
-8.149770
21
8.058805
31
0.0
0
LINE
8
0
6
CONTINUOUS
10
-6.818550
20
8.869865
30
0.0
11
-7.718280
21
8.848635
31
0.0
0
LINE
8
0
6
CONTINUOUS
10
3.850220
20
5.101285
30
0.0
11
4.318490
21
4.332685
31
0.0
0
LINE
8
0
6
CONTINUOUS
10
5.218230
20
4.353935
30
0.0
11
5.649730
21
5.143765
31
0.0
0
LINE
8
0
6
CONTINUOUS
10
4.318490
20
4.332685
30
0.0
11
5.218230
21
4.353935
31
0.0
0
LINE
8
0
6
CONTINUOUS
10
-2.949770
20
8.058805
30
0.0
11
-2.481510
21
7.290205
31
0.0
0
LINE
8
0
6
CONTINUOUS
10
-1.581770
20
7.311445
30
0.0
11
-1.150270
21
8.101285
31
0.0
0
LINE
8
0
6
CONTINUOUS
10
-2.481510
20
7.290205
30
0.0
11
-1.581770
21
7.311445
31
0.0
0
LINE
8
0
6
CONTINUOUS
10
-6.781770
20
7.311465
30
0.0
11
-6.350280
21
8.101285
31
0.0
0
LINE
8
0
6
CONTINUOUS
10
-7.681510
20
7.290235
30
0.0
11
-6.781770
21
7.311465
31
0.0
0
LINE
8
0
6
CONTINUOUS
10
-8.149770
20
8.058805
30
0.0
11
-7.681510
21
7.290235
31
0.0
0
LINE
8
0
6
CONTINUOUS
10
-2.518280
20
8.848615
30
0.0
11
-2.949770
21
8.058805
31
0.0
0
LINE
8
0
6
CONTINUOUS
10
-1.618540
20
8.869865
30
0.0
11
-2.518280
21
8.848615
31
0.0
0
LINE
8
0
6
CONTINUOUS
10
-1.150270
20
8.101285
30
0.0
11
-1.618540
21
8.869865
31
0.0
0
LINE
8
0
6
CONTINUOUS
10
2.518230
20
7.311465
30
0.0
11
2.949720
21
8.101305
31
0.0
0
LINE
8
0
6
CONTINUOUS
10
1.618490
20
7.290225
30
0.0
11
2.518230
21
7.311465
31
0.0
0
LINE
8
0
6
CONTINUOUS
10
1.150220
20
8.058825
30
0.0
11
1.618490
21
7.290225
31
0.0
0
LINE
8
0
6
CONTINUOUS
10
6.781720
20
8.848635
30
0.0
11
6.350220
21
8.058825
31
0.0
0
LINE
8
0
6
CONTINUOUS
10
7.681460
20
8.869885
30
0.0
11
6.781720
21
8.848635
31
0.0
0
LINE
8
0
6
CONTINUOUS
10
8.149730
20
8.101305
30
0.0
11
7.681460
21
8.869885
31
0.0
0
LINE
8
0
6
CONTINUOUS
10
-5.181510
20
5.869895
30
0.0
11
-5.649780
21
5.101275
31
0.0
0
LINE
8
0
6
CONTINUOUS
10
-4.281770
20
5.848625
30
0.0
11
-5.181510
21
5.869895
31
0.0
0
LINE
8
0
6
CONTINUOUS
10
-3.850270
20
5.058815
30
0.0
11
-4.281770
21
5.848625
31
0.0
0
LINE
8
0
6
CONTINUOUS
10
-0.431510
20
5.869895
30
0.0
11
-0.899780
21
5.101275
31
0.0
0
LINE
8
0
6
CONTINUOUS
10
0.468230
20
5.848625
30
0.0
11
-0.431510
21
5.869895
31
0.0
0
LINE
8
0
6
CONTINUOUS
10
0.899730
20
5.058815
30
0.0
11
0.468230
21
5.848625
31
0.0
0
LINE
8
0
6
CONTINUOUS
10
4.281720
20
5.891105
30
0.0
11
3.850220
21
5.101285
31
0.0
0
LINE
8
0
6
CONTINUOUS
10
5.181460
20
5.912355
30
0.0
11
4.281720
21
5.891105
31
0.0
0
LINE
8
0
6
CONTINUOUS
10
5.649730
20
5.143765
30
0.0
11
5.181460
21
5.912355
31
0.0
0
LINE
8
0
6
CONTINUOUS
10
2.949720
20
2.101955
30
0.0
11
2.481460
21
2.870545
31
0.0
0
LINE
8
0
6
CONTINUOUS
10
1.581720
20
2.849295
30
0.0
11
1.150220
21
2.059475
31
0.0
0
LINE
8
0
6
CONTINUOUS
10
2.481460
20
2.870545
30
0.0
11
1.581720
21
2.849295
31
0.0
0
LINE
8
0
6
CONTINUOUS
10
6.350220
20
2.059475
30
0.0
11
6.818490
21
1.290875
31
0.0
0
LINE
8
0
6
CONTINUOUS
10
7.718230
20
1.312125
30
0.0
11
8.149730
21
2.101955
31
0.0
0
LINE
8
0
6
CONTINUOUS
10
6.818490
20
1.290875
30
0.0
11
7.718230
21
1.312125
31
0.0
0
LINE
8
0
6
CONTINUOUS
10
-0.468280
20
-1.687875
30
0.0
11
0.431460
21
-1.709115
31
0.0
0
LINE
8
0
6
CONTINUOUS
10
-0.899780
20
-0.898075
30
0.0
11
-0.468280
21
-1.687875
31
0.0
0
LINE
8
0
6
CONTINUOUS
10
0.431460
20
-1.709115
30
0.0
11
0.899730
21
-0.940535
31
0.0
0
LINE
8
0
6
CONTINUOUS
10
-5.649780
20
-0.898075
30
0.0
11
-5.218280
21
-1.687875
31
0.0
0
LINE
8
0
6
CONTINUOUS
10
-4.318540
20
-1.709115
30
0.0
11
-3.850270
21
-0.940535
31
0.0
0
LINE
8
0
6
CONTINUOUS
10
-5.218280
20
-1.687875
30
0.0
11
-4.318540
21
-1.709115
31
0.0
0
LINE
8
0
6
CONTINUOUS
10
-6.350280
20
2.101935
30
0.0
11
-6.818550
21
2.870525
31
0.0
0
LINE
8
0
6
CONTINUOUS
10
-7.718280
20
2.849295
30
0.0
11
-8.149770
21
2.059455
31
0.0
0
LINE
8
0
6
CONTINUOUS
10
-6.818550
20
2.870525
30
0.0
11
-7.718280
21
2.849295
31
0.0
0
LINE
8
0
6
CONTINUOUS
10
3.850220
20
-0.898055
30
0.0
11
4.318490
21
-1.666665
31
0.0
0
LINE
8
0
6
CONTINUOUS
10
5.218230
20
-1.645415
30
0.0
11
5.649730
21
-0.855575
31
0.0
0
LINE
8
0
6
CONTINUOUS
10
4.318490
20
-1.666665
30
0.0
11
5.218230
21
-1.645415
31
0.0
0
LINE
8
0
6
CONTINUOUS
10
-2.949770
20
2.059455
30
0.0
11
-2.481510
21
1.290855
31
0.0
0
LINE
8
0
6
CONTINUOUS
10
-1.581770
20
1.312105
30
0.0
11
-1.150270
21
2.101935
31
0.0
0
LINE
8
0
6
CONTINUOUS
10
-2.481510
20
1.290855
30
0.0
11
-1.581770
21
1.312105
31
0.0
0
LINE
8
0
6
CONTINUOUS
10
-6.781770
20
1.312125
30
0.0
11
-6.350280
21
2.101935
31
0.0
0
LINE
8
0
6
CONTINUOUS
10
-7.681510
20
1.290895
30
0.0
11
-6.781770
21
1.312125
31
0.0
0
LINE
8
0
6
CONTINUOUS
10
-8.149770
20
2.059455
30
0.0
11
-7.681510
21
1.290895
31
0.0
0
LINE
8
0
6
CONTINUOUS
10
-2.518280
20
2.849275
30
0.0
11
-2.949770
21
2.059455
31
0.0
0
LINE
8
0
6
CONTINUOUS
10
-1.618540
20
2.870525
30
0.0
11
-2.518280
21
2.849275
31
0.0
0
LINE
8
0
6
CONTINUOUS
10
-1.150270
20
2.101935
30
0.0
11
-1.618540
21
2.870525
31
0.0
0
LINE
8
0
6
CONTINUOUS
10
2.518230
20
1.312125
30
0.0
11
2.949720
21
2.101955
31
0.0
0
LINE
8
0
6
CONTINUOUS
10
1.618490
20
1.290875
30
0.0
11
2.518230
21
1.312125
31
0.0
0
LINE
8
0
6
CONTINUOUS
10
1.150220
20
2.059475
30
0.0
11
1.618490
21
1.290875
31
0.0
0
LINE
8
0
6
CONTINUOUS
10
6.781720
20
2.849295
30
0.0
11
6.350220
21
2.059475
31
0.0
0
LINE
8
0
6
CONTINUOUS
10
7.681460
20
2.870545
30
0.0
11
6.781720
21
2.849295
31
0.0
0
LINE
8
0
6
CONTINUOUS
10
8.149730
20
2.101955
30
0.0
11
7.681460
21
2.870545
31
0.0
0
LINE
8
0
6
CONTINUOUS
10
-5.181510
20
-0.129455
30
0.0
11
-5.649780
21
-0.898075
31
0.0
0
LINE
8
0
6
CONTINUOUS
10
-4.281770
20
-0.150715
30
0.0
11
-5.181510
21
-0.129455
31
0.0
0
LINE
8
0
6
CONTINUOUS
10
-3.850270
20
-0.940535
30
0.0
11
-4.281770
21
-0.150715
31
0.0
0
LINE
8
0
6
CONTINUOUS
10
-0.431510
20
-0.129455
30
0.0
11
-0.899780
21
-0.898075
31
0.0
0
LINE
8
0
6
CONTINUOUS
10
0.468230
20
-0.150715
30
0.0
11
-0.431510
21
-0.129455
31
0.0
0
LINE
8
0
6
CONTINUOUS
10
0.899730
20
-0.940535
30
0.0
11
0.468230
21
-0.150715
31
0.0
0
LINE
8
0
6
CONTINUOUS
10
4.281720
20
-0.108245
30
0.0
11
3.850220
21
-0.898055
31
0.0
0
LINE
8
0
6
CONTINUOUS
10
5.181460
20
-0.086995
30
0.0
11
4.281720
21
-0.108245
31
0.0
0
LINE
8
0
6
CONTINUOUS
10
5.649730
20
-0.855575
30
0.0
11
5.181460
21
-0.086995
31
0.0
0
LINE
8
0
6
CONTINUOUS
10
2.949720
20
-3.897395
30
0.0
11
2.481460
21
-3.128815
31
0.0
0
LINE
8
0
6
CONTINUOUS
10
1.581720
20
-3.150065
30
0.0
11
1.150220
21
-3.939875
31
0.0
0
LINE
8
0
6
CONTINUOUS
10
2.481460
20
-3.128815
30
0.0
11
1.581720
21
-3.150065
31
0.0
0
LINE
8
0
6
CONTINUOUS
10
6.350220
20
-3.939875
30
0.0
11
6.818490
21
-4.708485
31
0.0
0
LINE
8
0
6
CONTINUOUS
10
7.718230
20
-4.687235
30
0.0
11
8.149730
21
-3.897395
31
0.0
0
LINE
8
0
6
CONTINUOUS
10
6.818490
20
-4.708485
30
0.0
11
7.718230
21
-4.687235
31
0.0
0
LINE
8
0
6
CONTINUOUS
10
-6.350280
20
-3.897415
30
0.0
11
-6.818550
21
-3.128835
31
0.0
0
LINE
8
0
6
CONTINUOUS
10
-7.718280
20
-3.150065
30
0.0
11
-8.149770
21
-3.939895
31
0.0
0
LINE
8
0
6
CONTINUOUS
10
-6.818550
20
-3.128835
30
0.0
11
-7.718280
21
-3.150065
31
0.0
0
LINE
8
0
6
CONTINUOUS
10
-2.949770
20
-3.939895
30
0.0
11
-2.481510
21
-4.708495
31
0.0
0
LINE
8
0
6
CONTINUOUS
10
-1.581770
20
-4.687255
30
0.0
11
-1.150270
21
-3.897415
31
0.0
0
LINE
8
0
6
CONTINUOUS
10
-2.481510
20
-4.708495
30
0.0
11
-1.581770
21
-4.687255
31
0.0
0
LINE
8
0
6
CONTINUOUS
10
-6.781770
20
-4.687235
30
0.0
11
-6.350280
21
-3.897415
31
0.0
0
LINE
8
0
6
CONTINUOUS
10
-7.681510
20
-4.708465
30
0.0
11
-6.781770
21
-4.687235
31
0.0
0
LINE
8
0
6
CONTINUOUS
10
-8.149770
20
-3.939895
30
0.0
11
-7.681510
21
-4.708465
31
0.0
0
LINE
8
0
6
CONTINUOUS
10
-2.518280
20
-3.150085
30
0.0
11
-2.949770
21
-3.939895
31
0.0
0
LINE
8
0
6
CONTINUOUS
10
-1.618540
20
-3.128835
30
0.0
11
-2.518280
21
-3.150085
31
0.0
0
LINE
8
0
6
CONTINUOUS
10
-1.150270
20
-3.897415
30
0.0
11
-1.618540
21
-3.128835
31
0.0
0
LINE
8
0
6
CONTINUOUS
10
2.518230
20
-4.687235
30
0.0
11
2.949720
21
-3.897395
31
0.0
0
LINE
8
0
6
CONTINUOUS
10
1.618490
20
-4.708485
30
0.0
11
2.518230
21
-4.687235
31
0.0
0
LINE
8
0
6
CONTINUOUS
10
1.150220
20
-3.939875
30
0.0
11
1.618490
21
-4.708485
31
0.0
0
LINE
8
0
6
CONTINUOUS
10
6.781720
20
-3.150065
30
0.0
11
6.350220
21
-3.939875
31
0.0
0
LINE
8
0
6
CONTINUOUS
10
7.681460
20
-3.128815
30
0.0
11
6.781720
21
-3.150065
31
0.0
0
LINE
8
0
6
CONTINUOUS
10
8.149730
20
-3.897395
30
0.0
11
7.681460
21
-3.128815
31
0.0
0
LINE
8
0
6
CONTINUOUS
10
-11.935580
20
99.858415
30
0.0
11
-11.935560
21
95.583265
31
0.0
0
LINE
8
0
6
CONTINUOUS
10
-11.935560
20
95.583265
30
0.0
11
-11.935720
21
91.308095
31
0.0
0
LINE
8
0
6
CONTINUOUS
10
-11.935720
20
91.308095
30
0.0
11
-11.934960
21
87.032925
31
0.0
0
LINE
8
0
6
CONTINUOUS
10
-11.935580
20
101.297145
30
0.0
11
-11.935580
21
99.858415
31
0.0
0
LINE
8
0
6
CONTINUOUS
10
-11.934960
20
87.032925
30
0.0
11
-11.938030
21
82.757755
31
0.0
0
LINE
8
0
6
CONTINUOUS
10
11.935550
20
95.583265
30
0.0
11
11.935580
21
99.858415
31
0.0
0
LINE
8
0
6
CONTINUOUS
10
11.935720
20
91.308095
30
0.0
11
11.935550
21
95.583265
31
0.0
0
LINE
8
0
6
CONTINUOUS
10
11.934950
20
87.032925
30
0.0
11
11.935720
21
91.308095
31
0.0
0
LINE
8
0
6
CONTINUOUS
10
11.935580
20
99.858415
30
0.0
11
11.935580
21
101.297145
31
0.0
0
LINE
8
0
6
CONTINUOUS
10
11.938030
20
82.757755
30
0.0
11
11.934950
21
87.032925
31
0.0
0
LINE
8
0
6
CONTINUOUS
10
11.935580
20
101.297145
30
0.0
11
11.935580
21
102.009375
31
0.0
0
LINE
8
0
6
CONTINUOUS
10
-11.935580
20
102.009375
30
0.0
11
-11.935580
21
101.297145
31
0.0
0
LINE
8
0
6
CONTINUOUS
10
-1.019920
20
102.326355
30
0.0
11
-1.970840
21
102.326355
31
0.0
0
LINE
8
0
6
CONTINUOUS
10
-11.935580
20
102.326355
30
0.0
11
-11.935580
21
102.009375
31
0.0
0
LINE
8
0
6
CONTINUOUS
10
-11.838570
20
102.326355
30
0.0
11
-11.935580
21
102.326355
31
0.0
0
LINE
8
0
6
CONTINUOUS
10
-1.970840
20
102.326355
30
0.0
11
-3.174740
21
102.326355
31
0.0
0
LINE
8
0
6
CONTINUOUS
10
-3.174740
20
102.326355
30
0.0
11
-5.450630
21
102.326355
31
0.0
0
LINE
8
0
6
CONTINUOUS
10
-9.315740
20
102.326355
30
0.0
11
-10.870660
21
102.326355
31
0.0
0
LINE
8
0
6
CONTINUOUS
10
-5.450630
20
102.326355
30
0.0
11
-7.480430
21
102.326355
31
0.0
0
LINE
8
0
6
CONTINUOUS
10
1.970840
20
102.326355
30
0.0
11
1.019920
21
102.326355
31
0.0
0
LINE
8
0
6
CONTINUOUS
10
-10.870660
20
102.326355
30
0.0
11
-11.838570
21
102.326355
31
0.0
0
LINE
8
0
6
CONTINUOUS
10
-7.480430
20
102.326355
30
0.0
11
-9.315740
21
102.326355
31
0.0
0
LINE
8
0
6
CONTINUOUS
10
11.935580
20
102.326355
30
0.0
11
11.838570
21
102.326355
31
0.0
0
LINE
8
0
6
CONTINUOUS
10
11.935580
20
102.009375
30
0.0
11
11.935580
21
102.326355
31
0.0
0
LINE
8
0
6
CONTINUOUS
10
3.174740
20
102.326355
30
0.0
11
1.970840
21
102.326355
31
0.0
0
LINE
8
0
6
CONTINUOUS
10
5.450620
20
102.326355
30
0.0
11
3.174740
21
102.326355
31
0.0
0
LINE
8
0
6
CONTINUOUS
10
10.870660
20
102.326355
30
0.0
11
9.315740
21
102.326355
31
0.0
0
LINE
8
0
6
CONTINUOUS
10
7.480430
20
102.326355
30
0.0
11
5.450620
21
102.326355
31
0.0
0
LINE
8
0
6
CONTINUOUS
10
11.838570
20
102.326355
30
0.0
11
10.870660
21
102.326355
31
0.0
0
LINE
8
0
6
CONTINUOUS
10
9.315740
20
102.326355
30
0.0
11
7.480430
21
102.326355
31
0.0
0
LINE
8
0
6
CONTINUOUS
10
1.019920
20
102.326355
30
0.0
11
0.000000
21
102.326355
31
0.0
0
LINE
8
0
6
CONTINUOUS
10
0.000000
20
102.326355
30
0.0
11
-1.019920
21
102.326355
31
0.0
0
LINE
8
0
6
CONTINUOUS
10
-11.938030
20
82.757755
30
0.0
11
-11.926030
21
78.286835
31
0.0
0
LINE
8
0
6
CONTINUOUS
10
11.926030
20
78.286835
30
0.0
11
11.938030
21
82.757755
31
0.0
0
LINE
8
0
6
CONTINUOUS
10
11.758120
20
77.494185
30
0.0
11
11.758120
21
77.753735
31
0.0
0
LINE
8
0
6
CONTINUOUS
10
10.768230
20
77.970945
30
0.0
11
11.398890
21
77.970945
31
0.0
0
LINE
8
0
6
CONTINUOUS
10
-0.875850
20
77.970945
30
0.0
11
0.000000
21
77.970945
31
0.0
0
LINE
8
0
6
CONTINUOUS
10
11.436200
20
77.970945
30
0.0
11
11.925730
21
78.174365
31
0.0
0
LINE
8
0
6
CONTINUOUS
10
5.797690
20
77.970945
30
0.0
11
7.880990
21
77.970945
31
0.0
0
LINE
8
0
6
CONTINUOUS
10
0.000000
20
77.970945
30
0.0
11
0.875850
21
77.970945
31
0.0
0
LINE
8
0
6
CONTINUOUS
10
-9.567870
20
77.970945
30
0.0
11
-7.881000
21
77.970945
31
0.0
0
LINE
8
0
6
CONTINUOUS
10
-10.768230
20
77.970945
30
0.0
11
-9.567870
21
77.970945
31
0.0
0
LINE
8
0
6
CONTINUOUS
10
1.778370
20
77.970945
30
0.0
11
3.479230
21
77.970945
31
0.0
0
LINE
8
0
6
CONTINUOUS
10
7.880990
20
77.970945
30
0.0
11
9.567870
21
77.970945
31
0.0
0
LINE
8
0
6
CONTINUOUS
10
9.567870
20
77.970945
30
0.0
11
10.768230
21
77.970945
31
0.0
0
LINE
8
0
6
CONTINUOUS
10
-11.398900
20
77.970945
30
0.0
11
-10.768230
21
77.970945
31
0.0
0
LINE
8
0
6
CONTINUOUS
10
-7.881000
20
77.970945
30
0.0
11
-5.797690
21
77.970945
31
0.0
0
LINE
8
0
6
CONTINUOUS
10
0.875850
20
77.970945
30
0.0
11
1.778370
21
77.970945
31
0.0
0
LINE
8
0
6
CONTINUOUS
10
-11.925730
20
78.174365
30
0.0
11
-11.436200
21
77.970945
31
0.0
0
LINE
8
0
6
CONTINUOUS
10
-5.797690
20
77.970945
30
0.0
11
-3.479230
21
77.970945
31
0.0
0
LINE
8
0
6
CONTINUOUS
10
3.479230
20
77.970945
30
0.0
11
5.797690
21
77.970945
31
0.0
0
LINE
8
0
6
CONTINUOUS
10
-3.479230
20
77.970945
30
0.0
11
-1.778370
21
77.970945
31
0.0
0
LINE
8
0
6
CONTINUOUS
10
-1.778370
20
77.970945
30
0.0
11
-0.875850
21
77.970945
31
0.0
0
LINE
8
0
6
CONTINUOUS
10
-11.758120
20
77.753735
30
0.0
11
-11.758120
21
77.494185
31
0.0
0
LINE
8
0
6
CONTINUOUS
10
-0.987200
20
78.174365
30
0.0
11
0.000000
21
78.174365
31
0.0
0
LINE
8
0
6
CONTINUOUS
10
0.000000
20
78.174365
30
0.0
11
0.987200
21
78.174365
31
0.0
0
LINE
8
0
6
CONTINUOUS
10
11.925730
20
78.174365
30
0.0
11
11.926030
21
78.286835
31
0.0
0
LINE
8
0
6
CONTINUOUS
10
1.968200
20
78.174365
30
0.0
11
3.791570
21
78.174365
31
0.0
0
LINE
8
0
6
CONTINUOUS
10
6.205500
20
78.174365
30
0.0
11
8.332340
21
78.174365
31
0.0
0
LINE
8
0
6
CONTINUOUS
10
11.252790
20
78.174365
30
0.0
11
11.888170
21
78.174365
31
0.0
0
LINE
8
0
6
CONTINUOUS
10
8.332340
20
78.174365
30
0.0
11
10.041400
21
78.174365
31
0.0
0
LINE
8
0
6
CONTINUOUS
10
-11.926030
20
78.286835
30
0.0
11
-11.925730
21
78.174365
31
0.0
0
LINE
8
0
6
CONTINUOUS
10
-6.205500
20
78.174365
30
0.0
11
-3.791570
21
78.174365
31
0.0
0
LINE
8
0
6
CONTINUOUS
10
-11.252790
20
78.174365
30
0.0
11
-10.041400
21
78.174365
31
0.0
0
LINE
8
0
6
CONTINUOUS
10
-8.332340
20
78.174365
30
0.0
11
-6.205500
21
78.174365
31
0.0
0
LINE
8
0
6
CONTINUOUS
10
-11.888170
20
78.174365
30
0.0
11
-11.252790
21
78.174365
31
0.0
0
LINE
8
0
6
CONTINUOUS
10
-10.041400
20
78.174365
30
0.0
11
-8.332340
21
78.174365
31
0.0
0
LINE
8
0
6
CONTINUOUS
10
0.987200
20
78.174365
30
0.0
11
1.968200
21
78.174365
31
0.0
0
LINE
8
0
6
CONTINUOUS
10
3.791570
20
78.174365
30
0.0
11
6.205500
21
78.174365
31
0.0
0
LINE
8
0
6
CONTINUOUS
10
10.041400
20
78.174365
30
0.0
11
11.252790
21
78.174365
31
0.0
0
LINE
8
0
6
CONTINUOUS
10
-3.791570
20
78.174365
30
0.0
11
-1.968200
21
78.174365
31
0.0
0
LINE
8
0
6
CONTINUOUS
10
-1.968200
20
78.174365
30
0.0
11
-0.987200
21
78.174365
31
0.0
0
LINE
8
0
6
CONTINUOUS
10
12.000000
20
-92.612385
30
0.0
11
12.000000
21
76.474205
31
0.0
0
LINE
8
0
6
CONTINUOUS
10
-12.000000
20
76.474205
30
0.0
11
-12.000000
21
-92.612385
31
0.0
0
LINE
8
0
6
CONTINUOUS
10
10.896400
20
76.674365
30
0.0
11
10.896400
21
77.373505
31
0.0
0
LINE
8
0
6
CONTINUOUS
10
-10.896410
20
77.373505
30
0.0
11
-10.896410
21
76.674365
31
0.0
0
LINE
8
0
6
CONTINUOUS
10
-9.072970
20
-101.684205
30
0.0
11
-5.234900
21
-101.684205
31
0.0
0
LINE
8
0
6
CONTINUOUS
10
-10.468940
20
-101.684205
30
0.0
11
-9.072970
21
-101.684205
31
0.0
0
LINE
8
0
6
CONTINUOUS
10
-10.468940
20
-92.825815
30
0.0
11
-10.468940
21
-101.684205
31
0.0
0
LINE
8
0
6
CONTINUOUS
10
-5.234900
20
-101.684205
30
0.0
11
0.000000
21
-101.684205
31
0.0
0
LINE
8
0
6
CONTINUOUS
10
0.000000
20
-101.684205
30
0.0
11
5.234900
21
-101.684205
31
0.0
0
LINE
8
0
6
CONTINUOUS
10
5.234900
20
-101.684205
30
0.0
11
9.072970
21
-101.684205
31
0.0
0
LINE
8
0
6
CONTINUOUS
10
10.468940
20
-101.684205
30
0.0
11
10.468940
21
-92.825815
31
0.0
0
LINE
8
0
6
CONTINUOUS
10
9.072970
20
-101.684205
30
0.0
11
10.468940
21
-101.684205
31
0.0
0
LINE
8
0
6
CONTINUOUS
10
0.000000
20
-102.326355
30
0.0
11
4.902790
21
-102.326355
31
0.0
0
LINE
8
0
6
CONTINUOUS
10
5.234900
20
-101.684205
30
0.0
11
0.000000
21
-101.684205
31
0.0
0
LINE
8
0
6
CONTINUOUS
10
0.000000
20
-101.684205
30
0.0
11
-5.234900
21
-101.684205
31
0.0
0
LINE
8
0
6
CONTINUOUS
10
-4.902790
20
-102.326355
30
0.0
11
0.000000
21
-102.326355
31
0.0
0
LINE
8
0
6
CONTINUOUS
10
10.468940
20
-101.684205
30
0.0
11
9.072970
21
-101.684205
31
0.0
0
LINE
8
0
6
CONTINUOUS
10
9.804350
20
-102.326355
30
0.0
11
10.468940
21
-101.684205
31
0.0
0
LINE
8
0
6
CONTINUOUS
10
8.496940
20
-102.326355
30
0.0
11
9.804350
21
-102.326355
31
0.0
0
LINE
8
0
6
CONTINUOUS
10
-5.234900
20
-101.684205
30
0.0
11
-9.072970
21
-101.684205
31
0.0
0
LINE
8
0
6
CONTINUOUS
10
-8.496950
20
-102.326355
30
0.0
11
-4.902790
21
-102.326355
31
0.0
0
LINE
8
0
6
CONTINUOUS
10
-9.804350
20
-102.326355
30
0.0
11
-8.496950
21
-102.326355
31
0.0
0
LINE
8
0
6
CONTINUOUS
10
-10.468940
20
-101.684205
30
0.0
11
-9.804350
21
-102.326355
31
0.0
0
LINE
8
0
6
CONTINUOUS
10
-9.072970
20
-101.684205
30
0.0
11
-10.468940
21
-101.684205
31
0.0
0
LINE
8
0
6
CONTINUOUS
10
9.072970
20
-101.684205
30
0.0
11
5.234900
21
-101.684205
31
0.0
0
LINE
8
0
6
CONTINUOUS
10
4.902790
20
-102.326355
30
0.0
11
8.496940
21
-102.326355
31
0.0
0
LINE
8
0
6
CONTINUOUS
10
-11.758120
20
77.494185
30
0.0
11
-11.758120
21
77.373505
31
0.0
0
LINE
8
0
6
CONTINUOUS
10
-11.758120
20
77.373505
30
0.0
11
-10.190370
21
77.373505
31
0.0
0
LINE
8
0
6
CONTINUOUS
10
5.879060
20
77.373505
30
0.0
11
10.190370
21
77.373505
31
0.0
0
LINE
8
0
6
CONTINUOUS
10
11.758120
20
77.373505
30
0.0
11
11.758120
21
77.494185
31
0.0
0
LINE
8
0
6
CONTINUOUS
10
10.190370
20
77.373505
30
0.0
11
11.758120
21
77.373505
31
0.0
0
LINE
8
0
6
CONTINUOUS
10
0.000000
20
77.373505
30
0.0
11
5.879060
21
77.373505
31
0.0
0
LINE
8
0
6
CONTINUOUS
10
-5.879070
20
77.373505
30
0.0
11
0.000000
21
77.373505
31
0.0
0
LINE
8
0
6
CONTINUOUS
10
-10.190370
20
77.373505
30
0.0
11
-5.879070
21
77.373505
31
0.0
0
LINE
8
0
6
CONTINUOUS
10
0.000000
20
76.974205
30
0.0
11
-6.000010
21
76.974205
31
0.0
0
LINE
8
0
6
CONTINUOUS
10
10.399990
20
76.974205
30
0.0
11
6.000000
21
76.974205
31
0.0
0
LINE
8
0
6
CONTINUOUS
10
-12.000000
20
76.974205
30
0.0
11
-12.000000
21
76.474205
31
0.0
0
LINE
8
0
6
CONTINUOUS
10
-10.400000
20
76.974205
30
0.0
11
-12.000000
21
76.974205
31
0.0
0
LINE
8
0
6
CONTINUOUS
10
12.000000
20
76.474205
30
0.0
11
12.000000
21
76.974205
31
0.0
0
LINE
8
0
6
CONTINUOUS
10
12.000000
20
76.974205
30
0.0
11
10.399990
21
76.974205
31
0.0
0
LINE
8
0
6
CONTINUOUS
10
-6.000010
20
76.974205
30
0.0
11
-10.400000
21
76.974205
31
0.0
0
LINE
8
0
6
CONTINUOUS
10
6.000000
20
76.974205
30
0.0
11
0.000000
21
76.974205
31
0.0
0
LINE
8
0
6
CONTINUOUS
10
10.190370
20
77.874415
30
0.0
11
5.879060
21
77.874415
31
0.0
0
LINE
8
0
6
CONTINUOUS
10
0.000000
20
77.874415
30
0.0
11
-5.879070
21
77.874415
31
0.0
0
LINE
8
0
6
CONTINUOUS
10
-5.879070
20
77.874415
30
0.0
11
-10.190370
21
77.874415
31
0.0
0
LINE
8
0
6
CONTINUOUS
10
11.758120
20
77.753735
30
0.0
11
11.758120
21
77.874415
31
0.0
0
LINE
8
0
6
CONTINUOUS
10
11.758120
20
77.874415
30
0.0
11
10.190370
21
77.874415
31
0.0
0
LINE
8
0
6
CONTINUOUS
10
-11.758120
20
77.874415
30
0.0
11
-11.758120
21
77.753735
31
0.0
0
LINE
8
0
6
CONTINUOUS
10
-10.190370
20
77.874415
30
0.0
11
-11.758120
21
77.874415
31
0.0
0
LINE
8
0
6
CONTINUOUS
10
5.879060
20
77.874415
30
0.0
11
0.000000
21
77.874415
31
0.0
0
LINE
8
0
6
CONTINUOUS
10
6.000000
20
-92.825815
30
0.0
11
10.399990
21
-92.825815
31
0.0
0
LINE
8
0
6
CONTINUOUS
10
-12.000000
20
-92.612385
30
0.0
11
-12.000000
21
-92.825815
31
0.0
0
LINE
8
0
6
CONTINUOUS
10
-12.000000
20
-92.825815
30
0.0
11
-10.400000
21
-92.825815
31
0.0
0
LINE
8
0
6
CONTINUOUS
10
-10.400000
20
-92.825815
30
0.0
11
-6.000010
21
-92.825815
31
0.0
0
LINE
8
0
6
CONTINUOUS
10
12.000000
20
-92.825815
30
0.0
11
12.000000
21
-92.612385
31
0.0
0
LINE
8
0
6
CONTINUOUS
10
10.399990
20
-92.825815
30
0.0
11
12.000000
21
-92.825815
31
0.0
0
LINE
8
0
6
CONTINUOUS
10
-6.000010
20
-92.825815
30
0.0
11
0.000000
21
-92.825815
31
0.0
0
LINE
8
0
6
CONTINUOUS
10
0.000000
20
-92.825815
30
0.0
11
6.000000
21
-92.825815
31
0.0
0
ENDSEC
0
EOF
