999
Erzeugt mit innoplus bad 
0
SECTION
2
HEADER
9
$ACADVER
1
AC1009
9
$DWGCODEPAGE
3
ISO8859-1
0
ENDSEC
0
SECTION
2
TABLES
0
TABLE
2
LAYER
70
1
0
LAYER
2
0
70
0
62
7
6
CONTINUOUS
0
ENDTAB
0
ENDSEC
0
SECTION
2
ENTITIES
0
LINE
8
0
6
CONTINUOUS
10
-32.734616
20
-36.113115
30
0.0
11
-27.432721
21
-41.701540
31
0.0
0
LINE
8
0
6
CONTINUOUS
10
-27.432721
20
-41.701540
30
0.0
11
-20.391676
21
-45.519266
31
0.0
0
LINE
8
0
6
CONTINUOUS
10
-34.232250
20
-33.096591
30
0.0
11
-34.665613
21
-32.639672
31
0.0
0
LINE
8
0
6
CONTINUOUS
10
-34.665613
20
-32.639672
30
0.0
11
-36.531988
21
-28.880699
31
0.0
0
LINE
8
0
6
CONTINUOUS
10
-33.186650
20
-6.248236
30
0.0
11
-27.855663
21
0.714614
31
0.0
0
LINE
8
0
6
CONTINUOUS
10
-12.534245
20
10.238648
30
0.0
11
-3.713115
21
12.378464
31
0.0
0
LINE
8
0
6
CONTINUOUS
10
-27.855663
20
0.714614
30
0.0
11
-20.724063
21
6.302989
31
0.0
0
LINE
8
0
6
CONTINUOUS
10
-20.724063
20
6.302989
30
0.0
11
-12.534245
21
10.238648
31
0.0
0
LINE
8
0
6
CONTINUOUS
10
-37.729229
20
-21.849335
30
0.0
11
-36.511056
21
-13.899729
31
0.0
0
LINE
8
0
6
CONTINUOUS
10
-36.511056
20
-13.899729
30
0.0
11
-33.186650
21
-6.248236
31
0.0
0
LINE
8
0
6
CONTINUOUS
10
-36.428747
20
-29.487026
30
0.0
11
-37.729229
21
-21.849335
31
0.0
0
LINE
8
0
6
CONTINUOUS
10
-20.568316
20
-45.811780
30
0.0
11
-15.878777
21
-46.953701
31
0.0
0
LINE
8
0
6
CONTINUOUS
10
-36.428747
20
-29.487026
30
0.0
11
-33.042539
21
-36.306538
31
0.0
0
LINE
8
0
6
CONTINUOUS
10
-27.684127
20
-41.953922
30
0.0
11
-20.568316
21
-45.811780
31
0.0
0
LINE
8
0
6
CONTINUOUS
10
-33.042539
20
-36.306538
30
0.0
11
-27.684127
21
-41.953922
31
0.0
0
LINE
8
0
6
CONTINUOUS
10
-35.404498
20
21.332920
30
0.0
11
-37.742844
21
23.826625
31
0.0
0
LINE
8
0
6
CONTINUOUS
10
-28.844631
20
44.186700
30
0.0
11
-25.009982
21
45.112558
31
0.0
0
LINE
8
0
6
CONTINUOUS
10
-37.814394
20
37.005810
30
0.0
11
-35.499821
21
40.043711
31
0.0
0
LINE
8
0
6
CONTINUOUS
10
-32.402332
20
42.476676
30
0.0
11
-28.844631
21
44.186700
31
0.0
0
LINE
8
0
6
CONTINUOUS
10
-28.739329
20
18.732718
30
0.0
11
-32.296093
21
19.621630
31
0.0
0
LINE
8
0
6
CONTINUOUS
10
-39.258340
20
33.661781
30
0.0
11
-37.814394
21
37.005810
31
0.0
0
LINE
8
0
6
CONTINUOUS
10
-37.742844
20
23.826625
30
0.0
11
-39.219803
21
26.827866
31
0.0
0
LINE
8
0
6
CONTINUOUS
10
-39.787454
20
30.180502
30
0.0
11
-39.258340
21
33.661781
31
0.0
0
LINE
8
0
6
CONTINUOUS
10
-24.915199
20
18.685149
30
0.0
11
-28.739329
21
18.732718
31
0.0
0
LINE
8
0
6
CONTINUOUS
10
-32.296093
20
19.621630
30
0.0
11
-35.404498
21
21.332920
31
0.0
0
LINE
8
0
6
CONTINUOUS
10
-39.503555
20
28.503754
30
0.0
11
-39.787454
21
30.180502
31
0.0
0
LINE
8
0
6
CONTINUOUS
10
-35.499821
20
40.043711
30
0.0
11
-32.402332
21
42.476676
31
0.0
0
LINE
8
0
6
CONTINUOUS
10
-25.009982
20
45.112558
30
0.0
11
-21.173293
21
45.058096
31
0.0
0
LINE
8
0
6
CONTINUOUS
10
-14.503410
20
42.432284
30
0.0
11
-12.174396
21
39.926208
31
0.0
0
LINE
8
0
6
CONTINUOUS
10
-21.173293
20
45.058096
30
0.0
11
-17.610244
21
44.157896
31
0.0
0
LINE
8
0
6
CONTINUOUS
10
-17.552556
20
21.314235
30
0.0
11
-21.096025
21
19.610690
31
0.0
0
LINE
8
0
6
CONTINUOUS
10
-12.174396
20
39.926208
30
0.0
11
-10.711619
21
36.917805
31
0.0
0
LINE
8
0
6
CONTINUOUS
10
-10.711619
20
36.917805
30
0.0
11
-10.159572
21
33.564922
31
0.0
0
LINE
8
0
6
CONTINUOUS
10
-21.096025
20
19.610690
30
0.0
11
-24.915199
21
18.685149
31
0.0
0
LINE
8
0
6
CONTINUOUS
10
-14.464517
20
23.734726
30
0.0
11
-17.552556
21
21.314235
31
0.0
0
LINE
8
0
6
CONTINUOUS
10
-10.159572
20
33.564922
30
0.0
11
-10.701119
21
30.090466
31
0.0
0
LINE
8
0
6
CONTINUOUS
10
-17.610244
20
44.157896
30
0.0
11
-14.503410
21
42.432284
31
0.0
0
LINE
8
0
6
CONTINUOUS
10
-20.391676
20
-45.519266
30
0.0
11
-16.047387
21
-46.577271
31
0.0
0
LINE
8
0
6
CONTINUOUS
10
-36.084891
20
-29.365018
30
0.0
11
-32.734616
21
-36.113115
31
0.0
0
LINE
8
0
6
CONTINUOUS
10
-12.151390
20
26.758410
30
0.0
11
-14.464517
21
23.734726
31
0.0
0
LINE
8
0
6
CONTINUOUS
10
-10.701119
20
30.090466
30
0.0
11
-12.151390
21
26.758410
31
0.0
0
LINE
8
0
6
CONTINUOUS
10
-36.165564
20
-13.941563
30
0.0
11
-32.875880
21
-6.370741
31
0.0
0
LINE
8
0
6
CONTINUOUS
10
-20.544457
20
6.047975
30
0.0
11
-12.441025
21
9.942116
31
0.0
0
LINE
8
0
6
CONTINUOUS
10
-12.441025
20
9.942116
30
0.0
11
-3.712945
21
12.059447
31
0.0
0
LINE
8
0
6
CONTINUOUS
10
-27.600907
20
0.518611
30
0.0
11
-20.544457
21
6.047975
31
0.0
0
LINE
8
0
6
CONTINUOUS
10
-36.084891
20
-29.365018
30
0.0
11
-37.371282
21
-21.807508
31
0.0
0
LINE
8
0
6
CONTINUOUS
10
-36.168793
20
-29.175471
30
0.0
11
-36.084891
21
-29.365018
31
0.0
0
LINE
8
0
6
CONTINUOUS
10
-37.371282
20
-21.807508
30
0.0
11
-36.165564
21
-13.941563
31
0.0
0
LINE
8
0
6
CONTINUOUS
10
-32.875880
20
-6.370741
30
0.0
11
-27.600907
21
0.518611
31
0.0
0
LINE
8
0
6
CONTINUOUS
10
-77.754601
20
-26.410147
30
0.0
11
-77.639013
21
-26.651727
31
0.0
0
LINE
8
0
6
CONTINUOUS
10
-82.280429
20
36.185689
30
0.0
11
-86.701482
21
22.228466
31
0.0
0
LINE
8
0
6
CONTINUOUS
10
-38.962337
20
80.124752
30
0.0
11
-52.876401
21
71.872872
31
0.0
0
LINE
8
0
6
CONTINUOUS
10
-86.701482
20
22.228466
30
0.0
11
-88.071628
21
8.133216
31
0.0
0
LINE
8
0
6
CONTINUOUS
10
-52.876401
20
71.872872
30
0.0
11
-65.037200
21
61.511721
31
0.0
0
LINE
8
0
6
CONTINUOUS
10
-65.037200
20
61.511721
30
0.0
11
-74.966828
21
49.455625
31
0.0
0
LINE
8
0
6
CONTINUOUS
10
-8.127529
20
89.083900
30
0.0
11
-23.845934
21
85.938226
31
0.0
0
LINE
8
0
6
CONTINUOUS
10
-88.071628
20
8.133216
30
0.0
11
-86.354955
21
-5.551157
31
0.0
0
LINE
8
0
6
CONTINUOUS
10
-81.636738
20
-18.298297
30
0.0
11
-81.420449
21
-18.748924
31
0.0
0
LINE
8
0
6
CONTINUOUS
10
-86.354955
20
-5.551157
30
0.0
11
-81.636738
21
-18.298297
31
0.0
0
LINE
8
0
6
CONTINUOUS
10
-74.966828
20
49.455625
30
0.0
11
-82.280429
21
36.185689
31
0.0
0
LINE
8
0
6
CONTINUOUS
10
-23.845934
20
85.938226
30
0.0
11
-38.962337
21
80.124752
31
0.0
0
LINE
8
0
6
CONTINUOUS
10
-4.188740
20
80.494924
30
0.0
11
-19.883209
21
77.348519
31
0.0
0
LINE
8
0
6
CONTINUOUS
10
-34.135085
20
70.440220
30
0.0
11
-19.304279
21
76.145802
31
0.0
0
LINE
8
0
6
CONTINUOUS
10
-19.883209
20
77.348519
30
0.0
11
-34.978135
21
71.541577
31
0.0
0
LINE
8
0
6
CONTINUOUS
10
-47.795428
20
62.341946
30
0.0
11
-34.135085
21
70.440220
31
0.0
0
LINE
8
0
6
CONTINUOUS
10
-34.978135
20
71.541577
30
0.0
11
-48.874094
21
63.303226
31
0.0
0
LINE
8
0
6
CONTINUOUS
10
-59.744383
20
52.170427
30
0.0
11
-47.795428
21
62.341946
31
0.0
0
LINE
8
0
6
CONTINUOUS
10
-48.874094
20
63.303226
30
0.0
11
-61.020857
21
52.962057
31
0.0
0
LINE
8
0
6
CONTINUOUS
10
-69.509094
20
40.331016
30
0.0
11
-59.744383
21
52.170427
31
0.0
0
LINE
8
0
6
CONTINUOUS
10
-61.020857
20
52.962057
30
0.0
11
-70.941105
21
40.931570
31
0.0
0
LINE
8
0
6
CONTINUOUS
10
-76.708666
20
27.294311
30
0.0
11
-69.509094
21
40.331016
31
0.0
0
LINE
8
0
6
CONTINUOUS
10
-70.941105
20
40.931570
30
0.0
11
-78.250351
21
27.691808
31
0.0
0
LINE
8
0
6
CONTINUOUS
10
-81.067526
20
13.577753
30
0.0
11
-76.708666
21
27.294311
31
0.0
0
LINE
8
0
6
CONTINUOUS
10
-78.250351
20
27.691808
30
0.0
11
-82.672191
21
13.768110
31
0.0
0
LINE
8
0
6
CONTINUOUS
10
-82.451390
20
-0.530176
30
0.0
11
-81.067526
21
13.577753
31
0.0
0
LINE
8
0
6
CONTINUOUS
10
-82.672191
20
13.768110
30
0.0
11
-84.048211
21
-0.291629
31
0.0
0
LINE
8
0
6
CONTINUOUS
10
-80.711091
20
-14.479421
30
0.0
11
-82.451390
21
-0.530176
31
0.0
0
LINE
8
0
6
CONTINUOUS
10
-84.048211
20
-0.291629
30
0.0
11
-82.342215
21
-13.939888
31
0.0
0
LINE
8
0
6
CONTINUOUS
10
-76.070133
20
-27.031191
30
0.0
11
-80.711091
21
-14.479421
31
0.0
0
LINE
8
0
6
CONTINUOUS
10
-82.342215
20
-13.939888
30
0.0
11
-77.639013
21
-26.651727
31
0.0
0
LINE
8
0
6
CONTINUOUS
10
-68.671210
20
-38.175110
30
0.0
11
-76.070133
21
-27.031191
31
0.0
0
LINE
8
0
6
CONTINUOUS
10
-77.639013
20
-26.651727
30
0.0
11
-70.138196
21
-37.944878
31
0.0
0
LINE
8
0
6
CONTINUOUS
10
-58.822830
20
-47.491566
30
0.0
11
-68.671210
21
-38.175110
31
0.0
0
LINE
8
0
6
CONTINUOUS
10
-70.138196
20
-37.944878
30
0.0
11
-60.143638
21
-47.397270
31
0.0
0
LINE
8
0
6
CONTINUOUS
10
-46.919435
20
-54.642419
30
0.0
11
-58.822830
21
-47.491566
31
0.0
0
LINE
8
0
6
CONTINUOUS
10
-60.143638
20
-47.397270
30
0.0
11
-48.049453
21
-54.661429
31
0.0
0
LINE
8
0
6
CONTINUOUS
10
-33.433817
20
-59.372740
30
0.0
11
-46.919435
21
-54.642419
31
0.0
0
LINE
8
0
6
CONTINUOUS
10
-48.049453
20
-54.661429
30
0.0
11
-34.323426
21
-59.475410
31
0.0
0
LINE
8
0
6
CONTINUOUS
10
-18.885122
20
-61.525520
30
0.0
11
-33.433817
21
-59.372740
31
0.0
0
LINE
8
0
6
CONTINUOUS
10
-34.323426
20
-59.475410
30
0.0
11
-19.488627
21
-61.670220
31
0.0
0
LINE
8
0
6
CONTINUOUS
10
-5.054555
20
-61.079573
30
0.0
11
-18.885122
21
-61.525520
31
0.0
0
LINE
8
0
6
CONTINUOUS
10
-19.488627
20
-61.670220
30
0.0
11
-4.786377
21
-61.196056
31
0.0
0
LINE
8
0
6
CONTINUOUS
10
-81.420449
20
-18.748924
30
0.0
11
-77.754601
21
-26.410147
31
0.0
0
LINE
8
0
6
CONTINUOUS
10
-39.219803
20
26.827866
30
0.0
11
-39.503555
21
28.503754
31
0.0
0
LINE
8
0
6
CONTINUOUS
10
20.380509
20
6.299250
30
0.0
11
25.689665
21
0.587014
31
0.0
0
LINE
8
0
6
CONTINUOUS
10
-3.713115
20
12.378464
30
0.0
11
5.101407
21
12.273590
31
0.0
0
LINE
8
0
6
CONTINUOUS
10
13.273214
20
10.230966
30
0.0
11
20.380509
21
6.299250
31
0.0
0
LINE
8
0
6
CONTINUOUS
10
5.101407
20
12.273590
30
0.0
11
13.273214
21
10.230966
31
0.0
0
LINE
8
0
6
CONTINUOUS
10
25.689665
20
0.587014
30
0.0
11
29.001110
21
-6.270230
31
0.0
0
LINE
8
0
6
CONTINUOUS
10
26.356900
20
-27.652989
30
0.0
11
28.935945
21
-21.823599
31
0.0
0
LINE
8
0
6
CONTINUOUS
10
30.219458
20
-13.909489
30
0.0
11
29.001110
21
-6.270230
31
0.0
0
LINE
8
0
6
CONTINUOUS
10
28.935945
20
-21.823599
30
0.0
11
30.219458
21
-13.909489
31
0.0
0
LINE
8
0
6
CONTINUOUS
10
30.184359
20
31.608440
30
0.0
11
27.864306
21
28.589823
31
0.0
0
LINE
8
0
6
CONTINUOUS
10
17.500773
20
49.940362
30
0.0
11
21.318144
21
49.884751
31
0.0
0
LINE
8
0
6
CONTINUOUS
10
27.939089
20
47.260587
30
0.0
11
30.241385
21
44.757370
31
0.0
0
LINE
8
0
6
CONTINUOUS
10
21.318144
20
49.884751
30
0.0
11
24.858098
21
48.984708
31
0.0
0
LINE
8
0
6
CONTINUOUS
10
24.776828
20
26.173784
30
0.0
11
21.240513
21
24.473815
31
0.0
0
LINE
8
0
6
CONTINUOUS
10
30.241385
20
44.757370
30
0.0
11
31.678673
21
41.752818
31
0.0
0
LINE
8
0
6
CONTINUOUS
10
31.647687
20
34.935262
30
0.0
11
30.184359
21
31.608440
31
0.0
0
LINE
8
0
6
CONTINUOUS
10
31.678673
20
41.752818
30
0.0
11
32.207644
21
38.404568
31
0.0
0
LINE
8
0
6
CONTINUOUS
10
21.240513
20
24.473815
30
0.0
11
17.434590
21
23.550830
31
0.0
0
LINE
8
0
6
CONTINUOUS
10
27.864306
20
28.589823
30
0.0
11
24.776828
21
26.173784
31
0.0
0
LINE
8
0
6
CONTINUOUS
10
24.858098
20
48.984708
30
0.0
11
27.939089
21
47.260587
31
0.0
0
LINE
8
0
6
CONTINUOUS
10
13.679481
20
49.017066
30
0.0
11
17.500773
21
49.940362
31
0.0
0
LINE
8
0
6
CONTINUOUS
10
4.710503
20
41.849400
30
0.0
11
7.032069
21
44.882183
31
0.0
0
LINE
8
0
6
CONTINUOUS
10
10.129005
20
47.310648
30
0.0
11
13.679481
21
49.017066
31
0.0
0
LINE
8
0
6
CONTINUOUS
10
13.629648
20
23.599568
30
0.0
11
10.095875
21
24.488363
31
0.0
0
LINE
8
0
6
CONTINUOUS
10
3.253383
20
38.510645
30
0.0
11
4.710503
21
41.849400
31
0.0
0
LINE
8
0
6
CONTINUOUS
10
2.705731
20
35.034537
30
0.0
11
3.253383
21
38.510645
31
0.0
0
LINE
8
0
6
CONTINUOUS
10
17.434590
20
23.550830
30
0.0
11
13.629648
21
23.599568
31
0.0
0
LINE
8
0
6
CONTINUOUS
10
10.095875
20
24.488363
30
0.0
11
7.013236
21
26.198215
31
0.0
0
LINE
8
0
6
CONTINUOUS
10
3.250197
20
31.686527
30
0.0
11
2.705731
21
35.034537
31
0.0
0
LINE
8
0
6
CONTINUOUS
10
7.032069
20
44.882183
30
0.0
11
10.129005
21
47.310648
31
0.0
0
LINE
8
0
6
CONTINUOUS
10
26.938111
20
-2.771218
30
0.0
11
24.912085
21
1.423628
31
0.0
0
LINE
8
0
6
CONTINUOUS
10
28.568900
20
-6.204503
30
0.0
11
26.938111
21
-2.771218
31
0.0
0
LINE
8
0
6
CONTINUOUS
10
29.863932
20
-13.951032
30
0.0
11
28.657958
21
-6.391996
31
0.0
0
LINE
8
0
6
CONTINUOUS
10
26.171628
20
-27.258531
30
0.0
11
28.594239
21
-21.782231
31
0.0
0
LINE
8
0
6
CONTINUOUS
10
28.594239
20
-21.782231
30
0.0
11
29.863932
21
-13.951032
31
0.0
0
LINE
8
0
6
CONTINUOUS
10
7.013236
20
26.198215
30
0.0
11
4.701609
21
28.689108
31
0.0
0
LINE
8
0
6
CONTINUOUS
10
4.701609
20
28.689108
30
0.0
11
3.250197
21
31.686527
31
0.0
0
LINE
8
0
6
CONTINUOUS
10
25.380885
20
0.393045
30
0.0
11
28.657958
21
-6.391996
31
0.0
0
LINE
8
0
6
CONTINUOUS
10
5.008680
20
11.955872
30
0.0
11
13.094511
21
9.935019
31
0.0
0
LINE
8
0
6
CONTINUOUS
10
-3.712945
20
12.059447
30
0.0
11
5.008680
21
11.955872
31
0.0
0
LINE
8
0
6
CONTINUOUS
10
13.094511
20
9.935019
30
0.0
11
20.127219
21
6.044967
31
0.0
0
LINE
8
0
6
CONTINUOUS
10
20.127219
20
6.044967
30
0.0
11
25.380885
21
0.393045
31
0.0
0
LINE
8
0
6
CONTINUOUS
10
69.378760
20
44.541548
30
0.0
11
69.268870
21
44.786024
31
0.0
0
LINE
8
0
6
CONTINUOUS
10
36.449320
20
81.883412
30
0.0
11
22.624845
21
87.006035
31
0.0
0
LINE
8
0
6
CONTINUOUS
10
48.507577
20
74.287581
30
0.0
11
36.449320
21
81.883412
31
0.0
0
LINE
8
0
6
CONTINUOUS
10
58.340018
20
64.528033
30
0.0
11
48.507577
21
74.287581
31
0.0
0
LINE
8
0
6
CONTINUOUS
10
7.569331
20
89.441829
30
0.0
11
-8.127529
21
89.083900
31
0.0
0
LINE
8
0
6
CONTINUOUS
10
65.579627
20
52.995576
30
0.0
11
58.340018
21
64.528033
31
0.0
0
LINE
8
0
6
CONTINUOUS
10
65.784171
20
52.539023
30
0.0
11
65.579627
21
52.995576
31
0.0
0
LINE
8
0
6
CONTINUOUS
10
22.624845
20
87.006035
30
0.0
11
7.569331
21
89.441829
31
0.0
0
LINE
8
0
6
CONTINUOUS
10
-3.888386
20
79.237127
30
0.0
11
11.505192
21
79.597764
31
0.0
0
LINE
8
0
6
CONTINUOUS
10
11.482691
20
80.860829
30
0.0
11
-4.188740
21
80.494924
31
0.0
0
LINE
8
0
6
CONTINUOUS
10
11.505192
20
79.597764
30
0.0
11
26.272700
21
77.220689
31
0.0
0
LINE
8
0
6
CONTINUOUS
10
26.512308
20
78.439882
30
0.0
11
11.482691
21
80.860829
31
0.0
0
LINE
8
0
6
CONTINUOUS
10
26.272700
20
77.220689
30
0.0
11
39.839124
21
72.207305
31
0.0
0
LINE
8
0
6
CONTINUOUS
10
40.311474
20
73.338351
30
0.0
11
26.512308
21
78.439882
31
0.0
0
LINE
8
0
6
CONTINUOUS
10
39.839124
20
72.207305
30
0.0
11
51.678971
21
64.763023
31
0.0
0
LINE
8
0
6
CONTINUOUS
10
52.345976
20
65.768985
30
0.0
11
40.311474
21
73.338351
31
0.0
0
LINE
8
0
6
CONTINUOUS
10
51.678971
20
64.763023
30
0.0
11
61.337425
21
55.189035
31
0.0
0
LINE
8
0
6
CONTINUOUS
10
62.157138
20
56.040196
30
0.0
11
52.345976
21
65.768985
31
0.0
0
LINE
8
0
6
CONTINUOUS
10
61.337425
20
55.189035
30
0.0
11
68.451332
21
43.866401
31
0.0
0
LINE
8
0
6
CONTINUOUS
10
69.378760
20
44.541548
30
0.0
11
62.157138
21
56.040196
31
0.0
0
LINE
8
0
6
CONTINUOUS
10
68.451332
20
43.866401
30
0.0
11
72.759751
21
31.241039
31
0.0
0
LINE
8
0
6
CONTINUOUS
10
73.749465
20
31.726366
30
0.0
11
69.378760
21
44.541548
31
0.0
0
LINE
8
0
6
CONTINUOUS
10
72.759751
20
31.241039
30
0.0
11
74.137513
21
17.559454
31
0.0
0
LINE
8
0
6
CONTINUOUS
10
75.120273
20
18.092635
30
0.0
11
73.749465
21
31.726366
31
0.0
0
LINE
8
0
6
CONTINUOUS
10
74.137513
20
17.559454
30
0.0
11
72.439590
21
3.321405
31
0.0
0
LINE
8
0
6
CONTINUOUS
10
73.457397
20
4.163144
30
0.0
11
75.120273
21
18.092635
31
0.0
0
LINE
8
0
6
CONTINUOUS
10
72.439590
20
3.321405
30
0.0
11
67.881716
21
-10.205275
31
0.0
0
LINE
8
0
6
CONTINUOUS
10
68.840704
20
-9.534464
30
0.0
11
73.457397
21
4.163144
31
0.0
0
LINE
8
0
6
CONTINUOUS
10
67.881716
20
-10.205275
30
0.0
11
60.596791
21
-22.987838
31
0.0
0
LINE
8
0
6
CONTINUOUS
10
61.458279
20
-22.486693
30
0.0
11
68.840704
21
-9.534464
31
0.0
0
LINE
8
0
6
CONTINUOUS
10
60.596791
20
-22.987838
30
0.0
11
50.877389
21
-34.545719
31
0.0
0
LINE
8
0
6
CONTINUOUS
10
51.597674
20
-34.211952
30
0.0
11
61.458279
21
-22.486693
31
0.0
0
LINE
8
0
6
CONTINUOUS
10
50.877389
20
-34.545719
30
0.0
11
39.099821
21
-44.454318
31
0.0
0
LINE
8
0
6
CONTINUOUS
10
39.634295
20
-44.276691
30
0.0
11
51.597674
21
-34.211952
31
0.0
0
LINE
8
0
6
CONTINUOUS
10
39.099821
20
-44.454318
30
0.0
11
27.065230
21
-51.553816
31
0.0
0
LINE
8
0
6
CONTINUOUS
10
26.916693
20
-51.779086
30
0.0
11
39.634295
21
-44.276691
31
0.0
0
LINE
8
0
6
CONTINUOUS
10
69.268870
20
44.786024
30
0.0
11
65.784171
21
52.539023
31
0.0
0
LINE
8
0
6
CONTINUOUS
10
11.050134
20
77.980314
30
0.0
11
-3.748025
21
77.632138
31
0.0
0
LINE
8
0
6
CONTINUOUS
10
31.927601
20
36.669519
30
0.0
11
32.207644
21
38.404568
31
0.0
0
LINE
8
0
6
CONTINUOUS
10
31.927601
20
36.669519
30
0.0
11
31.647687
21
34.935262
31
0.0
0
LINE
8
0
6
CONTINUOUS
10
-18.566802
20
74.659636
30
0.0
11
-3.748025
21
77.632138
31
0.0
0
LINE
8
0
6
CONTINUOUS
10
-3.888386
20
79.237127
30
0.0
11
-19.304279
21
76.145802
31
0.0
0
LINE
8
0
6
CONTINUOUS
10
-32.186599
20
19.805999
30
0.0
11
-28.683134
21
18.930331
31
0.0
0
LINE
8
0
6
CONTINUOUS
10
-37.551566
20
23.948106
30
0.0
11
-35.248365
21
21.491726
31
0.0
0
LINE
8
0
6
CONTINUOUS
10
-39.006260
20
26.904382
30
0.0
11
-37.551566
21
23.948106
31
0.0
0
LINE
8
0
6
CONTINUOUS
10
-28.683134
20
18.930331
30
0.0
11
-24.916277
21
18.883420
31
0.0
0
LINE
8
0
6
CONTINUOUS
10
-35.248365
20
21.491726
30
0.0
11
-32.186599
21
19.805999
31
0.0
0
LINE
8
0
6
CONTINUOUS
10
-11.066815
20
37.145360
30
0.0
11
-12.634455
21
40.504979
31
0.0
0
LINE
8
0
6
CONTINUOUS
10
-21.154280
20
19.795086
30
0.0
11
-17.663853
21
21.473132
31
0.0
0
LINE
8
0
6
CONTINUOUS
10
-14.622067
20
23.857407
30
0.0
11
-12.343627
21
26.835829
31
0.0
0
LINE
8
0
6
CONTINUOUS
10
-10.915163
20
30.117992
30
0.0
11
-10.381827
21
33.540382
31
0.0
0
LINE
8
0
6
CONTINUOUS
10
-12.343627
20
26.835829
30
0.0
11
-10.915163
21
30.117992
31
0.0
0
LINE
8
0
6
CONTINUOUS
10
-10.381827
20
33.540382
30
0.0
11
-10.925712
21
36.842961
31
0.0
0
LINE
8
0
6
CONTINUOUS
10
-24.916277
20
18.883420
30
0.0
11
-21.154280
21
19.795086
31
0.0
0
LINE
8
0
6
CONTINUOUS
10
-17.663853
20
21.473132
30
0.0
11
-14.622067
21
23.857407
31
0.0
0
LINE
8
0
6
CONTINUOUS
10
-39.006260
20
26.904382
30
0.0
11
-39.565284
21
30.206731
31
0.0
0
LINE
8
0
6
CONTINUOUS
10
-39.143687
20
27.208238
30
0.0
11
-39.006260
21
26.904382
31
0.0
0
LINE
8
0
6
CONTINUOUS
10
-39.565284
20
30.206731
30
0.0
11
-39.044011
21
33.635732
31
0.0
0
LINE
8
0
6
CONTINUOUS
10
-35.341841
20
39.921737
30
0.0
11
-32.290886
21
42.318125
31
0.0
0
LINE
8
0
6
CONTINUOUS
10
-32.290886
20
42.318125
30
0.0
11
-28.786661
21
44.002447
31
0.0
0
LINE
8
0
6
CONTINUOUS
10
-37.621685
20
36.929511
30
0.0
11
-35.341841
21
39.921737
31
0.0
0
LINE
8
0
6
CONTINUOUS
10
-28.786661
20
44.002447
30
0.0
11
-25.009640
21
44.914415
31
0.0
0
LINE
8
0
6
CONTINUOUS
10
-39.044011
20
33.635732
30
0.0
11
-37.621685
21
36.929511
31
0.0
0
LINE
8
0
6
CONTINUOUS
10
-17.721044
20
43.974210
30
0.0
11
-14.660803
21
42.274578
31
0.0
0
LINE
8
0
6
CONTINUOUS
10
-21.230597
20
44.860822
30
0.0
11
-17.721044
21
43.974210
31
0.0
0
LINE
8
0
6
CONTINUOUS
10
-14.660803
20
42.274578
30
0.0
11
-12.366646
21
39.806186
31
0.0
0
LINE
8
0
6
CONTINUOUS
10
-25.009640
20
44.914415
30
0.0
11
-21.230597
21
44.860822
31
0.0
0
LINE
8
0
6
CONTINUOUS
10
-12.366646
20
39.806186
30
0.0
11
-10.925712
21
36.842961
31
0.0
0
LINE
8
0
6
CONTINUOUS
10
21.183645
20
24.657963
30
0.0
11
24.667025
21
26.332488
31
0.0
0
LINE
8
0
6
CONTINUOUS
10
27.708258
20
28.712376
30
0.0
11
29.993521
21
31.685808
31
0.0
0
LINE
8
0
6
CONTINUOUS
10
31.434846
20
34.962815
30
0.0
11
31.986317
21
38.380132
31
0.0
0
LINE
8
0
6
CONTINUOUS
10
29.993521
20
31.685808
30
0.0
11
31.434846
21
34.962815
31
0.0
0
LINE
8
0
6
CONTINUOUS
10
31.986317
20
38.380132
30
0.0
11
31.465162
21
41.678149
31
0.0
0
LINE
8
0
6
CONTINUOUS
10
17.434700
20
23.748816
30
0.0
11
21.183645
21
24.657963
31
0.0
0
LINE
8
0
6
CONTINUOUS
10
24.667025
20
26.332488
30
0.0
11
27.708258
21
28.712376
31
0.0
0
LINE
8
0
6
CONTINUOUS
10
31.465162
20
41.678149
30
0.0
11
30.049336
21
44.637580
31
0.0
0
LINE
8
0
6
CONTINUOUS
10
10.205926
20
24.672432
30
0.0
11
13.686744
21
23.796879
31
0.0
0
LINE
8
0
6
CONTINUOUS
10
4.892658
20
28.810351
30
0.0
11
7.169541
21
26.356740
31
0.0
0
LINE
8
0
6
CONTINUOUS
10
3.463127
20
31.762862
30
0.0
11
4.892658
21
28.810351
31
0.0
0
LINE
8
0
6
CONTINUOUS
10
13.686744
20
23.796879
30
0.0
11
17.434700
21
23.748816
31
0.0
0
LINE
8
0
6
CONTINUOUS
10
7.169541
20
26.356740
30
0.0
11
10.205926
21
24.672432
31
0.0
0
LINE
8
0
6
CONTINUOUS
10
24.746720
20
48.801321
30
0.0
11
27.781506
21
47.103156
31
0.0
0
LINE
8
0
6
CONTINUOUS
10
21.259914
20
49.687778
30
0.0
11
24.746720
21
48.801321
31
0.0
0
LINE
8
0
6
CONTINUOUS
10
30.049336
20
44.637580
30
0.0
11
29.903017
21
44.938457
31
0.0
0
LINE
8
0
6
CONTINUOUS
10
27.781506
20
47.103156
30
0.0
11
30.049336
21
44.637580
31
0.0
0
LINE
8
0
6
CONTINUOUS
10
17.499889
20
49.742502
30
0.0
11
21.259914
21
49.687778
31
0.0
0
LINE
8
0
6
CONTINUOUS
10
3.463127
20
31.762862
30
0.0
11
2.926939
21
35.060654
31
0.0
0
LINE
8
0
6
CONTINUOUS
10
3.320351
20
32.065426
30
0.0
11
3.463127
21
31.762862
31
0.0
0
LINE
8
0
6
CONTINUOUS
10
2.926939
20
35.060654
30
0.0
11
3.466472
21
38.484563
31
0.0
0
LINE
8
0
6
CONTINUOUS
10
7.188514
20
44.760332
30
0.0
11
10.238924
21
47.152288
31
0.0
0
LINE
8
0
6
CONTINUOUS
10
10.238924
20
47.152288
30
0.0
11
13.736034
21
48.833059
31
0.0
0
LINE
8
0
6
CONTINUOUS
10
4.901774
20
41.773146
30
0.0
11
7.188514
21
44.760332
31
0.0
0
LINE
8
0
6
CONTINUOUS
10
13.736034
20
48.833059
30
0.0
11
17.499889
21
49.742502
31
0.0
0
LINE
8
0
6
CONTINUOUS
10
3.466472
20
38.484563
30
0.0
11
4.901774
21
41.773146
31
0.0
0
LINE
8
0
6
CONTINUOUS
10
-1.929870
20
-8.671873
30
0.0
11
-2.038450
21
-8.109556
31
0.0
0
LINE
8
0
6
CONTINUOUS
10
2.110994
20
-11.005656
30
0.0
11
3.358270
21
-10.944658
31
0.0
0
LINE
8
0
6
CONTINUOUS
10
3.524819
20
-6.114770
30
0.0
11
4.549233
21
-6.348096
31
0.0
0
LINE
8
0
6
CONTINUOUS
10
4.723527
20
-6.339068
30
0.0
11
3.620694
21
-6.087883
31
0.0
0
LINE
8
0
6
CONTINUOUS
10
2.127293
20
-10.347457
30
0.0
11
1.015719
21
-10.254624
31
0.0
0
LINE
8
0
6
CONTINUOUS
10
-2.251788
20
-8.840870
30
0.0
11
-2.368604
21
-8.235438
31
0.0
0
LINE
8
0
6
CONTINUOUS
10
-0.880032
20
-9.661139
30
0.0
11
-1.534811
21
-9.201110
31
0.0
0
LINE
8
0
6
CONTINUOUS
10
1.015719
20
-10.254624
30
0.0
11
-0.010076
21
-10.020511
31
0.0
0
LINE
8
0
6
CONTINUOUS
10
-1.853352
20
-7.552501
30
0.0
11
-1.387373
21
-7.038643
31
0.0
0
LINE
8
0
6
CONTINUOUS
10
-1.667526
20
-7.082480
30
0.0
11
-2.169234
21
-7.635698
31
0.0
0
LINE
8
0
6
CONTINUOUS
10
-0.010076
20
-10.020511
30
0.0
11
-0.880032
21
-9.661139
31
0.0
0
LINE
8
0
6
CONTINUOUS
10
6.470868
20
-7.694031
30
0.0
11
6.581492
21
-8.256147
31
0.0
0
LINE
8
0
6
CONTINUOUS
10
-2.169234
20
-7.635698
30
0.0
11
-2.315769
21
-7.896583
31
0.0
0
LINE
8
0
6
CONTINUOUS
10
-2.315769
20
-7.896583
30
0.0
11
-2.521750
21
-8.516173
31
0.0
0
LINE
8
0
6
CONTINUOUS
10
-2.038450
20
-8.109556
30
0.0
11
-1.853352
21
-7.552501
31
0.0
0
LINE
8
0
6
CONTINUOUS
10
-2.169234
20
-7.635698
30
0.0
11
-2.368604
21
-8.235438
31
0.0
0
LINE
8
0
6
CONTINUOUS
10
-1.121618
20
-9.906047
30
0.0
11
-1.826535
21
-9.410708
31
0.0
0
LINE
8
0
6
CONTINUOUS
10
5.549810
20
-10.357590
30
0.0
11
4.531260
21
-10.723590
31
0.0
0
LINE
8
0
6
CONTINUOUS
10
7.064536
20
-8.728890
30
0.0
11
7.064587
21
-8.679225
31
0.0
0
LINE
8
0
6
CONTINUOUS
10
-2.401121
20
-9.141649
30
0.0
11
-2.521750
21
-8.516173
31
0.0
0
LINE
8
0
6
CONTINUOUS
10
-1.961870
20
-9.730374
30
0.0
11
-2.401121
21
-9.141649
31
0.0
0
LINE
8
0
6
CONTINUOUS
10
-1.233721
20
-10.242128
30
0.0
11
-1.961870
21
-9.730374
31
0.0
0
LINE
8
0
6
CONTINUOUS
10
4.531260
20
-10.723590
30
0.0
11
3.358270
21
-10.944658
31
0.0
0
LINE
8
0
6
CONTINUOUS
10
0.919392
20
-10.545103
30
0.0
11
-0.185021
21
-10.293005
31
0.0
0
LINE
8
0
6
CONTINUOUS
10
-0.266215
20
-10.641922
30
0.0
11
0.874661
21
-10.902381
31
0.0
0
LINE
8
0
6
CONTINUOUS
10
6.344450
20
-9.871720
30
0.0
11
6.861045
21
-9.299226
31
0.0
0
LINE
8
0
6
CONTINUOUS
10
5.933769
20
-9.328185
30
0.0
11
5.219222
21
-9.764934
31
0.0
0
LINE
8
0
6
CONTINUOUS
10
-1.387373
20
-7.038643
30
0.0
11
-0.672423
21
-6.602919
31
0.0
0
LINE
8
0
6
CONTINUOUS
10
-0.897794
20
-6.613391
30
0.0
11
-1.667526
21
-7.082480
31
0.0
0
LINE
8
0
6
CONTINUOUS
10
6.214401
20
-9.547532
30
0.0
11
5.445145
21
-10.017809
31
0.0
0
LINE
8
0
6
CONTINUOUS
10
5.549810
20
-10.357590
30
0.0
11
6.344450
21
-9.871720
31
0.0
0
LINE
8
0
6
CONTINUOUS
10
-1.534811
20
-9.201110
30
0.0
11
-1.929870
21
-8.671873
31
0.0
0
LINE
8
0
6
CONTINUOUS
10
-2.251788
20
-8.840870
30
0.0
11
-1.826535
21
-9.410708
31
0.0
0
LINE
8
0
6
CONTINUOUS
10
-0.185021
20
-10.293005
30
0.0
11
-1.121618
21
-9.906047
31
0.0
0
LINE
8
0
6
CONTINUOUS
10
-1.233721
20
-10.242128
30
0.0
11
-0.266215
21
-10.641922
31
0.0
0
LINE
8
0
6
CONTINUOUS
10
-0.672423
20
-6.602919
30
0.0
11
0.242737
21
-6.274916
31
0.0
0
LINE
8
0
6
CONTINUOUS
10
0.087442
20
-6.260289
30
0.0
11
-0.897794
21
-6.613391
31
0.0
0
LINE
8
0
6
CONTINUOUS
10
2.116200
20
-10.645060
30
0.0
11
0.919392
21
-10.545103
31
0.0
0
LINE
8
0
6
CONTINUOUS
10
0.874661
20
-10.902381
30
0.0
11
2.110994
21
-11.005656
31
0.0
0
LINE
8
0
6
CONTINUOUS
10
0.242737
20
-6.274916
30
0.0
11
1.295820
21
-6.076895
31
0.0
0
LINE
8
0
6
CONTINUOUS
10
1.221125
20
-6.047117
30
0.0
11
0.087442
21
-6.260289
31
0.0
0
LINE
8
0
6
CONTINUOUS
10
6.074239
20
-7.165481
30
0.0
11
6.470868
21
-7.694031
31
0.0
0
LINE
8
0
6
CONTINUOUS
10
6.792436
20
-7.788067
30
0.0
11
6.365346
21
-7.219029
31
0.0
0
LINE
8
0
6
CONTINUOUS
10
5.219222
20
-9.764934
30
0.0
11
4.303378
21
-10.093928
31
0.0
0
LINE
8
0
6
CONTINUOUS
10
4.459119
20
-10.372059
30
0.0
11
5.445145
21
-10.017809
31
0.0
0
LINE
8
0
6
CONTINUOUS
10
2.415208
20
-6.022277
30
0.0
11
3.524819
21
-6.114770
31
0.0
0
LINE
8
0
6
CONTINUOUS
10
3.620694
20
-6.087883
30
0.0
11
2.426172
21
-5.988319
31
0.0
0
LINE
8
0
6
CONTINUOUS
10
6.792436
20
-7.788067
30
0.0
11
6.911612
21
-8.393267
31
0.0
0
LINE
8
0
6
CONTINUOUS
10
6.941429
20
-8.053991
30
0.0
11
6.792436
21
-7.788067
31
0.0
0
LINE
8
0
6
CONTINUOUS
10
7.064587
20
-8.679225
30
0.0
11
6.941429
21
-8.053991
31
0.0
0
LINE
8
0
6
CONTINUOUS
10
4.303378
20
-10.093928
30
0.0
11
3.248726
21
-10.292637
31
0.0
0
LINE
8
0
6
CONTINUOUS
10
3.323617
20
-10.586028
30
0.0
11
4.459119
21
-10.372059
31
0.0
0
LINE
8
0
6
CONTINUOUS
10
6.398364
20
-8.813535
30
0.0
11
5.933769
21
-9.328185
31
0.0
0
LINE
8
0
6
CONTINUOUS
10
6.214401
20
-9.547532
30
0.0
11
6.714541
21
-8.993403
31
0.0
0
LINE
8
0
6
CONTINUOUS
10
1.295820
20
-6.076895
30
0.0
11
2.415208
21
-6.022277
31
0.0
0
LINE
8
0
6
CONTINUOUS
10
2.426172
20
-5.988319
30
0.0
11
1.221125
21
-6.047117
31
0.0
0
LINE
8
0
6
CONTINUOUS
10
6.581492
20
-8.256147
30
0.0
11
6.398364
21
-8.813535
31
0.0
0
LINE
8
0
6
CONTINUOUS
10
3.248726
20
-10.292637
30
0.0
11
2.127293
21
-10.347457
31
0.0
0
LINE
8
0
6
CONTINUOUS
10
2.116200
20
-10.645060
30
0.0
11
3.323617
21
-10.586028
31
0.0
0
LINE
8
0
6
CONTINUOUS
10
6.911612
20
-8.393267
30
0.0
11
6.714541
21
-8.993403
31
0.0
0
LINE
8
0
6
CONTINUOUS
10
6.861045
20
-9.299226
30
0.0
11
7.064587
21
-8.679225
31
0.0
0
LINE
8
0
6
CONTINUOUS
10
5.418784
20
-6.706437
30
0.0
11
6.074239
21
-7.165481
31
0.0
0
LINE
8
0
6
CONTINUOUS
10
6.365346
20
-7.219029
30
0.0
11
5.659668
21
-6.724840
31
0.0
0
LINE
8
0
6
CONTINUOUS
10
4.549233
20
-6.348096
30
0.0
11
5.418784
21
-6.706437
31
0.0
0
LINE
8
0
6
CONTINUOUS
10
5.659668
20
-6.724840
30
0.0
11
4.723527
21
-6.339068
31
0.0
0
LINE
8
0
6
CONTINUOUS
10
17.771171
20
-60.206389
30
0.0
11
22.032440
21
-57.341148
31
0.0
0
LINE
8
0
6
CONTINUOUS
10
13.097933
20
-23.433634
30
0.0
11
8.074511
21
-23.520727
31
0.0
0
LINE
8
0
6
CONTINUOUS
10
-1.729123
20
-26.652347
30
0.0
11
3.047378
21
-24.611864
31
0.0
0
LINE
8
0
6
CONTINUOUS
10
-6.264855
20
-60.532121
30
0.0
11
-5.985998
21
-60.675000
31
0.0
0
LINE
8
0
6
CONTINUOUS
10
-9.867605
20
-57.789074
30
0.0
11
-6.264855
21
-60.532121
31
0.0
0
LINE
8
0
6
CONTINUOUS
10
25.596273
20
-53.781620
30
0.0
11
28.284752
21
-49.704302
31
0.0
0
LINE
8
0
6
CONTINUOUS
10
30.072845
20
-36.081536
30
0.0
11
28.411069
21
-32.026470
31
0.0
0
LINE
8
0
6
CONTINUOUS
10
-14.494114
20
-46.146347
30
0.0
11
-13.919233
21
-50.508608
31
0.0
0
LINE
8
0
6
CONTINUOUS
10
-9.553807
20
-57.958504
30
0.0
11
-5.985998
21
-60.675000
31
0.0
0
LINE
8
0
6
CONTINUOUS
10
25.688577
20
-28.977515
30
0.0
11
28.355691
21
-32.444793
31
0.0
0
LINE
8
0
6
CONTINUOUS
10
13.909657
20
-3.360300
30
0.0
11
10.349671
21
-0.603580
31
0.0
0
LINE
8
0
6
CONTINUOUS
10
-20.403573
20
-36.851847
30
0.0
11
-12.602065
21
-54.269140
31
0.0
0
LINE
8
0
6
CONTINUOUS
10
-17.780918
20
-3.868606
30
0.0
11
-21.348840
21
-7.458258
31
0.0
0
LINE
8
0
6
CONTINUOUS
10
19.936608
20
-13.983702
30
0.0
11
16.581858
21
-6.841203
31
0.0
0
LINE
8
0
6
CONTINUOUS
10
16.581858
20
-6.841203
30
0.0
11
13.909657
21
-3.360300
31
0.0
0
LINE
8
0
6
CONTINUOUS
10
-24.027139
20
-11.568768
30
0.0
11
-25.681724
21
-15.991993
31
0.0
0
LINE
8
0
6
CONTINUOUS
10
-3.708033
20
2.141025
30
0.0
11
-8.731667
21
1.055713
31
0.0
0
LINE
8
0
6
CONTINUOUS
10
-23.966896
20
-28.896519
30
0.0
11
-20.738689
21
-36.103681
31
0.0
0
LINE
8
0
6
CONTINUOUS
10
-25.648675
20
-24.879172
30
0.0
11
-23.966896
21
-28.896519
31
0.0
0
LINE
8
0
6
CONTINUOUS
10
-9.071200
20
-57.816931
30
0.0
11
-5.584214
21
-60.472217
31
0.0
0
LINE
8
0
6
CONTINUOUS
10
-11.700037
20
-54.448841
30
0.0
11
-9.071200
21
-57.816931
31
0.0
0
LINE
8
0
6
CONTINUOUS
10
-13.337285
20
-50.535326
30
0.0
11
-11.700037
21
-54.448841
31
0.0
0
LINE
8
0
6
CONTINUOUS
10
-13.898741
20
-46.271773
30
0.0
11
-13.337285
21
-50.535326
31
0.0
0
LINE
8
0
6
CONTINUOUS
10
-13.354116
20
-41.871996
30
0.0
11
-13.898741
21
-46.271773
31
0.0
0
LINE
8
0
6
CONTINUOUS
10
-11.728850
20
-37.557501
30
0.0
11
-13.354116
21
-41.871996
31
0.0
0
LINE
8
0
6
CONTINUOUS
10
-9.103326
20
-33.546185
30
0.0
11
-11.728850
21
-37.557501
31
0.0
0
LINE
8
0
6
CONTINUOUS
10
3.246166
20
-25.225724
30
0.0
11
-1.422041
21
-27.219961
31
0.0
0
LINE
8
0
6
CONTINUOUS
10
13.068903
20
-24.073895
30
0.0
11
8.159330
21
-24.159215
31
0.0
0
LINE
8
0
6
CONTINUOUS
10
17.726894
20
-24.973128
30
0.0
11
13.068903
21
-24.073895
31
0.0
0
LINE
8
0
6
CONTINUOUS
10
25.374749
20
-29.491327
30
0.0
11
21.898624
21
-26.810290
31
0.0
0
LINE
8
0
6
CONTINUOUS
10
27.981769
20
-32.879878
30
0.0
11
25.374749
21
-29.491327
31
0.0
0
LINE
8
0
6
CONTINUOUS
10
30.122690
20
-41.067662
30
0.0
11
29.590621
21
-36.804511
31
0.0
0
LINE
8
0
6
CONTINUOUS
10
29.553487
20
-45.455557
30
0.0
11
30.122690
21
-41.067662
31
0.0
0
LINE
8
0
6
CONTINUOUS
10
25.285630
20
-53.734444
30
0.0
11
27.913364
21
-49.749073
31
0.0
0
LINE
8
0
6
CONTINUOUS
10
17.636975
20
-60.014465
30
0.0
11
21.802215
21
-57.213757
31
0.0
0
LINE
8
0
6
CONTINUOUS
10
-25.681724
20
-15.991993
30
0.0
11
-26.230770
21
-20.504527
31
0.0
0
LINE
8
0
6
CONTINUOUS
10
-21.348840
20
-7.458258
30
0.0
11
-24.027139
21
-11.568768
31
0.0
0
LINE
8
0
6
CONTINUOUS
10
28.392267
20
-31.986440
30
0.0
11
20.284862
21
-14.725161
31
0.0
0
LINE
8
0
6
CONTINUOUS
10
-26.230770
20
-20.504527
30
0.0
11
-25.648675
21
-24.879172
31
0.0
0
LINE
8
0
6
CONTINUOUS
10
-13.503129
20
-0.981833
30
0.0
11
-17.780918
21
-3.868606
31
0.0
0
LINE
8
0
6
CONTINUOUS
10
10.349671
20
-0.603580
30
0.0
11
6.079553
21
1.288723
31
0.0
0
LINE
8
0
6
CONTINUOUS
10
-8.731667
20
1.055713
30
0.0
11
-13.503129
21
-0.981833
31
0.0
0
LINE
8
0
6
CONTINUOUS
10
6.079553
20
1.288723
30
0.0
11
1.313616
21
2.219695
31
0.0
0
LINE
8
0
6
CONTINUOUS
10
3.228453
20
-63.161717
30
0.0
11
-1.414703
21
-62.283454
31
0.0
0
LINE
8
0
6
CONTINUOUS
10
-1.720038
20
-62.527922
30
0.0
11
3.030338
21
-63.426331
31
0.0
0
LINE
8
0
6
CONTINUOUS
10
22.132137
20
-26.234064
30
0.0
11
17.863857
21
-24.354016
31
0.0
0
LINE
8
0
6
CONTINUOUS
10
17.726894
20
-24.973128
30
0.0
11
21.898624
21
-26.810290
31
0.0
0
LINE
8
0
6
CONTINUOUS
10
-9.103326
20
-33.546185
30
0.0
11
-5.609043
21
-30.041125
31
0.0
0
LINE
8
0
6
CONTINUOUS
10
-9.588403
20
-33.125495
30
0.0
11
-6.013213
21
-29.539008
31
0.0
0
LINE
8
0
6
CONTINUOUS
10
12.997192
20
-61.997589
30
0.0
11
8.113450
21
-63.064503
31
0.0
0
LINE
8
0
6
CONTINUOUS
10
8.028055
20
-63.326794
30
0.0
11
13.024422
21
-62.235238
31
0.0
0
LINE
8
0
6
CONTINUOUS
10
-12.583973
20
-54.309531
30
0.0
11
-9.867605
21
-57.789074
31
0.0
0
LINE
8
0
6
CONTINUOUS
10
-9.553807
20
-57.958504
30
0.0
11
-12.243729
21
-54.512643
31
0.0
0
LINE
8
0
6
CONTINUOUS
10
22.132137
20
-26.234064
30
0.0
11
25.688577
21
-28.977515
31
0.0
0
LINE
8
0
6
CONTINUOUS
10
27.981769
20
-32.879878
30
0.0
11
29.590621
21
-36.804511
31
0.0
0
LINE
8
0
6
CONTINUOUS
10
30.001469
20
-36.460460
30
0.0
11
28.355691
21
-32.444793
31
0.0
0
LINE
8
0
6
CONTINUOUS
10
3.246166
20
-25.225724
30
0.0
11
8.159330
21
-24.159215
31
0.0
0
LINE
8
0
6
CONTINUOUS
10
-1.414703
20
-62.283454
30
0.0
11
-5.584214
21
-60.472217
31
0.0
0
LINE
8
0
6
CONTINUOUS
10
-5.985998
20
-60.675000
30
0.0
11
-1.720038
21
-62.527922
31
0.0
0
LINE
8
0
6
CONTINUOUS
10
3.047378
20
-24.611864
30
0.0
11
8.074511
21
-23.520727
31
0.0
0
LINE
8
0
6
CONTINUOUS
10
30.622167
20
-40.486112
30
0.0
11
30.072845
21
-36.081536
31
0.0
0
LINE
8
0
6
CONTINUOUS
10
30.001469
20
-36.460460
30
0.0
11
30.545558
21
-40.822311
31
0.0
0
LINE
8
0
6
CONTINUOUS
10
-12.274585
20
-37.229961
30
0.0
11
-9.588403
21
-33.125495
31
0.0
0
LINE
8
0
6
CONTINUOUS
10
-5.609043
20
-30.041125
30
0.0
11
-1.422041
21
-27.219961
31
0.0
0
LINE
8
0
6
CONTINUOUS
10
8.113450
20
-63.064503
30
0.0
11
3.228453
21
-63.161717
31
0.0
0
LINE
8
0
6
CONTINUOUS
10
3.030338
20
-63.426331
30
0.0
11
8.028055
21
-63.326794
31
0.0
0
LINE
8
0
6
CONTINUOUS
10
-12.243729
20
-54.512643
30
0.0
11
-13.919233
21
-50.508608
31
0.0
0
LINE
8
0
6
CONTINUOUS
10
30.033858
20
-45.019336
30
0.0
11
30.622167
21
-40.486112
31
0.0
0
LINE
8
0
6
CONTINUOUS
10
29.962949
20
-45.311656
30
0.0
11
30.033858
21
-45.019336
31
0.0
0
LINE
8
0
6
CONTINUOUS
10
30.545558
20
-40.822311
30
0.0
11
29.962949
21
-45.311656
31
0.0
0
LINE
8
0
6
CONTINUOUS
10
25.285630
20
-53.734444
30
0.0
11
21.802215
21
-57.213757
31
0.0
0
LINE
8
0
6
CONTINUOUS
10
22.032440
20
-57.341148
30
0.0
11
25.596273
21
-53.781620
31
0.0
0
LINE
8
0
6
CONTINUOUS
10
-13.937220
20
-41.644576
30
0.0
11
-12.274585
21
-37.229961
31
0.0
0
LINE
8
0
6
CONTINUOUS
10
29.553487
20
-45.455557
30
0.0
11
27.913364
21
-49.749073
31
0.0
0
LINE
8
0
6
CONTINUOUS
10
28.284752
20
-49.704302
30
0.0
11
29.962949
21
-45.311656
31
0.0
0
LINE
8
0
6
CONTINUOUS
10
13.097933
20
-23.433634
30
0.0
11
17.863857
21
-24.354016
31
0.0
0
LINE
8
0
6
CONTINUOUS
10
28.411069
20
-32.026470
30
0.0
11
28.392267
21
-31.986440
31
0.0
0
LINE
8
0
6
CONTINUOUS
10
-5.247873
20
-6.512347
30
0.0
11
-10.034890
21
-8.556766
31
0.0
0
LINE
8
0
6
CONTINUOUS
10
-10.089097
20
-8.438374
30
0.0
11
-5.302323
21
-6.394062
31
0.0
0
LINE
8
0
6
CONTINUOUS
10
-22.258058
20
-23.605812
30
0.0
11
-22.811010
21
-28.128420
31
0.0
0
LINE
8
0
6
CONTINUOUS
10
-22.864457
20
-28.009268
30
0.0
11
-22.311566
21
-23.486817
31
0.0
0
LINE
8
0
6
CONTINUOUS
10
-14.381132
20
-11.333498
30
0.0
11
-17.961518
21
-14.932637
31
0.0
0
LINE
8
0
6
CONTINUOUS
10
-14.327153
20
-11.452018
30
0.0
11
-17.907737
21
-15.051307
31
0.0
0
LINE
8
0
6
CONTINUOUS
10
20.082920
20
-14.295212
30
0.0
11
19.936608
21
-13.983702
31
0.0
0
LINE
8
0
6
CONTINUOUS
10
20.082920
20
-14.295212
30
0.0
11
17.404513
21
-10.808218
31
0.0
0
LINE
8
0
6
CONTINUOUS
10
20.284862
20
-14.725161
30
0.0
11
20.138506
21
-14.413559
31
0.0
0
LINE
8
0
6
CONTINUOUS
10
20.138506
20
-14.413559
30
0.0
11
17.460001
21
-10.926468
31
0.0
0
LINE
8
0
6
CONTINUOUS
10
-20.596239
20
-19.172131
30
0.0
11
-22.258058
21
-23.605812
31
0.0
0
LINE
8
0
6
CONTINUOUS
10
-22.311566
20
-23.486817
30
0.0
11
-20.649859
21
-19.053299
31
0.0
0
LINE
8
0
6
CONTINUOUS
10
-10.089097
20
-8.438374
30
0.0
11
-14.381132
21
-11.333498
31
0.0
0
LINE
8
0
6
CONTINUOUS
10
-10.034890
20
-8.556766
30
0.0
11
-14.327153
21
-11.452018
31
0.0
0
LINE
8
0
6
CONTINUOUS
10
-20.738689
20
-36.103681
30
0.0
11
-20.597909
21
-36.417981
31
0.0
0
LINE
8
0
6
CONTINUOUS
10
-22.282757
20
-32.392936
30
0.0
11
-20.597909
21
-36.417981
31
0.0
0
LINE
8
0
6
CONTINUOUS
10
-20.544420
20
-36.537397
30
0.0
11
-20.403573
21
-36.851847
31
0.0
0
LINE
8
0
6
CONTINUOUS
10
-22.229316
20
-32.512231
30
0.0
11
-20.544420
21
-36.537397
31
0.0
0
LINE
8
0
6
CONTINUOUS
10
9.608514
20
-6.271304
30
0.0
11
4.828566
21
-5.340723
31
0.0
0
LINE
8
0
6
CONTINUOUS
10
4.773629
20
-5.222557
30
0.0
11
9.553359
21
-6.153145
31
0.0
0
LINE
8
0
6
CONTINUOUS
10
13.835290
20
-8.047377
30
0.0
11
9.553359
21
-6.153145
31
0.0
0
LINE
8
0
6
CONTINUOUS
10
13.890631
20
-8.165561
30
0.0
11
9.608514
21
-6.271304
31
0.0
0
LINE
8
0
6
CONTINUOUS
10
17.460001
20
-10.926468
30
0.0
11
13.890631
21
-8.165561
31
0.0
0
LINE
8
0
6
CONTINUOUS
10
13.835290
20
-8.047377
30
0.0
11
17.404513
21
-10.808218
31
0.0
0
LINE
8
0
6
CONTINUOUS
10
-0.263096
20
-5.303906
30
0.0
11
-5.302323
21
-6.394062
31
0.0
0
LINE
8
0
6
CONTINUOUS
10
-0.208399
20
-5.422114
30
0.0
11
-5.247873
21
-6.512347
31
0.0
0
LINE
8
0
6
CONTINUOUS
10
4.773629
20
-5.222557
30
0.0
11
-0.263096
21
-5.303906
31
0.0
0
LINE
8
0
6
CONTINUOUS
10
4.828566
20
-5.340723
30
0.0
11
-0.208399
21
-5.422114
31
0.0
0
LINE
8
0
6
CONTINUOUS
10
-17.961518
20
-14.932637
30
0.0
11
-20.649859
21
-19.053299
31
0.0
0
LINE
8
0
6
CONTINUOUS
10
-17.907737
20
-15.051307
30
0.0
11
-20.596239
21
-19.172131
31
0.0
0
LINE
8
0
6
CONTINUOUS
10
-22.864457
20
-28.009268
30
0.0
11
-22.282757
21
-32.392936
31
0.0
0
LINE
8
0
6
CONTINUOUS
10
-22.811010
20
-28.128420
30
0.0
11
-22.229316
21
-32.512231
31
0.0
0
LINE
8
0
6
CONTINUOUS
10
1.313616
20
2.219695
30
0.0
11
-3.708033
21
2.141025
31
0.0
0
LINE
8
0
6
CONTINUOUS
10
-6.013213
20
-29.539008
30
0.0
11
-1.729123
21
-26.652347
31
0.0
0
LINE
8
0
6
CONTINUOUS
10
-14.494114
20
-46.146347
30
0.0
11
-13.937220
21
-41.644576
31
0.0
0
LINE
8
0
6
CONTINUOUS
10
17.636975
20
-60.014465
30
0.0
11
12.997192
21
-61.997589
31
0.0
0
LINE
8
0
6
CONTINUOUS
10
13.024422
20
-62.235238
30
0.0
11
17.771171
21
-60.206389
31
0.0
0
ENDSEC
0
EOF
