999
Erzeugt mit innoplus bad 
0
SECTION
2
HEADER
9
$ACADVER
1
AC1009
9
$DWGCODEPAGE
3
ISO8859-1
0
ENDSEC
0
SECTION
2
TABLES
0
TABLE
2
LAYER
70
1
0
LAYER
2
0
70
0
62
7
6
CONTINUOUS
0
ENDTAB
0
ENDSEC
0
SECTION
2
ENTITIES
0
LINE
8
0
6
CONTINUOUS
10
29.639700
20
-32.992990
30
0.0
11
31.430700
21
-33.240050
31
0.0
0
LINE
8
0
6
CONTINUOUS
10
31.430700
20
-33.137110
30
0.0
11
29.659700
21
-32.890050
31
0.0
0
LINE
8
0
6
CONTINUOUS
10
27.951700
20
-32.292990
30
0.0
11
29.639700
21
-32.992990
31
0.0
0
LINE
8
0
6
CONTINUOUS
10
29.659700
20
-32.890050
30
0.0
11
27.992700
21
-32.210640
31
0.0
0
LINE
8
0
6
CONTINUOUS
10
26.489700
20
-31.181230
30
0.0
11
27.951700
21
-32.292990
31
0.0
0
LINE
8
0
6
CONTINUOUS
10
27.992700
20
-32.210640
30
0.0
11
26.551700
21
-31.119460
31
0.0
0
LINE
8
0
6
CONTINUOUS
10
29.659700
20
-32.890050
30
0.0
11
31.430700
21
-33.137110
31
0.0
0
LINE
8
0
6
CONTINUOUS
10
27.992700
20
-32.210640
30
0.0
11
29.659700
21
-32.890050
31
0.0
0
LINE
8
0
6
CONTINUOUS
10
26.551700
20
-31.119460
30
0.0
11
27.992700
21
-32.210640
31
0.0
0
LINE
8
0
6
CONTINUOUS
10
29.701700
20
-32.684170
30
0.0
11
31.430700
21
-32.931230
31
0.0
0
LINE
8
0
6
CONTINUOUS
10
28.095700
20
-32.025340
30
0.0
11
29.701700
21
-32.684170
31
0.0
0
LINE
8
0
6
CONTINUOUS
10
26.695700
20
-30.975340
30
0.0
11
28.095700
21
-32.025340
31
0.0
0
LINE
8
0
6
CONTINUOUS
10
24.780700
20
-28.010640
30
0.0
11
24.533700
21
-26.240060
31
0.0
0
LINE
8
0
6
CONTINUOUS
10
24.430700
20
-26.240060
30
0.0
11
24.677690
21
-28.031230
31
0.0
0
LINE
8
0
6
CONTINUOUS
10
25.459700
20
-29.678290
30
0.0
11
24.780700
21
-28.010640
31
0.0
0
LINE
8
0
6
CONTINUOUS
10
24.677690
20
-28.031230
30
0.0
11
25.377700
21
-29.719460
31
0.0
0
LINE
8
0
6
CONTINUOUS
10
26.551700
20
-31.119460
30
0.0
11
25.459700
21
-29.678290
31
0.0
0
LINE
8
0
6
CONTINUOUS
10
25.377700
20
-29.719460
30
0.0
11
26.489700
21
-31.181230
31
0.0
0
LINE
8
0
6
CONTINUOUS
10
24.533700
20
-26.240060
30
0.0
11
24.780700
21
-28.010640
31
0.0
0
LINE
8
0
6
CONTINUOUS
10
24.780700
20
-28.010640
30
0.0
11
25.459700
21
-29.678290
31
0.0
0
LINE
8
0
6
CONTINUOUS
10
25.459700
20
-29.678290
30
0.0
11
26.551700
21
-31.119460
31
0.0
0
LINE
8
0
6
CONTINUOUS
10
24.739690
20
-26.240060
30
0.0
11
24.986700
21
-27.969460
31
0.0
0
LINE
8
0
6
CONTINUOUS
10
24.986700
20
-27.969460
30
0.0
11
25.645700
21
-29.575340
31
0.0
0
LINE
8
0
6
CONTINUOUS
10
25.645700
20
-29.575340
30
0.0
11
26.695700
21
-30.975340
31
0.0
0
LINE
8
0
6
CONTINUOUS
10
24.677690
20
-24.448850
30
0.0
11
24.430700
21
-26.240060
31
0.0
0
LINE
8
0
6
CONTINUOUS
10
24.533700
20
-26.240060
30
0.0
11
24.780690
21
-24.469450
31
0.0
0
LINE
8
0
6
CONTINUOUS
10
25.377690
20
-22.760650
30
0.0
11
24.677690
21
-24.448850
31
0.0
0
LINE
8
0
6
CONTINUOUS
10
24.780690
20
-24.469450
30
0.0
11
25.459690
21
-22.801850
31
0.0
0
LINE
8
0
6
CONTINUOUS
10
26.489690
20
-21.298850
30
0.0
11
25.377690
21
-22.760650
31
0.0
0
LINE
8
0
6
CONTINUOUS
10
25.459690
20
-22.801850
30
0.0
11
26.551700
21
-21.360650
31
0.0
0
LINE
8
0
6
CONTINUOUS
10
24.780690
20
-24.469450
30
0.0
11
24.533700
21
-26.240060
31
0.0
0
LINE
8
0
6
CONTINUOUS
10
25.459690
20
-22.801850
30
0.0
11
24.780690
21
-24.469450
31
0.0
0
LINE
8
0
6
CONTINUOUS
10
26.551700
20
-21.360650
30
0.0
11
25.459690
21
-22.801850
31
0.0
0
LINE
8
0
6
CONTINUOUS
10
24.986690
20
-24.510650
30
0.0
11
24.739690
21
-26.240060
31
0.0
0
LINE
8
0
6
CONTINUOUS
10
25.645690
20
-22.904750
30
0.0
11
24.986690
21
-24.510650
31
0.0
0
LINE
8
0
6
CONTINUOUS
10
26.695690
20
-21.504750
30
0.0
11
25.645690
21
-22.904750
31
0.0
0
LINE
8
0
6
CONTINUOUS
10
29.659680
20
-19.590050
30
0.0
11
31.430690
21
-19.342950
31
0.0
0
LINE
8
0
6
CONTINUOUS
10
31.430690
20
-19.240050
30
0.0
11
29.639690
21
-19.487150
31
0.0
0
LINE
8
0
6
CONTINUOUS
10
27.992690
20
-20.269450
30
0.0
11
29.659680
21
-19.590050
31
0.0
0
LINE
8
0
6
CONTINUOUS
10
29.639690
20
-19.487150
30
0.0
11
27.951690
21
-20.187150
31
0.0
0
LINE
8
0
6
CONTINUOUS
10
26.551700
20
-21.360650
30
0.0
11
27.992690
21
-20.269450
31
0.0
0
LINE
8
0
6
CONTINUOUS
10
27.951690
20
-20.187150
30
0.0
11
26.489690
21
-21.298850
31
0.0
0
LINE
8
0
6
CONTINUOUS
10
31.430690
20
-19.342950
30
0.0
11
29.659680
21
-19.590050
31
0.0
0
LINE
8
0
6
CONTINUOUS
10
29.659680
20
-19.590050
30
0.0
11
27.992690
21
-20.269450
31
0.0
0
LINE
8
0
6
CONTINUOUS
10
27.992690
20
-20.269450
30
0.0
11
26.551700
21
-21.360650
31
0.0
0
LINE
8
0
6
CONTINUOUS
10
31.430690
20
-19.548850
30
0.0
11
29.701680
21
-19.795950
31
0.0
0
LINE
8
0
6
CONTINUOUS
10
29.701680
20
-19.795950
30
0.0
11
28.095690
21
-20.454750
31
0.0
0
LINE
8
0
6
CONTINUOUS
10
28.095690
20
-20.454750
30
0.0
11
26.695690
21
-21.504750
31
0.0
0
LINE
8
0
6
CONTINUOUS
10
38.080690
20
-24.469440
30
0.0
11
38.327700
21
-26.240040
31
0.0
0
LINE
8
0
6
CONTINUOUS
10
38.430700
20
-26.240040
30
0.0
11
38.183690
21
-24.448840
31
0.0
0
LINE
8
0
6
CONTINUOUS
10
37.401700
20
-22.801840
30
0.0
11
38.080690
21
-24.469440
31
0.0
0
LINE
8
0
6
CONTINUOUS
10
38.183690
20
-24.448840
30
0.0
11
37.483690
21
-22.760640
31
0.0
0
LINE
8
0
6
CONTINUOUS
10
36.309690
20
-21.360640
30
0.0
11
37.401700
21
-22.801840
31
0.0
0
LINE
8
0
6
CONTINUOUS
10
37.483690
20
-22.760640
30
0.0
11
36.371690
21
-21.298840
31
0.0
0
LINE
8
0
6
CONTINUOUS
10
38.327700
20
-26.240040
30
0.0
11
38.080690
21
-24.469440
31
0.0
0
LINE
8
0
6
CONTINUOUS
10
38.080690
20
-24.469440
30
0.0
11
37.401700
21
-22.801840
31
0.0
0
LINE
8
0
6
CONTINUOUS
10
37.401700
20
-22.801840
30
0.0
11
36.309690
21
-21.360640
31
0.0
0
LINE
8
0
6
CONTINUOUS
10
38.121690
20
-26.240040
30
0.0
11
37.874690
21
-24.510640
31
0.0
0
LINE
8
0
6
CONTINUOUS
10
37.874690
20
-24.510640
30
0.0
11
37.215690
21
-22.904740
31
0.0
0
LINE
8
0
6
CONTINUOUS
10
37.215690
20
-22.904740
30
0.0
11
36.165700
21
-21.504740
31
0.0
0
LINE
8
0
6
CONTINUOUS
10
38.183700
20
-28.031220
30
0.0
11
38.430700
21
-26.240040
31
0.0
0
LINE
8
0
6
CONTINUOUS
10
38.327700
20
-26.240040
30
0.0
11
38.080700
21
-28.010630
31
0.0
0
LINE
8
0
6
CONTINUOUS
10
37.483700
20
-29.719450
30
0.0
11
38.183700
21
-28.031220
31
0.0
0
LINE
8
0
6
CONTINUOUS
10
38.080700
20
-28.010630
30
0.0
11
37.401710
21
-29.678280
31
0.0
0
LINE
8
0
6
CONTINUOUS
10
36.371700
20
-31.181220
30
0.0
11
37.483700
21
-29.719450
31
0.0
0
LINE
8
0
6
CONTINUOUS
10
37.401710
20
-29.678280
30
0.0
11
36.309700
21
-31.119450
31
0.0
0
LINE
8
0
6
CONTINUOUS
10
38.080700
20
-28.010630
30
0.0
11
38.327700
21
-26.240040
31
0.0
0
LINE
8
0
6
CONTINUOUS
10
37.401710
20
-29.678280
30
0.0
11
38.080700
21
-28.010630
31
0.0
0
LINE
8
0
6
CONTINUOUS
10
36.309700
20
-31.119450
30
0.0
11
37.401710
21
-29.678280
31
0.0
0
LINE
8
0
6
CONTINUOUS
10
37.874690
20
-27.969450
30
0.0
11
38.121690
21
-26.240040
31
0.0
0
LINE
8
0
6
CONTINUOUS
10
37.215700
20
-29.575330
30
0.0
11
37.874690
21
-27.969450
31
0.0
0
LINE
8
0
6
CONTINUOUS
10
36.165700
20
-30.975330
30
0.0
11
37.215700
21
-29.575330
31
0.0
0
LINE
8
0
6
CONTINUOUS
10
33.201700
20
-32.890050
30
0.0
11
31.430700
21
-33.137110
31
0.0
0
LINE
8
0
6
CONTINUOUS
10
31.430700
20
-33.240050
30
0.0
11
33.221700
21
-32.992980
31
0.0
0
LINE
8
0
6
CONTINUOUS
10
34.868700
20
-32.210640
30
0.0
11
33.201700
21
-32.890050
31
0.0
0
LINE
8
0
6
CONTINUOUS
10
33.221700
20
-32.992980
30
0.0
11
34.909700
21
-32.292990
31
0.0
0
LINE
8
0
6
CONTINUOUS
10
36.309700
20
-31.119450
30
0.0
11
34.868700
21
-32.210640
31
0.0
0
LINE
8
0
6
CONTINUOUS
10
34.909700
20
-32.292990
30
0.0
11
36.371700
21
-31.181220
31
0.0
0
LINE
8
0
6
CONTINUOUS
10
31.430700
20
-33.137110
30
0.0
11
33.201700
21
-32.890050
31
0.0
0
LINE
8
0
6
CONTINUOUS
10
33.201700
20
-32.890050
30
0.0
11
34.868700
21
-32.210640
31
0.0
0
LINE
8
0
6
CONTINUOUS
10
34.868700
20
-32.210640
30
0.0
11
36.309700
21
-31.119450
31
0.0
0
LINE
8
0
6
CONTINUOUS
10
31.430700
20
-32.931230
30
0.0
11
33.159700
21
-32.684160
31
0.0
0
LINE
8
0
6
CONTINUOUS
10
33.159700
20
-32.684160
30
0.0
11
34.765700
21
-32.025330
31
0.0
0
LINE
8
0
6
CONTINUOUS
10
34.765700
20
-32.025330
30
0.0
11
36.165700
21
-30.975330
31
0.0
0
LINE
8
0
6
CONTINUOUS
10
33.221690
20
-19.487140
30
0.0
11
31.430690
21
-19.240050
31
0.0
0
LINE
8
0
6
CONTINUOUS
10
31.430690
20
-19.342950
30
0.0
11
33.201690
21
-19.590040
31
0.0
0
LINE
8
0
6
CONTINUOUS
10
34.909690
20
-20.187140
30
0.0
11
33.221690
21
-19.487140
31
0.0
0
LINE
8
0
6
CONTINUOUS
10
33.201690
20
-19.590040
30
0.0
11
34.868690
21
-20.269440
31
0.0
0
LINE
8
0
6
CONTINUOUS
10
36.371690
20
-21.298840
30
0.0
11
34.909690
21
-20.187140
31
0.0
0
LINE
8
0
6
CONTINUOUS
10
34.868690
20
-20.269440
30
0.0
11
36.309690
21
-21.360640
31
0.0
0
LINE
8
0
6
CONTINUOUS
10
33.201690
20
-19.590040
30
0.0
11
31.430690
21
-19.342950
31
0.0
0
LINE
8
0
6
CONTINUOUS
10
34.868690
20
-20.269440
30
0.0
11
33.201690
21
-19.590040
31
0.0
0
LINE
8
0
6
CONTINUOUS
10
36.309690
20
-21.360640
30
0.0
11
34.868690
21
-20.269440
31
0.0
0
LINE
8
0
6
CONTINUOUS
10
33.159690
20
-19.795940
30
0.0
11
31.430690
21
-19.548850
31
0.0
0
LINE
8
0
6
CONTINUOUS
10
34.765690
20
-20.454740
30
0.0
11
33.159690
21
-19.795940
31
0.0
0
LINE
8
0
6
CONTINUOUS
10
36.165700
20
-21.504740
30
0.0
11
34.765690
21
-20.454740
31
0.0
0
LINE
8
0
6
CONTINUOUS
10
-57.360490
20
-34.752950
30
0.0
11
-55.569290
21
-35.000010
31
0.0
0
LINE
8
0
6
CONTINUOUS
10
-55.569290
20
-34.897070
30
0.0
11
-57.339890
21
-34.650020
31
0.0
0
LINE
8
0
6
CONTINUOUS
10
-59.048700
20
-34.052960
30
0.0
11
-57.360490
21
-34.752950
31
0.0
0
LINE
8
0
6
CONTINUOUS
10
-57.339890
20
-34.650020
30
0.0
11
-59.007500
21
-33.970610
31
0.0
0
LINE
8
0
6
CONTINUOUS
10
-60.510500
20
-32.941200
30
0.0
11
-59.048700
21
-34.052960
31
0.0
0
LINE
8
0
6
CONTINUOUS
10
-59.007500
20
-33.970610
30
0.0
11
-60.448700
21
-32.879430
31
0.0
0
LINE
8
0
6
CONTINUOUS
10
-57.339890
20
-34.650020
30
0.0
11
-55.569290
21
-34.897070
31
0.0
0
LINE
8
0
6
CONTINUOUS
10
-59.007500
20
-33.970610
30
0.0
11
-57.339890
21
-34.650020
31
0.0
0
LINE
8
0
6
CONTINUOUS
10
-60.448700
20
-32.879430
30
0.0
11
-59.007500
21
-33.970610
31
0.0
0
LINE
8
0
6
CONTINUOUS
10
-57.298700
20
-34.444130
30
0.0
11
-55.569290
21
-34.691190
31
0.0
0
LINE
8
0
6
CONTINUOUS
10
-58.904600
20
-33.785310
30
0.0
11
-57.298700
21
-34.444130
31
0.0
0
LINE
8
0
6
CONTINUOUS
10
-60.304600
20
-32.735310
30
0.0
11
-58.904600
21
-33.785310
31
0.0
0
LINE
8
0
6
CONTINUOUS
10
-62.219300
20
-29.770610
30
0.0
11
-62.466400
21
-28.000020
31
0.0
0
LINE
8
0
6
CONTINUOUS
10
-62.569300
20
-28.000020
30
0.0
11
-62.322200
21
-29.791200
31
0.0
0
LINE
8
0
6
CONTINUOUS
10
-61.539900
20
-31.438260
30
0.0
11
-62.219300
21
-29.770610
31
0.0
0
LINE
8
0
6
CONTINUOUS
10
-62.322200
20
-29.791200
30
0.0
11
-61.622200
21
-31.479430
31
0.0
0
LINE
8
0
6
CONTINUOUS
10
-60.448700
20
-32.879430
30
0.0
11
-61.539900
21
-31.438260
31
0.0
0
LINE
8
0
6
CONTINUOUS
10
-61.622200
20
-31.479430
30
0.0
11
-60.510500
21
-32.941200
31
0.0
0
LINE
8
0
6
CONTINUOUS
10
-62.466400
20
-28.000020
30
0.0
11
-62.219300
21
-29.770610
31
0.0
0
LINE
8
0
6
CONTINUOUS
10
-62.219300
20
-29.770610
30
0.0
11
-61.539900
21
-31.438260
31
0.0
0
LINE
8
0
6
CONTINUOUS
10
-61.539900
20
-31.438260
30
0.0
11
-60.448700
21
-32.879430
31
0.0
0
LINE
8
0
6
CONTINUOUS
10
-62.260500
20
-28.000020
30
0.0
11
-62.013400
21
-29.729430
31
0.0
0
LINE
8
0
6
CONTINUOUS
10
-62.013400
20
-29.729430
30
0.0
11
-61.354600
21
-31.335310
31
0.0
0
LINE
8
0
6
CONTINUOUS
10
-61.354600
20
-31.335310
30
0.0
11
-60.304600
21
-32.735310
31
0.0
0
LINE
8
0
6
CONTINUOUS
10
-62.322200
20
-26.208820
30
0.0
11
-62.569300
21
-28.000020
31
0.0
0
LINE
8
0
6
CONTINUOUS
10
-62.466400
20
-28.000020
30
0.0
11
-62.219300
21
-26.229420
31
0.0
0
LINE
8
0
6
CONTINUOUS
10
-61.622210
20
-24.520620
30
0.0
11
-62.322200
21
-26.208820
31
0.0
0
LINE
8
0
6
CONTINUOUS
10
-62.219300
20
-26.229420
30
0.0
11
-61.539900
21
-24.561820
31
0.0
0
LINE
8
0
6
CONTINUOUS
10
-60.510510
20
-23.058820
30
0.0
11
-61.622210
21
-24.520620
31
0.0
0
LINE
8
0
6
CONTINUOUS
10
-61.539900
20
-24.561820
30
0.0
11
-60.448710
21
-23.120620
31
0.0
0
LINE
8
0
6
CONTINUOUS
10
-62.219300
20
-26.229420
30
0.0
11
-62.466400
21
-28.000020
31
0.0
0
LINE
8
0
6
CONTINUOUS
10
-61.539900
20
-24.561820
30
0.0
11
-62.219300
21
-26.229420
31
0.0
0
LINE
8
0
6
CONTINUOUS
10
-60.448710
20
-23.120620
30
0.0
11
-61.539900
21
-24.561820
31
0.0
0
LINE
8
0
6
CONTINUOUS
10
-62.013400
20
-26.270620
30
0.0
11
-62.260500
21
-28.000020
31
0.0
0
LINE
8
0
6
CONTINUOUS
10
-61.354610
20
-24.664720
30
0.0
11
-62.013400
21
-26.270620
31
0.0
0
LINE
8
0
6
CONTINUOUS
10
-60.304610
20
-23.264720
30
0.0
11
-61.354610
21
-24.664720
31
0.0
0
LINE
8
0
6
CONTINUOUS
10
-57.339900
20
-21.350010
30
0.0
11
-55.569310
21
-21.102910
31
0.0
0
LINE
8
0
6
CONTINUOUS
10
-55.569310
20
-21.000010
30
0.0
11
-57.360500
21
-21.247110
31
0.0
0
LINE
8
0
6
CONTINUOUS
10
-59.007510
20
-22.029420
30
0.0
11
-57.339900
21
-21.350010
31
0.0
0
LINE
8
0
6
CONTINUOUS
10
-57.360500
20
-21.247110
30
0.0
11
-59.048710
21
-21.947120
31
0.0
0
LINE
8
0
6
CONTINUOUS
10
-60.448710
20
-23.120620
30
0.0
11
-59.007510
21
-22.029420
31
0.0
0
LINE
8
0
6
CONTINUOUS
10
-59.048710
20
-21.947120
30
0.0
11
-60.510510
21
-23.058820
31
0.0
0
LINE
8
0
6
CONTINUOUS
10
-55.569310
20
-21.102910
30
0.0
11
-57.339900
21
-21.350010
31
0.0
0
LINE
8
0
6
CONTINUOUS
10
-57.339900
20
-21.350010
30
0.0
11
-59.007510
21
-22.029420
31
0.0
0
LINE
8
0
6
CONTINUOUS
10
-59.007510
20
-22.029420
30
0.0
11
-60.448710
21
-23.120620
31
0.0
0
LINE
8
0
6
CONTINUOUS
10
-55.569310
20
-21.308810
30
0.0
11
-57.298710
21
-21.555910
31
0.0
0
LINE
8
0
6
CONTINUOUS
10
-57.298710
20
-21.555910
30
0.0
11
-58.904610
21
-22.214720
31
0.0
0
LINE
8
0
6
CONTINUOUS
10
-58.904610
20
-22.214720
30
0.0
11
-60.304610
21
-23.264720
31
0.0
0
LINE
8
0
6
CONTINUOUS
10
-48.919300
20
-26.229410
30
0.0
11
-48.672210
21
-28.000010
31
0.0
0
LINE
8
0
6
CONTINUOUS
10
-48.569300
20
-28.000010
30
0.0
11
-48.816400
21
-26.208810
31
0.0
0
LINE
8
0
6
CONTINUOUS
10
-49.598700
20
-24.561810
30
0.0
11
-48.919300
21
-26.229410
31
0.0
0
LINE
8
0
6
CONTINUOUS
10
-48.816400
20
-26.208810
30
0.0
11
-49.516410
21
-24.520610
31
0.0
0
LINE
8
0
6
CONTINUOUS
10
-50.689900
20
-23.120610
30
0.0
11
-49.598700
21
-24.561810
31
0.0
0
LINE
8
0
6
CONTINUOUS
10
-49.516410
20
-24.520610
30
0.0
11
-50.628110
21
-23.058810
31
0.0
0
LINE
8
0
6
CONTINUOUS
10
-48.672210
20
-28.000010
30
0.0
11
-48.919300
21
-26.229410
31
0.0
0
LINE
8
0
6
CONTINUOUS
10
-48.919300
20
-26.229410
30
0.0
11
-49.598700
21
-24.561810
31
0.0
0
LINE
8
0
6
CONTINUOUS
10
-49.598700
20
-24.561810
30
0.0
11
-50.689900
21
-23.120610
31
0.0
0
LINE
8
0
6
CONTINUOUS
10
-48.878100
20
-28.000010
30
0.0
11
-49.125200
21
-26.270610
31
0.0
0
LINE
8
0
6
CONTINUOUS
10
-49.125200
20
-26.270610
30
0.0
11
-49.784010
21
-24.664710
31
0.0
0
LINE
8
0
6
CONTINUOUS
10
-49.784010
20
-24.664710
30
0.0
11
-50.834000
21
-23.264710
31
0.0
0
LINE
8
0
6
CONTINUOUS
10
-48.816400
20
-29.791190
30
0.0
11
-48.569300
21
-28.000010
31
0.0
0
LINE
8
0
6
CONTINUOUS
10
-48.672210
20
-28.000010
30
0.0
11
-48.919300
21
-29.770600
31
0.0
0
LINE
8
0
6
CONTINUOUS
10
-49.516400
20
-31.479420
30
0.0
11
-48.816400
21
-29.791190
31
0.0
0
LINE
8
0
6
CONTINUOUS
10
-48.919300
20
-29.770600
30
0.0
11
-49.598700
21
-31.438250
31
0.0
0
LINE
8
0
6
CONTINUOUS
10
-50.628100
20
-32.941190
30
0.0
11
-49.516400
21
-31.479420
31
0.0
0
LINE
8
0
6
CONTINUOUS
10
-49.598700
20
-31.438250
30
0.0
11
-50.689890
21
-32.879420
31
0.0
0
LINE
8
0
6
CONTINUOUS
10
-48.919300
20
-29.770600
30
0.0
11
-48.672210
21
-28.000010
31
0.0
0
LINE
8
0
6
CONTINUOUS
10
-49.598700
20
-31.438250
30
0.0
11
-48.919300
21
-29.770600
31
0.0
0
LINE
8
0
6
CONTINUOUS
10
-50.689890
20
-32.879420
30
0.0
11
-49.598700
21
-31.438250
31
0.0
0
LINE
8
0
6
CONTINUOUS
10
-49.125200
20
-29.729420
30
0.0
11
-48.878100
21
-28.000010
31
0.0
0
LINE
8
0
6
CONTINUOUS
10
-49.784000
20
-31.335300
30
0.0
11
-49.125200
21
-29.729420
31
0.0
0
LINE
8
0
6
CONTINUOUS
10
-50.834000
20
-32.735300
30
0.0
11
-49.784000
21
-31.335300
31
0.0
0
LINE
8
0
6
CONTINUOUS
10
-53.798700
20
-34.650010
30
0.0
11
-55.569290
21
-34.897070
31
0.0
0
LINE
8
0
6
CONTINUOUS
10
-55.569290
20
-35.000010
30
0.0
11
-53.778100
21
-34.752950
31
0.0
0
LINE
8
0
6
CONTINUOUS
10
-52.131100
20
-33.970600
30
0.0
11
-53.798700
21
-34.650010
31
0.0
0
LINE
8
0
6
CONTINUOUS
10
-53.778100
20
-34.752950
30
0.0
11
-52.089900
21
-34.052950
31
0.0
0
LINE
8
0
6
CONTINUOUS
10
-50.689890
20
-32.879420
30
0.0
11
-52.131100
21
-33.970600
31
0.0
0
LINE
8
0
6
CONTINUOUS
10
-52.089900
20
-34.052950
30
0.0
11
-50.628100
21
-32.941190
31
0.0
0
LINE
8
0
6
CONTINUOUS
10
-55.569290
20
-34.897070
30
0.0
11
-53.798700
21
-34.650010
31
0.0
0
LINE
8
0
6
CONTINUOUS
10
-53.798700
20
-34.650010
30
0.0
11
-52.131100
21
-33.970600
31
0.0
0
LINE
8
0
6
CONTINUOUS
10
-52.131100
20
-33.970600
30
0.0
11
-50.689890
21
-32.879420
31
0.0
0
LINE
8
0
6
CONTINUOUS
10
-55.569290
20
-34.691190
30
0.0
11
-53.839900
21
-34.444130
31
0.0
0
LINE
8
0
6
CONTINUOUS
10
-53.839900
20
-34.444130
30
0.0
11
-52.234000
21
-33.785300
31
0.0
0
LINE
8
0
6
CONTINUOUS
10
-52.234000
20
-33.785300
30
0.0
11
-50.834000
21
-32.735300
31
0.0
0
LINE
8
0
6
CONTINUOUS
10
-53.778110
20
-21.247110
30
0.0
11
-55.569310
21
-21.000010
31
0.0
0
LINE
8
0
6
CONTINUOUS
10
-55.569310
20
-21.102910
30
0.0
11
-53.798710
21
-21.350010
31
0.0
0
LINE
8
0
6
CONTINUOUS
10
-52.089910
20
-21.947110
30
0.0
11
-53.778110
21
-21.247110
31
0.0
0
LINE
8
0
6
CONTINUOUS
10
-53.798710
20
-21.350010
30
0.0
11
-52.131110
21
-22.029410
31
0.0
0
LINE
8
0
6
CONTINUOUS
10
-50.628110
20
-23.058810
30
0.0
11
-52.089910
21
-21.947110
31
0.0
0
LINE
8
0
6
CONTINUOUS
10
-52.131110
20
-22.029410
30
0.0
11
-50.689900
21
-23.120610
31
0.0
0
LINE
8
0
6
CONTINUOUS
10
-53.798710
20
-21.350010
30
0.0
11
-55.569310
21
-21.102910
31
0.0
0
LINE
8
0
6
CONTINUOUS
10
-52.131110
20
-22.029410
30
0.0
11
-53.798710
21
-21.350010
31
0.0
0
LINE
8
0
6
CONTINUOUS
10
-50.689900
20
-23.120610
30
0.0
11
-52.131110
21
-22.029410
31
0.0
0
LINE
8
0
6
CONTINUOUS
10
-53.839910
20
-21.555910
30
0.0
11
-55.569310
21
-21.308810
31
0.0
0
LINE
8
0
6
CONTINUOUS
10
-52.234010
20
-22.214710
30
0.0
11
-53.839910
21
-21.555910
31
0.0
0
LINE
8
0
6
CONTINUOUS
10
-50.834000
20
-23.264710
30
0.0
11
-52.234010
21
-22.214710
31
0.0
0
LINE
8
0
6
CONTINUOUS
10
-57.339970
20
42.649980
30
0.0
11
-55.569370
21
42.897080
31
0.0
0
LINE
8
0
6
CONTINUOUS
10
-55.569370
20
42.999990
30
0.0
11
-57.360570
21
42.752890
31
0.0
0
LINE
8
0
6
CONTINUOUS
10
-59.007570
20
41.970580
30
0.0
11
-57.339970
21
42.649980
31
0.0
0
LINE
8
0
6
CONTINUOUS
10
-57.360570
20
42.752890
30
0.0
11
-59.048760
21
42.052890
31
0.0
0
LINE
8
0
6
CONTINUOUS
10
-60.448770
20
40.879380
30
0.0
11
-59.007570
21
41.970580
31
0.0
0
LINE
8
0
6
CONTINUOUS
10
-59.048760
20
42.052890
30
0.0
11
-60.510570
21
40.941180
31
0.0
0
LINE
8
0
6
CONTINUOUS
10
-55.569370
20
42.897080
30
0.0
11
-57.339970
21
42.649980
31
0.0
0
LINE
8
0
6
CONTINUOUS
10
-57.339970
20
42.649980
30
0.0
11
-59.007570
21
41.970580
31
0.0
0
LINE
8
0
6
CONTINUOUS
10
-59.007570
20
41.970580
30
0.0
11
-60.448770
21
40.879380
31
0.0
0
LINE
8
0
6
CONTINUOUS
10
-55.569370
20
42.691190
30
0.0
11
-57.298760
21
42.444090
31
0.0
0
LINE
8
0
6
CONTINUOUS
10
-57.298760
20
42.444090
30
0.0
11
-58.904660
21
41.785290
31
0.0
0
LINE
8
0
6
CONTINUOUS
10
-58.904660
20
41.785290
30
0.0
11
-60.304670
21
40.735280
31
0.0
0
LINE
8
0
6
CONTINUOUS
10
-62.322260
20
37.791180
30
0.0
11
-62.569360
21
35.999980
31
0.0
0
LINE
8
0
6
CONTINUOUS
10
-62.466460
20
35.999980
30
0.0
11
-62.219360
21
37.770580
31
0.0
0
LINE
8
0
6
CONTINUOUS
10
-61.622260
20
39.479380
30
0.0
11
-62.322260
21
37.791180
31
0.0
0
LINE
8
0
6
CONTINUOUS
10
-62.219360
20
37.770580
30
0.0
11
-61.539960
21
39.438180
31
0.0
0
LINE
8
0
6
CONTINUOUS
10
-60.510570
20
40.941180
30
0.0
11
-61.622260
21
39.479380
31
0.0
0
LINE
8
0
6
CONTINUOUS
10
-61.539960
20
39.438180
30
0.0
11
-60.448770
21
40.879380
31
0.0
0
LINE
8
0
6
CONTINUOUS
10
-62.219360
20
37.770580
30
0.0
11
-62.466460
21
35.999980
31
0.0
0
LINE
8
0
6
CONTINUOUS
10
-61.539960
20
39.438180
30
0.0
11
-62.219360
21
37.770580
31
0.0
0
LINE
8
0
6
CONTINUOUS
10
-60.448770
20
40.879380
30
0.0
11
-61.539960
21
39.438180
31
0.0
0
LINE
8
0
6
CONTINUOUS
10
-62.013460
20
37.729380
30
0.0
11
-62.260560
21
35.999980
31
0.0
0
LINE
8
0
6
CONTINUOUS
10
-61.354660
20
39.335280
30
0.0
11
-62.013460
21
37.729380
31
0.0
0
LINE
8
0
6
CONTINUOUS
10
-60.304670
20
40.735280
30
0.0
11
-61.354660
21
39.335280
31
0.0
0
LINE
8
0
6
CONTINUOUS
10
-62.219360
20
34.229380
30
0.0
11
-62.466460
21
35.999980
31
0.0
0
LINE
8
0
6
CONTINUOUS
10
-62.569360
20
35.999980
30
0.0
11
-62.322260
21
34.208780
31
0.0
0
LINE
8
0
6
CONTINUOUS
10
-61.539960
20
32.561780
30
0.0
11
-62.219360
21
34.229380
31
0.0
0
LINE
8
0
6
CONTINUOUS
10
-62.322260
20
34.208780
30
0.0
11
-61.622260
21
32.520580
31
0.0
0
LINE
8
0
6
CONTINUOUS
10
-60.448760
20
31.120580
30
0.0
11
-61.539960
21
32.561780
31
0.0
0
LINE
8
0
6
CONTINUOUS
10
-61.622260
20
32.520580
30
0.0
11
-60.510560
21
31.058790
31
0.0
0
LINE
8
0
6
CONTINUOUS
10
-62.466460
20
35.999980
30
0.0
11
-62.219360
21
34.229380
31
0.0
0
LINE
8
0
6
CONTINUOUS
10
-62.219360
20
34.229380
30
0.0
11
-61.539960
21
32.561780
31
0.0
0
LINE
8
0
6
CONTINUOUS
10
-61.539960
20
32.561780
30
0.0
11
-60.448760
21
31.120580
31
0.0
0
LINE
8
0
6
CONTINUOUS
10
-62.260560
20
35.999980
30
0.0
11
-62.013460
21
34.270580
31
0.0
0
LINE
8
0
6
CONTINUOUS
10
-62.013460
20
34.270580
30
0.0
11
-61.354660
21
32.664680
31
0.0
0
LINE
8
0
6
CONTINUOUS
10
-61.354660
20
32.664680
30
0.0
11
-60.304660
21
31.264680
31
0.0
0
LINE
8
0
6
CONTINUOUS
10
-57.360550
20
29.247080
30
0.0
11
-55.569350
21
28.999990
31
0.0
0
LINE
8
0
6
CONTINUOUS
10
-55.569350
20
29.102890
30
0.0
11
-57.339950
21
29.349990
31
0.0
0
LINE
8
0
6
CONTINUOUS
10
-59.048750
20
29.947080
30
0.0
11
-57.360550
21
29.247080
31
0.0
0
LINE
8
0
6
CONTINUOUS
10
-57.339950
20
29.349990
30
0.0
11
-59.007560
21
30.029380
31
0.0
0
LINE
8
0
6
CONTINUOUS
10
-60.510560
20
31.058790
30
0.0
11
-59.048750
21
29.947080
31
0.0
0
LINE
8
0
6
CONTINUOUS
10
-59.007560
20
30.029380
30
0.0
11
-60.448760
21
31.120580
31
0.0
0
LINE
8
0
6
CONTINUOUS
10
-57.339950
20
29.349990
30
0.0
11
-55.569350
21
29.102890
31
0.0
0
LINE
8
0
6
CONTINUOUS
10
-59.007560
20
30.029380
30
0.0
11
-57.339950
21
29.349990
31
0.0
0
LINE
8
0
6
CONTINUOUS
10
-60.448760
20
31.120580
30
0.0
11
-59.007560
21
30.029380
31
0.0
0
LINE
8
0
6
CONTINUOUS
10
-57.298760
20
29.555880
30
0.0
11
-55.569350
21
29.308790
31
0.0
0
LINE
8
0
6
CONTINUOUS
10
-58.904650
20
30.214680
30
0.0
11
-57.298760
21
29.555880
31
0.0
0
LINE
8
0
6
CONTINUOUS
10
-60.304660
20
31.264680
30
0.0
11
-58.904650
21
30.214680
31
0.0
0
LINE
8
0
6
CONTINUOUS
10
-48.816460
20
34.208790
30
0.0
11
-48.569360
21
35.999990
31
0.0
0
LINE
8
0
6
CONTINUOUS
10
-48.672260
20
35.999990
30
0.0
11
-48.919360
21
34.229390
31
0.0
0
LINE
8
0
6
CONTINUOUS
10
-49.516460
20
32.520590
30
0.0
11
-48.816460
21
34.208790
31
0.0
0
LINE
8
0
6
CONTINUOUS
10
-48.919360
20
34.229390
30
0.0
11
-49.598760
21
32.561800
31
0.0
0
LINE
8
0
6
CONTINUOUS
10
-50.628150
20
31.058800
30
0.0
11
-49.516460
21
32.520590
31
0.0
0
LINE
8
0
6
CONTINUOUS
10
-49.598760
20
32.561800
30
0.0
11
-50.689950
21
31.120590
31
0.0
0
LINE
8
0
6
CONTINUOUS
10
-48.919360
20
34.229390
30
0.0
11
-48.672260
21
35.999990
31
0.0
0
LINE
8
0
6
CONTINUOUS
10
-49.598760
20
32.561800
30
0.0
11
-48.919360
21
34.229390
31
0.0
0
LINE
8
0
6
CONTINUOUS
10
-50.689950
20
31.120590
30
0.0
11
-49.598760
21
32.561800
31
0.0
0
LINE
8
0
6
CONTINUOUS
10
-49.125260
20
34.270590
30
0.0
11
-48.878160
21
35.999990
31
0.0
0
LINE
8
0
6
CONTINUOUS
10
-49.784060
20
32.664690
30
0.0
11
-49.125260
21
34.270590
31
0.0
0
LINE
8
0
6
CONTINUOUS
10
-50.834050
20
31.264690
30
0.0
11
-49.784060
21
32.664690
31
0.0
0
LINE
8
0
6
CONTINUOUS
10
-48.919360
20
37.770590
30
0.0
11
-48.672260
21
35.999990
31
0.0
0
LINE
8
0
6
CONTINUOUS
10
-48.569360
20
35.999990
30
0.0
11
-48.816460
21
37.791190
31
0.0
0
LINE
8
0
6
CONTINUOUS
10
-49.598760
20
39.438190
30
0.0
11
-48.919360
21
37.770590
31
0.0
0
LINE
8
0
6
CONTINUOUS
10
-48.816460
20
37.791190
30
0.0
11
-49.516470
21
39.479400
31
0.0
0
LINE
8
0
6
CONTINUOUS
10
-50.689970
20
40.879390
30
0.0
11
-49.598760
21
39.438190
31
0.0
0
LINE
8
0
6
CONTINUOUS
10
-49.516470
20
39.479400
30
0.0
11
-50.628160
21
40.941190
31
0.0
0
LINE
8
0
6
CONTINUOUS
10
-48.672260
20
35.999990
30
0.0
11
-48.919360
21
37.770590
31
0.0
0
LINE
8
0
6
CONTINUOUS
10
-48.919360
20
37.770590
30
0.0
11
-49.598760
21
39.438190
31
0.0
0
LINE
8
0
6
CONTINUOUS
10
-49.598760
20
39.438190
30
0.0
11
-50.689970
21
40.879390
31
0.0
0
LINE
8
0
6
CONTINUOUS
10
-48.878160
20
35.999990
30
0.0
11
-49.125260
21
37.729390
31
0.0
0
LINE
8
0
6
CONTINUOUS
10
-49.125260
20
37.729390
30
0.0
11
-49.784070
21
39.335300
31
0.0
0
LINE
8
0
6
CONTINUOUS
10
-49.784070
20
39.335300
30
0.0
11
-50.834070
21
40.735290
31
0.0
0
LINE
8
0
6
CONTINUOUS
10
-53.778170
20
42.752890
30
0.0
11
-55.569370
21
42.999990
31
0.0
0
LINE
8
0
6
CONTINUOUS
10
-55.569370
20
42.897080
30
0.0
11
-53.798770
21
42.649990
31
0.0
0
LINE
8
0
6
CONTINUOUS
10
-52.089970
20
42.052890
30
0.0
11
-53.778170
21
42.752890
31
0.0
0
LINE
8
0
6
CONTINUOUS
10
-53.798770
20
42.649990
30
0.0
11
-52.131160
21
41.970590
31
0.0
0
LINE
8
0
6
CONTINUOUS
10
-50.628160
20
40.941190
30
0.0
11
-52.089970
21
42.052890
31
0.0
0
LINE
8
0
6
CONTINUOUS
10
-52.131160
20
41.970590
30
0.0
11
-50.689970
21
40.879390
31
0.0
0
LINE
8
0
6
CONTINUOUS
10
-53.798770
20
42.649990
30
0.0
11
-55.569370
21
42.897080
31
0.0
0
LINE
8
0
6
CONTINUOUS
10
-52.131160
20
41.970590
30
0.0
11
-53.798770
21
42.649990
31
0.0
0
LINE
8
0
6
CONTINUOUS
10
-50.689970
20
40.879390
30
0.0
11
-52.131160
21
41.970590
31
0.0
0
LINE
8
0
6
CONTINUOUS
10
-53.839970
20
42.444090
30
0.0
11
-55.569370
21
42.691190
31
0.0
0
LINE
8
0
6
CONTINUOUS
10
-52.234070
20
41.785290
30
0.0
11
-53.839970
21
42.444090
31
0.0
0
LINE
8
0
6
CONTINUOUS
10
-50.834070
20
40.735290
30
0.0
11
-52.234070
21
41.785290
31
0.0
0
LINE
8
0
6
CONTINUOUS
10
-53.798760
20
29.349990
30
0.0
11
-55.569350
21
29.102890
31
0.0
0
LINE
8
0
6
CONTINUOUS
10
-55.569350
20
28.999990
30
0.0
11
-53.778160
21
29.247090
31
0.0
0
LINE
8
0
6
CONTINUOUS
10
-52.131150
20
30.029390
30
0.0
11
-53.798760
21
29.349990
31
0.0
0
LINE
8
0
6
CONTINUOUS
10
-53.778160
20
29.247090
30
0.0
11
-52.089960
21
29.947090
31
0.0
0
LINE
8
0
6
CONTINUOUS
10
-50.689950
20
31.120590
30
0.0
11
-52.131150
21
30.029390
31
0.0
0
LINE
8
0
6
CONTINUOUS
10
-52.089960
20
29.947090
30
0.0
11
-50.628150
21
31.058800
31
0.0
0
LINE
8
0
6
CONTINUOUS
10
-55.569350
20
29.102890
30
0.0
11
-53.798760
21
29.349990
31
0.0
0
LINE
8
0
6
CONTINUOUS
10
-53.798760
20
29.349990
30
0.0
11
-52.131150
21
30.029390
31
0.0
0
LINE
8
0
6
CONTINUOUS
10
-52.131150
20
30.029390
30
0.0
11
-50.689950
21
31.120590
31
0.0
0
LINE
8
0
6
CONTINUOUS
10
-55.569350
20
29.308790
30
0.0
11
-53.839960
21
29.555890
31
0.0
0
LINE
8
0
6
CONTINUOUS
10
-53.839960
20
29.555890
30
0.0
11
-52.234060
21
30.214690
31
0.0
0
LINE
8
0
6
CONTINUOUS
10
-52.234060
20
30.214690
30
0.0
11
-50.834050
21
31.264690
31
0.0
0
LINE
8
0
6
CONTINUOUS
10
29.659620
20
40.688070
30
0.0
11
31.430640
21
40.935170
31
0.0
0
LINE
8
0
6
CONTINUOUS
10
31.430640
20
41.038070
30
0.0
11
29.639640
21
40.790980
31
0.0
0
LINE
8
0
6
CONTINUOUS
10
27.992620
20
40.008680
30
0.0
11
29.659620
21
40.688070
31
0.0
0
LINE
8
0
6
CONTINUOUS
10
29.639640
20
40.790980
30
0.0
11
27.951630
21
40.090980
31
0.0
0
LINE
8
0
6
CONTINUOUS
10
26.551640
20
38.917470
30
0.0
11
27.992620
21
40.008680
31
0.0
0
LINE
8
0
6
CONTINUOUS
10
27.951630
20
40.090980
30
0.0
11
26.489630
21
38.979270
31
0.0
0
LINE
8
0
6
CONTINUOUS
10
31.430640
20
40.935170
30
0.0
11
29.659620
21
40.688070
31
0.0
0
LINE
8
0
6
CONTINUOUS
10
29.659620
20
40.688070
30
0.0
11
27.992620
21
40.008680
31
0.0
0
LINE
8
0
6
CONTINUOUS
10
27.992620
20
40.008680
30
0.0
11
26.551640
21
38.917470
31
0.0
0
LINE
8
0
6
CONTINUOUS
10
31.430640
20
40.729280
30
0.0
11
29.701620
21
40.482180
31
0.0
0
LINE
8
0
6
CONTINUOUS
10
29.701620
20
40.482180
30
0.0
11
28.095640
21
39.823380
31
0.0
0
LINE
8
0
6
CONTINUOUS
10
28.095640
20
39.823380
30
0.0
11
26.695630
21
38.773370
31
0.0
0
LINE
8
0
6
CONTINUOUS
10
24.677630
20
35.829270
30
0.0
11
24.430650
21
34.038070
31
0.0
0
LINE
8
0
6
CONTINUOUS
10
24.533640
20
34.038070
30
0.0
11
24.780640
21
35.808670
31
0.0
0
LINE
8
0
6
CONTINUOUS
10
25.377640
20
37.517480
30
0.0
11
24.677630
21
35.829270
31
0.0
0
LINE
8
0
6
CONTINUOUS
10
24.780640
20
35.808670
30
0.0
11
25.459630
21
37.476270
31
0.0
0
LINE
8
0
6
CONTINUOUS
10
26.489630
20
38.979270
30
0.0
11
25.377640
21
37.517480
31
0.0
0
LINE
8
0
6
CONTINUOUS
10
25.459630
20
37.476270
30
0.0
11
26.551640
21
38.917470
31
0.0
0
LINE
8
0
6
CONTINUOUS
10
24.780640
20
35.808670
30
0.0
11
24.533640
21
34.038070
31
0.0
0
LINE
8
0
6
CONTINUOUS
10
25.459630
20
37.476270
30
0.0
11
24.780640
21
35.808670
31
0.0
0
LINE
8
0
6
CONTINUOUS
10
26.551640
20
38.917470
30
0.0
11
25.459630
21
37.476270
31
0.0
0
LINE
8
0
6
CONTINUOUS
10
24.986630
20
35.767470
30
0.0
11
24.739640
21
34.038070
31
0.0
0
LINE
8
0
6
CONTINUOUS
10
25.645640
20
37.373380
30
0.0
11
24.986630
21
35.767470
31
0.0
0
LINE
8
0
6
CONTINUOUS
10
26.695630
20
38.773370
30
0.0
11
25.645640
21
37.373380
31
0.0
0
LINE
8
0
6
CONTINUOUS
10
24.780650
20
32.267470
30
0.0
11
24.533640
21
34.038070
31
0.0
0
LINE
8
0
6
CONTINUOUS
10
24.430650
20
34.038070
30
0.0
11
24.677630
21
32.246870
31
0.0
0
LINE
8
0
6
CONTINUOUS
10
25.459640
20
30.599880
30
0.0
11
24.780650
21
32.267470
31
0.0
0
LINE
8
0
6
CONTINUOUS
10
24.677630
20
32.246870
30
0.0
11
25.377650
21
30.558670
31
0.0
0
LINE
8
0
6
CONTINUOUS
10
26.551640
20
29.158670
30
0.0
11
25.459640
21
30.599880
31
0.0
0
LINE
8
0
6
CONTINUOUS
10
25.377650
20
30.558670
30
0.0
11
26.489630
21
29.096880
31
0.0
0
LINE
8
0
6
CONTINUOUS
10
24.533640
20
34.038070
30
0.0
11
24.780650
21
32.267470
31
0.0
0
LINE
8
0
6
CONTINUOUS
10
24.780650
20
32.267470
30
0.0
11
25.459640
21
30.599880
31
0.0
0
LINE
8
0
6
CONTINUOUS
10
25.459640
20
30.599880
30
0.0
11
26.551640
21
29.158670
31
0.0
0
LINE
8
0
6
CONTINUOUS
10
24.739640
20
34.038070
30
0.0
11
24.986640
21
32.308670
31
0.0
0
LINE
8
0
6
CONTINUOUS
10
24.986640
20
32.308670
30
0.0
11
25.645650
21
30.702770
31
0.0
0
LINE
8
0
6
CONTINUOUS
10
25.645650
20
30.702770
30
0.0
11
26.695640
21
29.302770
31
0.0
0
LINE
8
0
6
CONTINUOUS
10
29.639640
20
27.285170
30
0.0
11
31.430650
21
27.038080
31
0.0
0
LINE
8
0
6
CONTINUOUS
10
31.430650
20
27.140980
30
0.0
11
29.659640
21
27.388070
31
0.0
0
LINE
8
0
6
CONTINUOUS
10
27.951640
20
27.985170
30
0.0
11
29.639640
21
27.285170
31
0.0
0
LINE
8
0
6
CONTINUOUS
10
29.659640
20
27.388070
30
0.0
11
27.992640
21
28.067470
31
0.0
0
LINE
8
0
6
CONTINUOUS
10
26.489630
20
29.096880
30
0.0
11
27.951640
21
27.985170
31
0.0
0
LINE
8
0
6
CONTINUOUS
10
27.992640
20
28.067470
30
0.0
11
26.551640
21
29.158670
31
0.0
0
LINE
8
0
6
CONTINUOUS
10
29.659640
20
27.388070
30
0.0
11
31.430650
21
27.140980
31
0.0
0
LINE
8
0
6
CONTINUOUS
10
27.992640
20
28.067470
30
0.0
11
29.659640
21
27.388070
31
0.0
0
LINE
8
0
6
CONTINUOUS
10
26.551640
20
29.158670
30
0.0
11
27.992640
21
28.067470
31
0.0
0
LINE
8
0
6
CONTINUOUS
10
29.701640
20
27.593970
30
0.0
11
31.430650
21
27.346880
31
0.0
0
LINE
8
0
6
CONTINUOUS
10
28.095650
20
28.252770
30
0.0
11
29.701640
21
27.593970
31
0.0
0
LINE
8
0
6
CONTINUOUS
10
26.695640
20
29.302770
30
0.0
11
28.095650
21
28.252770
31
0.0
0
LINE
8
0
6
CONTINUOUS
10
38.183640
20
32.246880
30
0.0
11
38.430640
21
34.038080
31
0.0
0
LINE
8
0
6
CONTINUOUS
10
38.327650
20
34.038080
30
0.0
11
38.080640
21
32.267480
31
0.0
0
LINE
8
0
6
CONTINUOUS
10
37.483640
20
30.558680
30
0.0
11
38.183640
21
32.246880
31
0.0
0
LINE
8
0
6
CONTINUOUS
10
38.080640
20
32.267480
30
0.0
11
37.401650
21
30.599890
31
0.0
0
LINE
8
0
6
CONTINUOUS
10
36.371640
20
29.096890
30
0.0
11
37.483640
21
30.558680
31
0.0
0
LINE
8
0
6
CONTINUOUS
10
37.401650
20
30.599890
30
0.0
11
36.309630
21
29.158680
31
0.0
0
LINE
8
0
6
CONTINUOUS
10
38.080640
20
32.267480
30
0.0
11
38.327650
21
34.038080
31
0.0
0
LINE
8
0
6
CONTINUOUS
10
37.401650
20
30.599890
30
0.0
11
38.080640
21
32.267480
31
0.0
0
LINE
8
0
6
CONTINUOUS
10
36.309630
20
29.158680
30
0.0
11
37.401650
21
30.599890
31
0.0
0
LINE
8
0
6
CONTINUOUS
10
37.874630
20
32.308680
30
0.0
11
38.121630
21
34.038080
31
0.0
0
LINE
8
0
6
CONTINUOUS
10
37.215640
20
30.702780
30
0.0
11
37.874630
21
32.308680
31
0.0
0
LINE
8
0
6
CONTINUOUS
10
36.165650
20
29.302780
30
0.0
11
37.215640
21
30.702780
31
0.0
0
LINE
8
0
6
CONTINUOUS
10
38.080640
20
35.808680
30
0.0
11
38.327650
21
34.038080
31
0.0
0
LINE
8
0
6
CONTINUOUS
10
38.430640
20
34.038080
30
0.0
11
38.183630
21
35.829280
31
0.0
0
LINE
8
0
6
CONTINUOUS
10
37.401640
20
37.476280
30
0.0
11
38.080640
21
35.808680
31
0.0
0
LINE
8
0
6
CONTINUOUS
10
38.183630
20
35.829280
30
0.0
11
37.483640
21
37.517490
31
0.0
0
LINE
8
0
6
CONTINUOUS
10
36.309630
20
38.917480
30
0.0
11
37.401640
21
37.476280
31
0.0
0
LINE
8
0
6
CONTINUOUS
10
37.483640
20
37.517490
30
0.0
11
36.371630
21
38.979280
31
0.0
0
LINE
8
0
6
CONTINUOUS
10
38.327650
20
34.038080
30
0.0
11
38.080640
21
35.808680
31
0.0
0
LINE
8
0
6
CONTINUOUS
10
38.080640
20
35.808680
30
0.0
11
37.401640
21
37.476280
31
0.0
0
LINE
8
0
6
CONTINUOUS
10
37.401640
20
37.476280
30
0.0
11
36.309630
21
38.917480
31
0.0
0
LINE
8
0
6
CONTINUOUS
10
38.121630
20
34.038080
30
0.0
11
37.874630
21
35.767480
31
0.0
0
LINE
8
0
6
CONTINUOUS
10
37.874630
20
35.767480
30
0.0
11
37.215630
21
37.373390
31
0.0
0
LINE
8
0
6
CONTINUOUS
10
37.215630
20
37.373390
30
0.0
11
36.165640
21
38.773380
31
0.0
0
LINE
8
0
6
CONTINUOUS
10
33.221640
20
40.790980
30
0.0
11
31.430640
21
41.038070
31
0.0
0
LINE
8
0
6
CONTINUOUS
10
31.430640
20
40.935170
30
0.0
11
33.201630
21
40.688080
31
0.0
0
LINE
8
0
6
CONTINUOUS
10
34.909620
20
40.090980
30
0.0
11
33.221640
21
40.790980
31
0.0
0
LINE
8
0
6
CONTINUOUS
10
33.201630
20
40.688080
30
0.0
11
34.868630
21
40.008680
31
0.0
0
LINE
8
0
6
CONTINUOUS
10
36.371630
20
38.979280
30
0.0
11
34.909620
21
40.090980
31
0.0
0
LINE
8
0
6
CONTINUOUS
10
34.868630
20
40.008680
30
0.0
11
36.309630
21
38.917480
31
0.0
0
LINE
8
0
6
CONTINUOUS
10
33.201630
20
40.688080
30
0.0
11
31.430640
21
40.935170
31
0.0
0
LINE
8
0
6
CONTINUOUS
10
34.868630
20
40.008680
30
0.0
11
33.201630
21
40.688080
31
0.0
0
LINE
8
0
6
CONTINUOUS
10
36.309630
20
38.917480
30
0.0
11
34.868630
21
40.008680
31
0.0
0
LINE
8
0
6
CONTINUOUS
10
33.159630
20
40.482180
30
0.0
11
31.430640
21
40.729280
31
0.0
0
LINE
8
0
6
CONTINUOUS
10
34.765630
20
39.823380
30
0.0
11
33.159630
21
40.482180
31
0.0
0
LINE
8
0
6
CONTINUOUS
10
36.165640
20
38.773380
30
0.0
11
34.765630
21
39.823380
31
0.0
0
LINE
8
0
6
CONTINUOUS
10
33.201650
20
27.388080
30
0.0
11
31.430650
21
27.140980
31
0.0
0
LINE
8
0
6
CONTINUOUS
10
31.430650
20
27.038080
30
0.0
11
33.221650
21
27.285180
31
0.0
0
LINE
8
0
6
CONTINUOUS
10
34.868640
20
28.067480
30
0.0
11
33.201650
21
27.388080
31
0.0
0
LINE
8
0
6
CONTINUOUS
10
33.221650
20
27.285180
30
0.0
11
34.909640
21
27.985180
31
0.0
0
LINE
8
0
6
CONTINUOUS
10
36.309630
20
29.158680
30
0.0
11
34.868640
21
28.067480
31
0.0
0
LINE
8
0
6
CONTINUOUS
10
34.909640
20
27.985180
30
0.0
11
36.371640
21
29.096890
31
0.0
0
LINE
8
0
6
CONTINUOUS
10
31.430650
20
27.140980
30
0.0
11
33.201650
21
27.388080
31
0.0
0
LINE
8
0
6
CONTINUOUS
10
33.201650
20
27.388080
30
0.0
11
34.868640
21
28.067480
31
0.0
0
LINE
8
0
6
CONTINUOUS
10
34.868640
20
28.067480
30
0.0
11
36.309630
21
29.158680
31
0.0
0
LINE
8
0
6
CONTINUOUS
10
31.430650
20
27.346880
30
0.0
11
33.159650
21
27.593980
31
0.0
0
LINE
8
0
6
CONTINUOUS
10
33.159650
20
27.593980
30
0.0
11
34.765640
21
28.252780
31
0.0
0
LINE
8
0
6
CONTINUOUS
10
34.765640
20
28.252780
30
0.0
11
36.165650
21
29.302780
31
0.0
0
LINE
8
0
6
CONTINUOUS
10
82.569370
20
4.859600
30
0.0
11
82.569370
21
10.320830
31
0.0
0
LINE
8
0
6
CONTINUOUS
10
82.569370
20
10.320830
30
0.0
11
82.569370
21
14.950630
31
0.0
0
LINE
8
0
6
CONTINUOUS
10
82.569370
20
-9.411290
30
0.0
11
82.569370
21
-8.324980
31
0.0
0
LINE
8
0
6
CONTINUOUS
10
62.569950
20
-10.760720
30
0.0
11
82.569370
21
-9.411290
31
0.0
0
LINE
8
0
6
CONTINUOUS
10
82.569370
20
19.130470
30
0.0
11
62.569950
21
20.479900
31
0.0
0
LINE
8
0
6
CONTINUOUS
10
82.569370
20
18.044170
30
0.0
11
82.569370
21
19.130470
31
0.0
0
LINE
8
0
6
CONTINUOUS
10
82.569370
20
14.950630
30
0.0
11
82.569370
21
18.044170
31
0.0
0
LINE
8
0
6
CONTINUOUS
10
82.569370
20
-8.324980
30
0.0
11
82.569370
21
-5.231440
31
0.0
0
LINE
8
0
6
CONTINUOUS
10
82.569370
20
-0.601630
30
0.0
11
82.569370
21
4.859600
31
0.0
0
LINE
8
0
6
CONTINUOUS
10
82.569370
20
-5.231440
30
0.0
11
82.569370
21
-0.601630
31
0.0
0
LINE
8
0
6
CONTINUOUS
10
62.569950
20
21.395450
30
0.0
11
62.569950
21
26.464730
31
0.0
0
LINE
8
0
6
CONTINUOUS
10
61.430670
20
26.464730
30
0.0
11
61.430670
21
21.395450
31
0.0
0
LINE
8
0
6
CONTINUOUS
10
62.569950
20
26.464730
30
0.0
11
62.569950
21
28.244820
31
0.0
0
LINE
8
0
6
CONTINUOUS
10
61.430670
20
27.452485
30
0.0
11
61.430670
21
26.464730
31
0.0
0
LINE
8
0
6
CONTINUOUS
10
62.569950
20
13.808740
30
0.0
11
62.569950
21
21.395450
31
0.0
0
LINE
8
0
6
CONTINUOUS
10
61.430670
20
21.395450
30
0.0
11
61.430670
21
13.808740
31
0.0
0
LINE
8
0
6
CONTINUOUS
10
62.569950
20
4.859610
30
0.0
11
62.569950
21
13.808740
31
0.0
0
LINE
8
0
6
CONTINUOUS
10
61.430670
20
13.808740
30
0.0
11
61.430670
21
4.859610
31
0.0
0
LINE
8
0
6
CONTINUOUS
10
62.569950
20
-11.676250
30
0.0
11
62.569950
21
-4.089530
31
0.0
0
LINE
8
0
6
CONTINUOUS
10
61.430670
20
-4.089530
30
0.0
11
61.430670
21
-11.676250
31
0.0
0
LINE
8
0
6
CONTINUOUS
10
62.569950
20
-4.089530
30
0.0
11
62.569950
21
4.859610
31
0.0
0
LINE
8
0
6
CONTINUOUS
10
61.430670
20
4.859610
30
0.0
11
61.430670
21
-4.089530
31
0.0
0
LINE
8
0
6
CONTINUOUS
10
62.569950
20
-18.525630
30
0.0
11
62.569950
21
-16.745530
31
0.0
0
LINE
8
0
6
CONTINUOUS
10
61.430670
20
-16.745530
30
0.0
11
61.430670
21
-17.733298
31
0.0
0
LINE
8
0
6
CONTINUOUS
10
62.569950
20
-16.745530
30
0.0
11
62.569950
21
-11.676250
31
0.0
0
LINE
8
0
6
CONTINUOUS
10
61.430670
20
-11.676250
30
0.0
11
61.430670
21
-16.745530
31
0.0
0
LINE
8
0
6
CONTINUOUS
10
-28.569350
20
24.347600
30
0.0
11
-33.875140
21
23.649080
31
0.0
0
LINE
8
0
6
CONTINUOUS
10
-33.875140
20
23.649080
30
0.0
11
-38.819350
21
21.601120
31
0.0
0
LINE
8
0
6
CONTINUOUS
10
-38.819350
20
21.601120
30
0.0
11
-43.065040
21
18.343280
31
0.0
0
LINE
8
0
6
CONTINUOUS
10
-43.065040
20
18.343280
30
0.0
11
-46.322870
21
14.097590
31
0.0
0
LINE
8
0
6
CONTINUOUS
10
-46.322870
20
14.097590
30
0.0
11
-48.370830
21
9.153380
31
0.0
0
LINE
8
0
6
CONTINUOUS
10
-48.370830
20
9.153380
30
0.0
11
-49.069350
21
3.847590
31
0.0
0
LINE
8
0
6
CONTINUOUS
10
-49.069350
20
3.847590
30
0.0
11
-48.370830
21
-1.458200
31
0.0
0
LINE
8
0
6
CONTINUOUS
10
-48.370830
20
-1.458200
30
0.0
11
-46.322870
21
-6.402410
31
0.0
0
LINE
8
0
6
CONTINUOUS
10
-46.322870
20
-6.402410
30
0.0
11
-43.065040
21
-10.648100
31
0.0
0
LINE
8
0
6
CONTINUOUS
10
-43.065040
20
-10.648100
30
0.0
11
-38.819360
21
-13.905930
31
0.0
0
LINE
8
0
6
CONTINUOUS
10
-38.819360
20
-13.905930
30
0.0
11
-33.875150
21
-15.953890
31
0.0
0
LINE
8
0
6
CONTINUOUS
10
-33.875150
20
-15.953890
30
0.0
11
-28.569360
21
-16.652410
31
0.0
0
LINE
8
0
6
CONTINUOUS
10
-28.569360
20
-16.652410
30
0.0
11
-23.263560
21
-15.953890
31
0.0
0
LINE
8
0
6
CONTINUOUS
10
-23.263560
20
-15.953890
30
0.0
11
-18.319350
21
-13.905940
31
0.0
0
LINE
8
0
6
CONTINUOUS
10
-18.319350
20
-13.905940
30
0.0
11
-14.073660
21
-10.648110
31
0.0
0
LINE
8
0
6
CONTINUOUS
10
-14.073660
20
-10.648110
30
0.0
11
-10.815830
21
-6.402410
31
0.0
0
LINE
8
0
6
CONTINUOUS
10
-10.815830
20
-6.402410
30
0.0
11
-8.767870
21
-1.458210
31
0.0
0
LINE
8
0
6
CONTINUOUS
10
-8.767870
20
-1.458210
30
0.0
11
-8.069340
21
3.847580
31
0.0
0
LINE
8
0
6
CONTINUOUS
10
-8.069340
20
3.847580
30
0.0
11
-8.767860
21
9.153370
31
0.0
0
LINE
8
0
6
CONTINUOUS
10
-8.767860
20
9.153370
30
0.0
11
-10.815820
21
14.097580
31
0.0
0
LINE
8
0
6
CONTINUOUS
10
-10.815820
20
14.097580
30
0.0
11
-14.073640
21
18.343280
31
0.0
0
LINE
8
0
6
CONTINUOUS
10
-14.073640
20
18.343280
30
0.0
11
-18.319330
21
21.601110
31
0.0
0
LINE
8
0
6
CONTINUOUS
10
-18.319330
20
21.601110
30
0.0
11
-23.263550
21
23.649070
31
0.0
0
LINE
8
0
6
CONTINUOUS
10
-23.263550
20
23.649070
30
0.0
11
-28.569350
21
24.347600
31
0.0
0
LINE
8
0
6
CONTINUOUS
10
-33.283130
20
21.439690
30
0.0
11
-28.569350
21
22.060280
31
0.0
0
LINE
8
0
6
CONTINUOUS
10
-37.675690
20
19.620240
30
0.0
11
-33.283130
21
21.439690
31
0.0
0
LINE
8
0
6
CONTINUOUS
10
-41.447650
20
16.725900
30
0.0
11
-37.675690
21
19.620240
31
0.0
0
LINE
8
0
6
CONTINUOUS
10
-44.342000
20
12.953930
30
0.0
11
-41.447650
21
16.725900
31
0.0
0
LINE
8
0
6
CONTINUOUS
10
-46.161450
20
8.561380
30
0.0
11
-44.342000
21
12.953930
31
0.0
0
LINE
8
0
6
CONTINUOUS
10
-46.782030
20
3.847590
30
0.0
11
-46.161450
21
8.561380
31
0.0
0
LINE
8
0
6
CONTINUOUS
10
-46.161450
20
-0.866190
30
0.0
11
-46.782030
21
3.847590
31
0.0
0
LINE
8
0
6
CONTINUOUS
10
-44.342000
20
-5.258750
30
0.0
11
-46.161450
21
-0.866190
31
0.0
0
LINE
8
0
6
CONTINUOUS
10
-41.447660
20
-9.030720
30
0.0
11
-44.342000
21
-5.258750
31
0.0
0
LINE
8
0
6
CONTINUOUS
10
-37.675690
20
-11.925050
30
0.0
11
-41.447660
21
-9.030720
31
0.0
0
LINE
8
0
6
CONTINUOUS
10
-33.283140
20
-13.744510
30
0.0
11
-37.675690
21
-11.925050
31
0.0
0
LINE
8
0
6
CONTINUOUS
10
-28.569350
20
-14.365090
30
0.0
11
-33.283140
21
-13.744510
31
0.0
0
LINE
8
0
6
CONTINUOUS
10
-23.855570
20
-13.744510
30
0.0
11
-28.569350
21
-14.365090
31
0.0
0
LINE
8
0
6
CONTINUOUS
10
-19.463010
20
-11.925060
30
0.0
11
-23.855570
21
-13.744510
31
0.0
0
LINE
8
0
6
CONTINUOUS
10
-15.691050
20
-9.030730
30
0.0
11
-19.463010
21
-11.925060
31
0.0
0
LINE
8
0
6
CONTINUOUS
10
-12.796700
20
-5.258750
30
0.0
11
-15.691050
21
-9.030730
31
0.0
0
LINE
8
0
6
CONTINUOUS
10
-10.977250
20
-0.866200
30
0.0
11
-12.796700
21
-5.258750
31
0.0
0
LINE
8
0
6
CONTINUOUS
10
-10.356660
20
3.847580
30
0.0
11
-10.977250
21
-0.866200
31
0.0
0
LINE
8
0
6
CONTINUOUS
10
-10.977240
20
8.561370
30
0.0
11
-10.356660
21
3.847580
31
0.0
0
LINE
8
0
6
CONTINUOUS
10
-12.796690
20
12.953920
30
0.0
11
-10.977240
21
8.561370
31
0.0
0
LINE
8
0
6
CONTINUOUS
10
-15.691030
20
16.725900
30
0.0
11
-12.796690
21
12.953920
31
0.0
0
LINE
8
0
6
CONTINUOUS
10
-19.462990
20
19.620230
30
0.0
11
-15.691030
21
16.725900
31
0.0
0
LINE
8
0
6
CONTINUOUS
10
-23.855550
20
21.439690
30
0.0
11
-19.462990
21
19.620230
31
0.0
0
LINE
8
0
6
CONTINUOUS
10
-28.569350
20
22.060280
30
0.0
11
-23.855550
21
21.439690
31
0.0
0
LINE
8
0
6
CONTINUOUS
10
-82.569350
20
20.827120
30
0.0
11
-82.569370
21
25.985690
31
0.0
0
LINE
8
0
6
CONTINUOUS
10
-82.569370
20
27.797140
30
0.0
11
-82.569370
21
25.985690
31
0.0
0
LINE
8
0
6
CONTINUOUS
10
-80.517250
20
27.797140
30
0.0
11
-82.569370
21
27.797140
31
0.0
0
LINE
8
0
6
CONTINUOUS
10
-80.517250
20
25.985690
30
0.0
11
-80.517250
21
27.797140
31
0.0
0
LINE
8
0
6
CONTINUOUS
10
-82.569350
20
3.999990
30
0.0
11
-82.569330
21
-5.106790
31
0.0
0
LINE
8
0
6
CONTINUOUS
10
-80.517220
20
-5.106800
30
0.0
11
-80.517230
21
3.999980
31
0.0
0
LINE
8
0
6
CONTINUOUS
10
-82.569330
20
-19.797190
30
0.0
11
-80.517220
21
-19.797190
31
0.0
0
LINE
8
0
6
CONTINUOUS
10
-82.569330
20
-17.985720
30
0.0
11
-82.569330
21
-19.797190
31
0.0
0
LINE
8
0
6
CONTINUOUS
10
-80.517220
20
-19.797190
30
0.0
11
-80.517220
21
-17.985720
31
0.0
0
LINE
8
0
6
CONTINUOUS
10
-82.569350
20
13.106760
30
0.0
11
-82.569350
21
3.999990
31
0.0
0
LINE
8
0
6
CONTINUOUS
10
-82.569350
20
20.827120
30
0.0
11
-82.569350
21
13.106760
31
0.0
0
LINE
8
0
6
CONTINUOUS
10
-80.517230
20
13.999980
30
0.0
11
-80.517230
21
20.827110
31
0.0
0
LINE
8
0
6
CONTINUOUS
10
-82.569330
20
-12.827150
30
0.0
11
-82.569330
21
-17.985720
31
0.0
0
LINE
8
0
6
CONTINUOUS
10
-80.517220
20
-17.985720
30
0.0
11
-80.517220
21
-12.827150
31
0.0
0
LINE
8
0
6
CONTINUOUS
10
-82.569330
20
-5.106790
30
0.0
11
-82.569330
21
-12.827150
31
0.0
0
LINE
8
0
6
CONTINUOUS
10
-80.517220
20
-12.827150
30
0.0
11
-80.517220
21
-5.106800
31
0.0
0
LINE
8
0
6
CONTINUOUS
10
-82.569370
20
25.985690
30
0.0
11
-82.569350
21
20.827120
31
0.0
0
LINE
8
0
6
CONTINUOUS
10
-80.517230
20
20.827110
30
0.0
11
-80.517250
21
25.985690
31
0.0
0
LINE
8
0
6
CONTINUOUS
10
-68.569358
20
18.866522
30
0.0
11
-80.517230
21
18.866510
31
0.0
0
LINE
8
0
6
CONTINUOUS
10
-80.517220
20
-10.866570
30
0.0
11
-68.569330
21
-10.866558
31
0.0
0
LINE
8
0
6
CONTINUOUS
10
-45.569332
20
-11.859381
30
0.0
11
-45.569310
21
-31.000000
31
0.0
0
LINE
8
0
6
CONTINUOUS
10
-45.569310
20
-31.000000
30
0.0
11
-44.957320
21
-31.000000
31
0.0
0
LINE
8
0
6
CONTINUOUS
10
-44.957320
20
-31.000000
30
0.0
11
-43.325320
21
-31.000000
31
0.0
0
LINE
8
0
6
CONTINUOUS
10
-43.325310
20
-31.000000
30
0.0
11
-40.605320
21
-31.000000
31
0.0
0
LINE
8
0
6
CONTINUOUS
10
-40.605320
20
-31.000000
30
0.0
11
-37.001320
21
-31.000000
31
0.0
0
LINE
8
0
6
CONTINUOUS
10
-37.001320
20
-31.000000
30
0.0
11
-32.921310
21
-30.999990
31
0.0
0
LINE
8
0
6
CONTINUOUS
10
-32.921310
20
-30.999990
30
0.0
11
-28.569310
21
-30.999990
31
0.0
0
LINE
8
0
6
CONTINUOUS
10
-12.181310
20
-30.999970
30
0.0
11
-13.813320
21
-30.999970
31
0.0
0
LINE
8
0
6
CONTINUOUS
10
-20.137310
20
-30.999980
30
0.0
11
-24.217310
21
-30.999980
31
0.0
0
LINE
8
0
6
CONTINUOUS
10
-24.217310
20
-30.999980
30
0.0
11
-28.569310
21
-30.999990
31
0.0
0
LINE
8
0
6
CONTINUOUS
10
-11.569310
20
-30.999970
30
0.0
11
-11.569326
21
-11.859351
31
0.0
0
LINE
8
0
6
CONTINUOUS
10
-12.181310
20
-30.999970
30
0.0
11
-11.569310
21
-30.999970
31
0.0
0
LINE
8
0
6
CONTINUOUS
10
-13.813320
20
-30.999970
30
0.0
11
-12.181310
21
-30.999970
31
0.0
0
LINE
8
0
6
CONTINUOUS
10
-16.533310
20
-30.999980
30
0.0
11
-13.813320
21
-30.999970
31
0.0
0
LINE
8
0
6
CONTINUOUS
10
-20.137310
20
-30.999980
30
0.0
11
-16.533310
21
-30.999980
31
0.0
0
LINE
8
0
6
CONTINUOUS
10
-24.217310
20
-30.999980
30
0.0
11
-20.137310
21
-30.999980
31
0.0
0
LINE
8
0
6
CONTINUOUS
10
-28.569310
20
-30.999990
30
0.0
11
-24.217310
21
-30.999980
31
0.0
0
LINE
8
0
6
CONTINUOUS
10
-45.569380
20
39.000000
30
0.0
11
-45.569364
21
19.859374
31
0.0
0
LINE
8
0
6
CONTINUOUS
10
-44.957370
20
39.000000
30
0.0
11
-45.569380
21
39.000000
31
0.0
0
LINE
8
0
6
CONTINUOUS
10
-43.325380
20
39.000000
30
0.0
11
-44.957370
21
39.000000
31
0.0
0
LINE
8
0
6
CONTINUOUS
10
-40.605370
20
39.000000
30
0.0
11
-43.325370
21
39.000000
31
0.0
0
LINE
8
0
6
CONTINUOUS
10
-37.001380
20
39.000010
30
0.0
11
-40.605370
21
39.000000
31
0.0
0
LINE
8
0
6
CONTINUOUS
10
-32.921380
20
39.000010
30
0.0
11
-37.001380
21
39.000010
31
0.0
0
LINE
8
0
6
CONTINUOUS
10
-28.569370
20
39.000010
30
0.0
11
-32.921380
21
39.000010
31
0.0
0
LINE
8
0
6
CONTINUOUS
10
-11.569358
20
19.859407
30
0.0
11
-11.569380
21
39.000030
31
0.0
0
LINE
8
0
6
CONTINUOUS
10
-11.569380
20
39.000030
30
0.0
11
-12.181380
21
39.000030
31
0.0
0
LINE
8
0
6
CONTINUOUS
10
-12.181380
20
39.000030
30
0.0
11
-13.813370
21
39.000030
31
0.0
0
LINE
8
0
6
CONTINUOUS
10
-13.813370
20
39.000030
30
0.0
11
-16.533380
21
39.000030
31
0.0
0
LINE
8
0
6
CONTINUOUS
10
-16.533380
20
39.000030
30
0.0
11
-20.137380
21
39.000020
31
0.0
0
LINE
8
0
6
CONTINUOUS
10
-20.137380
20
39.000020
30
0.0
11
-24.217380
21
39.000020
31
0.0
0
LINE
8
0
6
CONTINUOUS
10
-24.217380
20
39.000020
30
0.0
11
-28.569370
21
39.000010
31
0.0
0
LINE
8
0
6
CONTINUOUS
10
-21.341980
20
39.000020
30
0.0
11
-24.839070
21
39.000020
31
0.0
0
LINE
8
0
6
CONTINUOUS
10
-35.796770
20
39.000010
30
0.0
11
-37.001380
21
39.000010
31
0.0
0
LINE
8
0
6
CONTINUOUS
10
-32.299680
20
39.000010
30
0.0
11
-35.796770
21
39.000010
31
0.0
0
LINE
8
0
6
CONTINUOUS
10
-28.569370
20
39.000010
30
0.0
11
-32.299680
21
39.000010
31
0.0
0
LINE
8
0
6
CONTINUOUS
10
28.870690
20
-35.880040
30
0.0
11
31.430690
21
-36.240050
31
0.0
0
LINE
8
0
6
CONTINUOUS
10
26.470690
20
-34.920050
30
0.0
11
28.870690
21
-35.880040
31
0.0
0
LINE
8
0
6
CONTINUOUS
10
24.350690
20
-33.320050
30
0.0
11
26.470690
21
-34.920050
31
0.0
0
LINE
8
0
6
CONTINUOUS
10
22.750680
20
-31.200050
30
0.0
11
24.350690
21
-33.320050
31
0.0
0
LINE
8
0
6
CONTINUOUS
10
21.790690
20
-28.800060
30
0.0
11
22.750680
21
-31.200050
31
0.0
0
LINE
8
0
6
CONTINUOUS
10
21.430680
20
-26.240060
30
0.0
11
21.790690
21
-28.800060
31
0.0
0
LINE
8
0
6
CONTINUOUS
10
31.430690
20
-36.240050
30
0.0
11
33.990680
21
-35.880040
31
0.0
0
LINE
8
0
6
CONTINUOUS
10
33.990680
20
-35.880040
30
0.0
11
36.390680
21
-34.920040
31
0.0
0
LINE
8
0
6
CONTINUOUS
10
36.390680
20
-34.920040
30
0.0
11
38.510690
21
-33.320040
31
0.0
0
LINE
8
0
6
CONTINUOUS
10
38.510690
20
-33.320040
30
0.0
11
40.110680
21
-31.200040
31
0.0
0
LINE
8
0
6
CONTINUOUS
10
40.110680
20
-31.200040
30
0.0
11
41.070680
21
-28.800040
31
0.0
0
LINE
8
0
6
CONTINUOUS
10
41.070680
20
-28.800040
30
0.0
11
41.430680
21
-26.240040
31
0.0
0
LINE
8
0
6
CONTINUOUS
10
21.430666
20
-11.999947
30
0.0
11
21.430680
21
-26.240060
31
0.0
0
LINE
8
0
6
CONTINUOUS
10
41.430680
20
-26.240040
30
0.0
11
41.430666
21
-11.999928
31
0.0
0
LINE
8
0
6
CONTINUOUS
10
54.894690
20
-25.886530
30
0.0
11
56.430680
21
-26.102530
31
0.0
0
LINE
8
0
6
CONTINUOUS
10
53.454680
20
-25.310530
30
0.0
11
54.894690
21
-25.886530
31
0.0
0
LINE
8
0
6
CONTINUOUS
10
52.182690
20
-24.350530
30
0.0
11
53.454680
21
-25.310530
31
0.0
0
LINE
8
0
6
CONTINUOUS
10
51.222660
20
-23.078530
30
0.0
11
52.182690
21
-24.350530
31
0.0
0
LINE
8
0
6
CONTINUOUS
10
44.475699
20
-11.999926
30
0.0
11
51.222660
21
-23.078530
31
0.0
0
LINE
8
0
6
CONTINUOUS
10
56.430680
20
-26.102530
30
0.0
11
57.966690
21
-25.886520
31
0.0
0
LINE
8
0
6
CONTINUOUS
10
57.966690
20
-25.886520
30
0.0
11
59.406680
21
-25.310520
31
0.0
0
LINE
8
0
6
CONTINUOUS
10
59.406680
20
-25.310520
30
0.0
11
60.678690
21
-24.350520
31
0.0
0
LINE
8
0
6
CONTINUOUS
10
60.678690
20
-24.350520
30
0.0
11
61.638670
21
-23.078520
31
0.0
0
LINE
8
0
6
CONTINUOUS
10
61.638670
20
-23.078520
30
0.0
11
62.214680
21
-21.638520
31
0.0
0
LINE
8
0
6
CONTINUOUS
10
62.214680
20
-21.638520
30
0.0
11
62.430670
21
-20.102520
31
0.0
0
LINE
8
0
6
CONTINUOUS
10
-75.105330
20
-25.960240
30
0.0
11
-73.569320
21
-26.176240
31
0.0
0
LINE
8
0
6
CONTINUOUS
10
-76.545320
20
-25.384240
30
0.0
11
-75.105330
21
-25.960240
31
0.0
0
LINE
8
0
6
CONTINUOUS
10
-77.817320
20
-24.424240
30
0.0
11
-76.545320
21
-25.384240
31
0.0
0
LINE
8
0
6
CONTINUOUS
10
-78.777320
20
-23.152240
30
0.0
11
-77.817320
21
-24.424240
31
0.0
0
LINE
8
0
6
CONTINUOUS
10
-79.353320
20
-21.712240
30
0.0
11
-78.777320
21
-23.152240
31
0.0
0
LINE
8
0
6
CONTINUOUS
10
-79.569330
20
-20.176240
30
0.0
11
-79.353320
21
-21.712240
31
0.0
0
LINE
8
0
6
CONTINUOUS
10
-73.569320
20
-26.176240
30
0.0
11
-72.033320
21
-25.960240
31
0.0
0
LINE
8
0
6
CONTINUOUS
10
-72.033320
20
-25.960240
30
0.0
11
-60.569330
21
-20.000020
31
0.0
0
LINE
8
0
6
CONTINUOUS
10
-60.569330
20
-20.000020
30
0.0
11
-59.769320
21
-19.000020
31
0.0
0
LINE
8
0
6
CONTINUOUS
10
-59.769320
20
-19.000020
30
0.0
11
-59.769329
21
-12.000022
31
0.0
0
LINE
8
0
6
CONTINUOUS
10
-66.886666
20
-12.000028
30
0.0
11
-73.569320
21
-20.176240
31
0.0
0
LINE
8
0
6
CONTINUOUS
10
-69.215840
20
-14.923230
30
0.0
11
-66.871361
21
-12.000028
31
0.0
0
LINE
8
0
6
CONTINUOUS
10
-72.033330
20
-14.392230
30
0.0
11
-73.569330
21
-14.176240
31
0.0
0
LINE
8
0
6
CONTINUOUS
10
-70.593330
20
-14.968230
30
0.0
11
-72.033330
21
-14.392230
31
0.0
0
LINE
8
0
6
CONTINUOUS
10
-69.215840
20
-14.923230
30
0.0
11
-70.593330
21
-14.968230
31
0.0
0
LINE
8
0
6
CONTINUOUS
10
-73.569320
20
-20.176240
30
0.0
11
-69.215840
21
-14.923230
31
0.0
0
LINE
8
0
6
CONTINUOUS
10
-73.569330
20
-14.176240
30
0.0
11
-75.105330
21
-14.392240
31
0.0
0
LINE
8
0
6
CONTINUOUS
10
-75.105330
20
-14.392240
30
0.0
11
-76.545340
21
-14.968240
31
0.0
0
LINE
8
0
6
CONTINUOUS
10
-76.545340
20
-14.968240
30
0.0
11
-77.817330
21
-15.928240
31
0.0
0
LINE
8
0
6
CONTINUOUS
10
-77.817330
20
-15.928240
30
0.0
11
-78.777330
21
-17.200240
31
0.0
0
LINE
8
0
6
CONTINUOUS
10
-78.777330
20
-17.200240
30
0.0
11
-79.353330
21
-18.640240
31
0.0
0
LINE
8
0
6
CONTINUOUS
10
-79.353330
20
-18.640240
30
0.0
11
-79.569330
21
-20.176240
31
0.0
0
LINE
8
0
6
CONTINUOUS
10
-62.649310
20
-35.080020
30
0.0
11
-64.249310
21
-32.960020
31
0.0
0
LINE
8
0
6
CONTINUOUS
10
-58.129310
20
-37.640010
30
0.0
11
-55.569310
21
-38.000010
31
0.0
0
LINE
8
0
6
CONTINUOUS
10
-60.529310
20
-36.680020
30
0.0
11
-58.129310
21
-37.640010
31
0.0
0
LINE
8
0
6
CONTINUOUS
10
-62.649310
20
-35.080020
30
0.0
11
-60.529310
21
-36.680020
31
0.0
0
LINE
8
0
6
CONTINUOUS
10
-64.249310
20
-32.960020
30
0.0
11
-62.649310
21
-35.080020
31
0.0
0
LINE
8
0
6
CONTINUOUS
10
-65.209320
20
-30.560020
30
0.0
11
-64.249310
21
-32.960020
31
0.0
0
LINE
8
0
6
CONTINUOUS
10
-65.569310
20
-28.000020
30
0.0
11
-65.209320
21
-30.560020
31
0.0
0
LINE
8
0
6
CONTINUOUS
10
-55.569310
20
-38.000010
30
0.0
11
-53.009310
21
-37.640010
31
0.0
0
LINE
8
0
6
CONTINUOUS
10
-53.009310
20
-37.640010
30
0.0
11
-43.569305
21
-33.526915
31
0.0
0
LINE
8
0
6
CONTINUOUS
10
61.121680
20
-15.771320
30
0.0
11
60.930680
21
-11.999910
31
0.0
0
LINE
8
0
6
CONTINUOUS
10
60.930680
20
-11.999910
30
0.0
11
61.095680
21
-15.705920
31
0.0
0
LINE
8
0
6
CONTINUOUS
10
61.095680
20
-15.705920
30
0.0
11
61.638670
21
-17.126520
31
0.0
0
LINE
8
0
6
CONTINUOUS
10
61.095680
20
-15.705920
30
0.0
11
60.930680
21
-11.999910
31
0.0
0
LINE
8
0
6
CONTINUOUS
10
61.638670
20
-17.126520
30
0.0
11
61.095680
21
-15.705920
31
0.0
0
LINE
8
0
6
CONTINUOUS
10
62.214670
20
-18.566520
30
0.0
11
61.638670
21
-17.126520
31
0.0
0
LINE
8
0
6
CONTINUOUS
10
62.430670
20
-20.102520
30
0.0
11
62.214670
21
-18.566520
31
0.0
0
LINE
8
0
6
CONTINUOUS
10
-39.390770
20
39.605500
30
0.0
11
-39.667080
21
39.826710
31
0.0
0
LINE
8
0
6
CONTINUOUS
10
-38.885970
20
38.778770
30
0.0
11
-39.390770
21
39.605500
31
0.0
0
LINE
8
0
6
CONTINUOUS
10
-39.667080
20
39.826710
30
0.0
11
-38.885970
21
38.710033
31
0.0
0
LINE
8
0
6
CONTINUOUS
10
-53.009380
20
45.639990
30
0.0
11
-55.569390
21
45.999990
31
0.0
0
LINE
8
0
6
CONTINUOUS
10
-39.667080
20
39.826710
30
0.0
11
-53.009380
21
45.639990
31
0.0
0
LINE
8
0
6
CONTINUOUS
10
-38.885970
20
38.710033
30
0.0
11
-39.667080
21
39.826710
31
0.0
0
LINE
8
0
6
CONTINUOUS
10
-75.105370
20
22.061010
30
0.0
11
-73.569360
21
21.845010
31
0.0
0
LINE
8
0
6
CONTINUOUS
10
-76.545360
20
22.637010
30
0.0
11
-75.105370
21
22.061010
31
0.0
0
LINE
8
0
6
CONTINUOUS
10
-77.817360
20
23.597010
30
0.0
11
-76.545360
21
22.637010
31
0.0
0
LINE
8
0
6
CONTINUOUS
10
-78.777360
20
24.869010
30
0.0
11
-77.817360
21
23.597010
31
0.0
0
LINE
8
0
6
CONTINUOUS
10
-79.353370
20
26.309010
30
0.0
11
-78.777360
21
24.869010
31
0.0
0
LINE
8
0
6
CONTINUOUS
10
-79.569360
20
27.845010
30
0.0
11
-79.353370
21
26.309010
31
0.0
0
LINE
8
0
6
CONTINUOUS
10
-66.945326
20
19.999981
30
0.0
11
-69.215860
21
22.592020
31
0.0
0
LINE
8
0
6
CONTINUOUS
10
-73.569360
20
21.845010
30
0.0
11
-72.033360
21
22.061010
31
0.0
0
LINE
8
0
6
CONTINUOUS
10
-72.033360
20
22.061010
30
0.0
11
-70.593360
21
22.637010
31
0.0
0
LINE
8
0
6
CONTINUOUS
10
-70.593360
20
22.637010
30
0.0
11
-69.215860
21
22.592020
31
0.0
0
LINE
8
0
6
CONTINUOUS
10
-69.215860
20
22.592020
30
0.0
11
-66.945326
21
19.999981
31
0.0
0
LINE
8
0
6
CONTINUOUS
10
-72.033370
20
33.629010
30
0.0
11
-73.569370
21
33.845020
31
0.0
0
LINE
8
0
6
CONTINUOUS
10
-60.569370
20
27.999980
30
0.0
11
-72.033370
21
33.629010
31
0.0
0
LINE
8
0
6
CONTINUOUS
10
-59.769370
20
26.999990
30
0.0
11
-60.569370
21
27.999980
31
0.0
0
LINE
8
0
6
CONTINUOUS
10
-59.769361
20
19.999988
30
0.0
11
-59.769370
21
26.999990
31
0.0
0
LINE
8
0
6
CONTINUOUS
10
-73.569370
20
33.845020
30
0.0
11
-75.105370
21
33.629010
31
0.0
0
LINE
8
0
6
CONTINUOUS
10
-75.105370
20
33.629010
30
0.0
11
-76.545380
21
33.053010
31
0.0
0
LINE
8
0
6
CONTINUOUS
10
-76.545380
20
33.053010
30
0.0
11
-77.817370
21
32.093010
31
0.0
0
LINE
8
0
6
CONTINUOUS
10
-77.817370
20
32.093010
30
0.0
11
-78.777370
21
30.821010
31
0.0
0
LINE
8
0
6
CONTINUOUS
10
-78.777370
20
30.821010
30
0.0
11
-79.353370
21
29.381010
31
0.0
0
LINE
8
0
6
CONTINUOUS
10
-79.353370
20
29.381010
30
0.0
11
-79.569360
21
27.845010
31
0.0
0
LINE
8
0
6
CONTINUOUS
10
-55.569390
20
45.999990
30
0.0
11
-58.129380
21
45.639980
31
0.0
0
LINE
8
0
6
CONTINUOUS
10
-58.129380
20
45.639980
30
0.0
11
-60.529380
21
44.679990
31
0.0
0
LINE
8
0
6
CONTINUOUS
10
-60.529380
20
44.679990
30
0.0
11
-62.649380
21
43.079980
31
0.0
0
LINE
8
0
6
CONTINUOUS
10
-62.649380
20
43.079980
30
0.0
11
-64.249380
21
40.959980
31
0.0
0
LINE
8
0
6
CONTINUOUS
10
-64.249380
20
40.959980
30
0.0
11
-65.209380
21
38.559970
31
0.0
0
LINE
8
0
6
CONTINUOUS
10
-65.209380
20
38.559970
30
0.0
11
-65.569370
21
35.999980
31
0.0
0
LINE
8
0
6
CONTINUOUS
10
60.930650
20
20.000090
30
0.0
11
61.121650
21
23.513940
31
0.0
0
LINE
8
0
6
CONTINUOUS
10
61.095650
20
23.448530
30
0.0
11
60.930650
21
20.000100
31
0.0
0
LINE
8
0
6
CONTINUOUS
10
61.638640
20
24.869140
30
0.0
11
61.095650
21
23.448530
31
0.0
0
LINE
8
0
6
CONTINUOUS
10
60.930650
20
20.000090
30
0.0
11
61.095650
21
23.448530
31
0.0
0
LINE
8
0
6
CONTINUOUS
10
61.095650
20
23.448530
30
0.0
11
61.638640
21
24.869140
31
0.0
0
LINE
8
0
6
CONTINUOUS
10
62.375413
20
27.452485
30
0.0
11
62.430630
21
27.845140
31
0.0
0
LINE
8
0
6
CONTINUOUS
10
56.430630
20
33.845130
30
0.0
11
54.894640
21
33.629130
31
0.0
0
LINE
8
0
6
CONTINUOUS
10
54.894640
20
33.629130
30
0.0
11
53.454630
21
33.053120
31
0.0
0
LINE
8
0
6
CONTINUOUS
10
53.454630
20
33.053120
30
0.0
11
52.182640
21
32.093130
31
0.0
0
LINE
8
0
6
CONTINUOUS
10
52.182640
20
32.093130
30
0.0
11
51.222630
21
30.821120
31
0.0
0
LINE
8
0
6
CONTINUOUS
10
51.222630
20
30.821120
30
0.0
11
44.525253
21
20.000084
31
0.0
0
LINE
8
0
6
CONTINUOUS
10
31.430620
20
44.038080
30
0.0
11
28.870610
21
43.678080
31
0.0
0
LINE
8
0
6
CONTINUOUS
10
28.870610
20
43.678080
30
0.0
11
26.470610
21
42.718080
31
0.0
0
LINE
8
0
6
CONTINUOUS
10
26.470610
20
42.718080
30
0.0
11
24.350610
21
41.118070
31
0.0
0
LINE
8
0
6
CONTINUOUS
10
24.350610
20
41.118070
30
0.0
11
22.750620
21
38.998070
31
0.0
0
LINE
8
0
6
CONTINUOUS
10
22.750620
20
38.998070
30
0.0
11
21.790630
21
36.598060
31
0.0
0
LINE
8
0
6
CONTINUOUS
10
21.790630
20
36.598060
30
0.0
11
21.430620
21
34.038070
31
0.0
0
LINE
8
0
6
CONTINUOUS
10
33.990600
20
43.678080
30
0.0
11
31.430620
21
44.038080
31
0.0
0
LINE
8
0
6
CONTINUOUS
10
36.390610
20
42.718080
30
0.0
11
33.990600
21
43.678080
31
0.0
0
LINE
8
0
6
CONTINUOUS
10
38.510620
20
41.118090
30
0.0
11
36.390610
21
42.718080
31
0.0
0
LINE
8
0
6
CONTINUOUS
10
40.110620
20
38.998090
30
0.0
11
38.510620
21
41.118090
31
0.0
0
LINE
8
0
6
CONTINUOUS
10
41.070620
20
36.598080
30
0.0
11
40.110620
21
38.998090
31
0.0
0
LINE
8
0
6
CONTINUOUS
10
41.430620
20
34.038090
30
0.0
11
41.070620
21
36.598080
31
0.0
0
LINE
8
0
6
CONTINUOUS
10
41.430634
20
20.000082
30
0.0
11
41.430620
21
34.038090
31
0.0
0
LINE
8
0
6
CONTINUOUS
10
21.430620
20
34.038070
30
0.0
11
21.430634
21
20.000063
31
0.0
0
LINE
8
0
6
CONTINUOUS
10
57.966640
20
33.629130
30
0.0
11
56.430630
21
33.845130
31
0.0
0
LINE
8
0
6
CONTINUOUS
10
59.406630
20
33.053130
30
0.0
11
57.966640
21
33.629130
31
0.0
0
LINE
8
0
6
CONTINUOUS
10
60.678640
20
32.093130
30
0.0
11
59.406630
21
33.053130
31
0.0
0
LINE
8
0
6
CONTINUOUS
10
61.638630
20
30.821130
30
0.0
11
60.678640
21
32.093130
31
0.0
0
LINE
8
0
6
CONTINUOUS
10
62.214630
20
29.381140
30
0.0
11
61.638630
21
30.821130
31
0.0
0
LINE
8
0
6
CONTINUOUS
10
62.430630
20
27.845140
30
0.0
11
62.214630
21
29.381140
31
0.0
0
LINE
8
0
6
CONTINUOUS
10
36.930650
20
4.000070
30
0.0
11
36.930660
21
-5.999920
31
0.0
0
LINE
8
0
6
CONTINUOUS
10
50.930640
20
4.000090
30
0.0
11
36.930650
21
4.000070
31
0.0
0
LINE
8
0
6
CONTINUOUS
10
50.930650
20
-5.999910
30
0.0
11
50.930640
21
4.000090
31
0.0
0
LINE
8
0
6
CONTINUOUS
10
36.930660
20
-5.999920
30
0.0
11
50.930650
21
-5.999910
31
0.0
0
LINE
8
0
6
CONTINUOUS
10
50.930640
20
4.000090
30
0.0
11
50.930650
21
-5.999910
31
0.0
0
LINE
8
0
6
CONTINUOUS
10
60.930660
20
4.000100
30
0.0
11
50.930640
21
4.000090
31
0.0
0
LINE
8
0
6
CONTINUOUS
10
60.930670
20
-5.999900
30
0.0
11
60.930660
21
4.000100
31
0.0
0
LINE
8
0
6
CONTINUOUS
10
50.930650
20
-5.999910
30
0.0
11
60.930670
21
-5.999900
31
0.0
0
LINE
8
0
6
CONTINUOUS
10
-80.569350
20
13.999980
30
0.0
11
-80.569340
21
3.999980
31
0.0
0
LINE
8
0
6
CONTINUOUS
10
-56.569340
20
14.000000
30
0.0
11
-80.569350
21
13.999980
31
0.0
0
LINE
8
0
6
CONTINUOUS
10
-56.569340
20
4.000000
30
0.0
11
-56.569340
21
14.000000
31
0.0
0
LINE
8
0
6
CONTINUOUS
10
-80.569340
20
3.999980
30
0.0
11
-56.569340
21
4.000000
31
0.0
0
LINE
8
0
6
CONTINUOUS
10
-56.569340
20
14.000000
30
0.0
11
-56.569340
21
4.000000
31
0.0
0
LINE
8
0
6
CONTINUOUS
10
-46.569350
20
14.000010
30
0.0
11
-56.569340
21
14.000000
31
0.0
0
LINE
8
0
6
CONTINUOUS
10
-46.569350
20
13.502536
30
0.0
11
-46.569350
21
14.000010
31
0.0
0
LINE
8
0
6
CONTINUOUS
10
-56.569340
20
4.000000
30
0.0
11
-49.049284
21
4.000008
31
0.0
0
LINE
8
0
6
CONTINUOUS
10
-68.569330
20
-12.000030
30
0.0
11
-45.569332
21
-12.000009
31
0.0
0
LINE
8
0
6
CONTINUOUS
10
-11.569326
20
-11.999977
30
0.0
11
44.475699
21
-11.999926
31
0.0
0
LINE
8
0
6
CONTINUOUS
10
60.930680
20
-11.999910
30
0.0
11
61.430670
21
-11.999910
31
0.0
0
LINE
8
0
6
CONTINUOUS
10
-68.569330
20
-11.424030
30
0.0
11
-68.569330
21
-12.000030
31
0.0
0
LINE
8
0
6
CONTINUOUS
10
-68.569330
20
-9.888020
30
0.0
11
-68.569330
21
-11.424030
31
0.0
0
LINE
8
0
6
CONTINUOUS
10
-68.569340
20
-7.328020
30
0.0
11
-68.569330
21
-9.888020
31
0.0
0
LINE
8
0
6
CONTINUOUS
10
-68.569340
20
-3.936020
30
0.0
11
-68.569340
21
-7.328020
31
0.0
0
LINE
8
0
6
CONTINUOUS
10
-68.569340
20
-0.096020
30
0.0
11
-68.569340
21
-3.936020
31
0.0
0
LINE
8
0
6
CONTINUOUS
10
-68.569350
20
3.999980
30
0.0
11
-68.569340
21
-0.096020
31
0.0
0
LINE
8
0
6
CONTINUOUS
10
-68.569350
20
15.327970
30
0.0
11
-68.569360
21
17.887970
31
0.0
0
LINE
8
0
6
CONTINUOUS
10
61.430640
20
20.000100
30
0.0
11
60.930651
21
20.000100
31
0.0
0
LINE
8
0
6
CONTINUOUS
10
44.525253
20
20.000084
30
0.0
11
-11.569358
21
20.000033
31
0.0
0
LINE
8
0
6
CONTINUOUS
10
-45.569364
20
20.000001
30
0.0
11
-68.569360
21
19.999980
31
0.0
0
LINE
8
0
6
CONTINUOUS
10
-68.569360
20
19.999980
30
0.0
11
-68.569360
21
19.423980
31
0.0
0
LINE
8
0
6
CONTINUOUS
10
-68.569360
20
19.423980
30
0.0
11
-68.569360
21
17.887970
31
0.0
0
LINE
8
0
6
CONTINUOUS
10
-68.569360
20
17.887970
30
0.0
11
-68.569350
21
15.327970
31
0.0
0
LINE
8
0
6
CONTINUOUS
10
-68.569350
20
15.327970
30
0.0
11
-68.569350
21
13.999990
31
0.0
0
LINE
8
0
6
CONTINUOUS
10
-43.569300
20
-36.000000
30
0.0
11
-43.029310
21
-36.000000
31
0.0
0
LINE
8
0
6
CONTINUOUS
10
-43.569310
20
-31.000000
30
0.0
11
-43.569300
21
-36.000000
31
0.0
0
LINE
8
0
6
CONTINUOUS
10
-43.029310
20
-36.000000
30
0.0
11
-41.589310
21
-36.000000
31
0.0
0
LINE
8
0
6
CONTINUOUS
10
-41.589310
20
-36.000000
30
0.0
11
-39.189310
21
-36.000000
31
0.0
0
LINE
8
0
6
CONTINUOUS
10
-39.189310
20
-36.000000
30
0.0
11
-36.009300
21
-35.999990
31
0.0
0
LINE
8
0
6
CONTINUOUS
10
-36.009300
20
-35.999990
30
0.0
11
-32.409310
21
-35.999990
31
0.0
0
LINE
8
0
6
CONTINUOUS
10
-32.409310
20
-35.999990
30
0.0
11
-28.569310
21
-35.999990
31
0.0
0
LINE
8
0
6
CONTINUOUS
10
-36.009300
20
-35.999990
30
0.0
11
-39.189310
21
-36.000000
31
0.0
0
LINE
8
0
6
CONTINUOUS
10
-14.109310
20
-35.999970
30
0.0
11
-13.569300
21
-35.999970
31
0.0
0
LINE
8
0
6
CONTINUOUS
10
-13.569300
20
-35.999970
30
0.0
11
-13.569310
21
-30.999976
31
0.0
0
LINE
8
0
6
CONTINUOUS
10
-15.549310
20
-35.999970
30
0.0
11
-14.109310
21
-35.999970
31
0.0
0
LINE
8
0
6
CONTINUOUS
10
-17.949310
20
-35.999980
30
0.0
11
-15.549310
21
-35.999970
31
0.0
0
LINE
8
0
6
CONTINUOUS
10
-21.129300
20
-35.999980
30
0.0
11
-17.949310
21
-35.999980
31
0.0
0
LINE
8
0
6
CONTINUOUS
10
-24.729310
20
-35.999980
30
0.0
11
-21.129300
21
-35.999980
31
0.0
0
LINE
8
0
6
CONTINUOUS
10
-28.569310
20
-35.999990
30
0.0
11
-24.729310
21
-35.999980
31
0.0
0
LINE
8
0
6
CONTINUOUS
10
-34.569300
20
-45.999990
30
0.0
11
-22.569300
21
-45.999980
31
0.0
0
LINE
8
0
6
CONTINUOUS
10
-34.569310
20
-35.999990
30
0.0
11
-34.569300
21
-45.999990
31
0.0
0
LINE
8
0
6
CONTINUOUS
10
-22.569300
20
-45.999980
30
0.0
11
-22.569310
21
-35.999984
31
0.0
0
LINE
8
0
6
CONTINUOUS
10
-65.569370
20
35.999980
30
0.0
11
-65.569365
21
30.455067
31
0.0
0
LINE
8
0
6
CONTINUOUS
10
-65.569315
20
-22.599552
30
0.0
11
-65.569310
21
-28.000020
31
0.0
0
LINE
8
0
6
CONTINUOUS
10
-13.214962
20
17.888021
30
0.0
11
-12.181357
21
18.921631
31
0.0
0
LINE
8
0
6
CONTINUOUS
10
-12.181357
20
18.921631
30
0.0
11
-12.004734
21
19.424032
31
0.0
0
LINE
8
0
6
CONTINUOUS
10
-12.004734
20
19.424032
30
0.0
11
-11.569358
21
19.859407
31
0.0
0
LINE
8
0
6
CONTINUOUS
10
-12.004703
20
-11.423978
30
0.0
11
-11.569326
21
-11.859351
31
0.0
0
ENDSEC
0
EOF
