999
Erzeugt mit innoplus bad 
0
SECTION
2
HEADER
9
$ACADVER
1
AC1009
9
$DWGCODEPAGE
3
ISO8859-1
0
ENDSEC
0
SECTION
2
TABLES
0
TABLE
2
LAYER
70
1
0
LAYER
2
0
70
0
62
7
6
CONTINUOUS
0
ENDTAB
0
ENDSEC
0
SECTION
2
ENTITIES
0
LINE
8
0
6
CONTINUOUS
10
-58.489830
20
-7.998440
30
0.0
11
-59.976820
21
-7.998440
31
0.0
0
LINE
8
0
6
CONTINUOUS
10
58.489750
20
-7.998440
30
0.0
11
-58.489830
21
-7.998440
31
0.0
0
LINE
8
0
6
CONTINUOUS
10
59.976740
20
-7.998440
30
0.0
11
58.489750
21
-7.998440
31
0.0
0
LINE
8
0
6
CONTINUOUS
10
42.098050
20
-17.001570
30
0.0
11
46.574800
21
-16.945170
31
0.0
0
LINE
8
0
6
CONTINUOUS
10
46.574800
20
-16.945170
30
0.0
11
50.765950
21
-16.779580
31
0.0
0
LINE
8
0
6
CONTINUOUS
10
50.765950
20
-16.779580
30
0.0
11
54.402410
21
-16.513090
31
0.0
0
LINE
8
0
6
CONTINUOUS
10
54.402410
20
-16.513090
30
0.0
11
57.254770
21
-16.194560
31
0.0
0
LINE
8
0
6
CONTINUOUS
10
57.254770
20
-16.194560
30
0.0
11
59.143840
21
-15.859340
31
0.0
0
LINE
8
0
6
CONTINUOUS
10
59.143840
20
-15.859340
30
0.0
11
59.924920
21
-15.535340
31
0.0
0
LINE
8
0
6
CONTINUOUS
10
59.999990
20
-15.376230
30
0.0
11
59.996960
21
-14.671530
31
0.0
0
LINE
8
0
6
CONTINUOUS
10
59.924920
20
-15.535340
30
0.0
11
59.999990
21
-15.376230
31
0.0
0
LINE
8
0
6
CONTINUOUS
10
-59.999990
20
-15.376230
30
0.0
11
-59.924910
21
-15.535350
31
0.0
0
LINE
8
0
6
CONTINUOUS
10
-59.996960
20
-14.671520
30
0.0
11
-59.999990
21
-15.376230
31
0.0
0
LINE
8
0
6
CONTINUOUS
10
-59.924910
20
-15.535350
30
0.0
11
-59.143840
21
-15.859340
31
0.0
0
LINE
8
0
6
CONTINUOUS
10
-59.143840
20
-15.859340
30
0.0
11
-57.254760
21
-16.194560
31
0.0
0
LINE
8
0
6
CONTINUOUS
10
-57.254760
20
-16.194560
30
0.0
11
-54.402410
21
-16.513090
31
0.0
0
LINE
8
0
6
CONTINUOUS
10
-54.402410
20
-16.513090
30
0.0
11
-50.765950
21
-16.779580
31
0.0
0
LINE
8
0
6
CONTINUOUS
10
-50.765950
20
-16.779580
30
0.0
11
-46.574790
21
-16.945170
31
0.0
0
LINE
8
0
6
CONTINUOUS
10
-46.574790
20
-16.945170
30
0.0
11
-42.098040
21
-17.001570
31
0.0
0
LINE
8
0
6
CONTINUOUS
10
59.984770
20
-8.813400
30
0.0
11
59.985550
21
-8.182780
31
0.0
0
LINE
8
0
6
CONTINUOUS
10
59.611390
20
-7.998440
30
0.0
11
-59.611390
21
-7.998440
31
0.0
0
LINE
8
0
6
CONTINUOUS
10
-59.985550
20
-8.182860
30
0.0
11
-59.984760
21
-8.813480
31
0.0
0
LINE
8
0
6
CONTINUOUS
10
-42.098040
20
-17.001570
30
0.0
11
42.098050
21
-17.001570
31
0.0
0
LINE
8
0
6
CONTINUOUS
10
-59.984760
20
-8.813480
30
0.0
11
-59.996960
21
-14.671520
31
0.0
0
LINE
8
0
6
CONTINUOUS
10
59.996960
20
-14.671530
30
0.0
11
59.972430
21
-8.963680
31
0.0
0
LINE
8
0
6
CONTINUOUS
10
42.098050
20
-13.886200
30
0.0
11
46.617070
21
-13.707890
31
0.0
0
LINE
8
0
6
CONTINUOUS
10
46.617070
20
-13.707890
30
0.0
11
50.815500
21
-13.121100
31
0.0
0
LINE
8
0
6
CONTINUOUS
10
50.815500
20
-13.121100
30
0.0
11
54.417540
21
-12.213600
31
0.0
0
LINE
8
0
6
CONTINUOUS
10
54.417540
20
-12.213600
30
0.0
11
57.236160
21
-11.047740
31
0.0
0
LINE
8
0
6
CONTINUOUS
10
57.236160
20
-11.047740
30
0.0
11
58.866720
21
-9.834910
31
0.0
0
LINE
8
0
6
CONTINUOUS
10
58.866720
20
-9.834910
30
0.0
11
59.723460
21
-8.767820
31
0.0
0
LINE
8
0
6
CONTINUOUS
10
59.723460
20
-8.767820
30
0.0
11
59.969720
21
-8.333150
31
0.0
0
LINE
8
0
6
CONTINUOUS
10
-59.969710
20
-8.332730
30
0.0
11
-59.723490
21
-8.766340
31
0.0
0
LINE
8
0
6
CONTINUOUS
10
-59.723490
20
-8.766340
30
0.0
11
-58.866820
21
-9.833680
31
0.0
0
LINE
8
0
6
CONTINUOUS
10
-58.866820
20
-9.833680
30
0.0
11
-57.236610
21
-11.047610
31
0.0
0
LINE
8
0
6
CONTINUOUS
10
-57.236610
20
-11.047610
30
0.0
11
-54.418200
21
-12.213380
31
0.0
0
LINE
8
0
6
CONTINUOUS
10
-54.418200
20
-12.213380
30
0.0
11
-50.816510
21
-13.122070
31
0.0
0
LINE
8
0
6
CONTINUOUS
10
-50.816510
20
-13.122070
30
0.0
11
-46.616560
21
-13.692590
31
0.0
0
LINE
8
0
6
CONTINUOUS
10
-46.616560
20
-13.692590
30
0.0
11
-42.098040
21
-13.886200
31
0.0
0
LINE
8
0
6
CONTINUOUS
10
-59.976740
20
-8.098270
30
0.0
11
-59.985550
21
-8.182860
31
0.0
0
LINE
8
0
6
CONTINUOUS
10
59.985550
20
-8.182780
30
0.0
11
59.976740
21
-8.098270
31
0.0
0
LINE
8
0
6
CONTINUOUS
10
-42.098040
20
-13.886200
30
0.0
11
42.098050
21
-13.886200
31
0.0
0
LINE
8
0
6
CONTINUOUS
10
59.969720
20
-8.333150
30
0.0
11
59.985550
21
-8.182780
31
0.0
0
LINE
8
0
6
CONTINUOUS
10
-59.985550
20
-8.182860
30
0.0
11
-59.969710
21
-8.332730
31
0.0
0
LINE
8
0
6
CONTINUOUS
10
-59.976730
20
-7.998440
30
0.0
11
-59.976740
21
-8.098270
31
0.0
0
LINE
8
0
6
CONTINUOUS
10
-59.611390
20
-7.998440
30
0.0
11
-59.976730
21
-7.998440
31
0.0
0
LINE
8
0
6
CONTINUOUS
10
59.976740
20
-7.998440
30
0.0
11
59.611390
21
-7.998440
31
0.0
0
LINE
8
0
6
CONTINUOUS
10
59.976740
20
-8.098270
30
0.0
11
59.976740
21
-7.998440
31
0.0
0
LINE
8
0
6
CONTINUOUS
10
-49.966030
20
-7.511520
30
0.0
11
-46.914110
21
-7.511520
31
0.0
0
LINE
8
0
6
CONTINUOUS
10
-41.987450
20
-7.511520
30
0.0
11
41.987460
21
-7.511520
31
0.0
0
LINE
8
0
6
CONTINUOUS
10
-52.217760
20
-7.511520
30
0.0
11
-49.966030
21
-7.511520
31
0.0
0
LINE
8
0
6
CONTINUOUS
10
46.914150
20
-7.511520
30
0.0
11
49.965910
21
-7.511520
31
0.0
0
LINE
8
0
6
CONTINUOUS
10
-53.342150
20
-7.511520
30
0.0
11
-52.217760
21
-7.511520
31
0.0
0
LINE
8
0
6
CONTINUOUS
10
-53.944600
20
15.502070
30
0.0
11
-53.342150
21
-7.511520
31
0.0
0
LINE
8
0
6
CONTINUOUS
10
-52.217760
20
-7.511520
30
0.0
11
-52.760480
21
15.502070
31
0.0
0
LINE
8
0
6
CONTINUOUS
10
49.965910
20
-7.511520
30
0.0
11
52.217700
21
-7.511520
31
0.0
0
LINE
8
0
6
CONTINUOUS
10
53.342080
20
-7.511520
30
0.0
11
53.944600
21
15.502070
31
0.0
0
LINE
8
0
6
CONTINUOUS
10
52.217700
20
-7.511520
30
0.0
11
53.342080
21
-7.511520
31
0.0
0
LINE
8
0
6
CONTINUOUS
10
52.760490
20
15.502070
30
0.0
11
52.217700
21
-7.511520
31
0.0
0
LINE
8
0
6
CONTINUOUS
10
-46.914110
20
-7.511520
30
0.0
11
-41.987450
21
-7.511520
31
0.0
0
LINE
8
0
6
CONTINUOUS
10
-47.175550
20
15.502070
30
0.0
11
-46.914110
21
-7.511520
31
0.0
0
LINE
8
0
6
CONTINUOUS
10
41.987460
20
-7.511520
30
0.0
11
46.914150
21
-7.511520
31
0.0
0
LINE
8
0
6
CONTINUOUS
10
46.914150
20
-7.511520
30
0.0
11
47.175560
21
15.502070
31
0.0
0
LINE
8
0
6
CONTINUOUS
10
47.192590
20
17.001570
30
0.0
11
41.986890
21
17.001570
31
0.0
0
LINE
8
0
6
CONTINUOUS
10
-47.192580
20
17.001570
30
0.0
11
-50.416790
21
17.001570
31
0.0
0
LINE
8
0
6
CONTINUOUS
10
-53.983860
20
17.001570
30
0.0
11
-53.944600
21
15.502070
31
0.0
0
LINE
8
0
6
CONTINUOUS
10
-52.795840
20
17.001570
30
0.0
11
-53.983860
21
17.001570
31
0.0
0
LINE
8
0
6
CONTINUOUS
10
-47.192580
20
17.001570
30
0.0
11
-47.175550
21
15.502070
31
0.0
0
LINE
8
0
6
CONTINUOUS
10
-41.987450
20
17.001570
30
0.0
11
-47.192580
21
17.001570
31
0.0
0
LINE
8
0
6
CONTINUOUS
10
52.795860
20
17.001570
30
0.0
11
50.416520
21
17.001570
31
0.0
0
LINE
8
0
6
CONTINUOUS
10
53.944600
20
15.502070
30
0.0
11
53.983860
21
17.001570
31
0.0
0
LINE
8
0
6
CONTINUOUS
10
52.795860
20
17.001570
30
0.0
11
52.760490
21
15.502070
31
0.0
0
LINE
8
0
6
CONTINUOUS
10
53.983860
20
17.001570
30
0.0
11
52.795860
21
17.001570
31
0.0
0
LINE
8
0
6
CONTINUOUS
10
41.986890
20
17.001570
30
0.0
11
-41.987450
21
17.001570
31
0.0
0
LINE
8
0
6
CONTINUOUS
10
47.192590
20
17.001570
30
0.0
11
47.175560
21
15.502070
31
0.0
0
LINE
8
0
6
CONTINUOUS
10
50.416520
20
17.001570
30
0.0
11
47.192590
21
17.001570
31
0.0
0
LINE
8
0
6
CONTINUOUS
10
-52.795840
20
17.001570
30
0.0
11
-52.760480
21
15.502070
31
0.0
0
LINE
8
0
6
CONTINUOUS
10
-50.416790
20
17.001570
30
0.0
11
-52.795840
21
17.001570
31
0.0
0
ENDSEC
0
EOF
