999
Erzeugt mit innoplus bad 
0
SECTION
2
HEADER
9
$ACADVER
1
AC1009
9
$DWGCODEPAGE
3
ISO8859-1
0
ENDSEC
0
SECTION
2
TABLES
0
TABLE
2
LAYER
70
1
0
LAYER
2
0
70
0
62
7
6
CONTINUOUS
0
ENDTAB
0
ENDSEC
0
SECTION
2
ENTITIES
0
LINE
8
0
6
CONTINUOUS
10
59.106640
20
-47.457475
30
0.0
11
59.976740
21
-41.962105
31
0.0
0
LINE
8
0
6
CONTINUOUS
10
56.581560
20
-52.414905
30
0.0
11
59.106640
21
-47.457475
31
0.0
0
LINE
8
0
6
CONTINUOUS
10
52.648640
20
-56.349155
30
0.0
11
56.581560
21
-52.414905
31
0.0
0
LINE
8
0
6
CONTINUOUS
10
47.692880
20
-58.875095
30
0.0
11
52.648640
21
-56.349155
31
0.0
0
LINE
8
0
6
CONTINUOUS
10
42.199380
20
-59.745455
30
0.0
11
47.692880
21
-58.875095
31
0.0
0
LINE
8
0
6
CONTINUOUS
10
-47.692960
20
-58.875095
30
0.0
11
-42.199450
21
-59.745455
31
0.0
0
LINE
8
0
6
CONTINUOUS
10
-52.648720
20
-56.349155
30
0.0
11
-47.692960
21
-58.875095
31
0.0
0
LINE
8
0
6
CONTINUOUS
10
-56.581640
20
-52.414905
30
0.0
11
-52.648720
21
-56.349155
31
0.0
0
LINE
8
0
6
CONTINUOUS
10
-59.106730
20
-47.457475
30
0.0
11
-56.581640
21
-52.414905
31
0.0
0
LINE
8
0
6
CONTINUOUS
10
-59.976820
20
-41.962105
30
0.0
11
-59.106730
21
-47.457475
31
0.0
0
LINE
8
0
6
CONTINUOUS
10
-42.199450
20
-59.745455
30
0.0
11
42.199380
21
-59.745455
31
0.0
0
LINE
8
0
6
CONTINUOUS
10
59.976740
20
-41.962105
30
0.0
11
59.976740
21
-16.661795
31
0.0
0
LINE
8
0
6
CONTINUOUS
10
59.976740
20
-15.756095
30
0.0
11
58.489750
21
-15.756095
31
0.0
0
LINE
8
0
6
CONTINUOUS
10
58.489750
20
-15.756095
30
0.0
11
-58.489830
21
-15.756095
31
0.0
0
LINE
8
0
6
CONTINUOUS
10
-58.489830
20
-15.756095
30
0.0
11
-59.976820
21
-15.756095
31
0.0
0
LINE
8
0
6
CONTINUOUS
10
-59.976820
20
-15.756105
30
0.0
11
-59.976820
21
-16.661795
31
0.0
0
LINE
8
0
6
CONTINUOUS
10
-58.489830
20
-15.756105
30
0.0
11
-59.976820
21
-15.756105
31
0.0
0
LINE
8
0
6
CONTINUOUS
10
58.489750
20
-15.756105
30
0.0
11
-58.489830
21
-15.756105
31
0.0
0
LINE
8
0
6
CONTINUOUS
10
-59.976820
20
-16.661795
30
0.0
11
-59.976820
21
-41.962105
31
0.0
0
LINE
8
0
6
CONTINUOUS
10
59.976740
20
-15.756105
30
0.0
11
58.489750
21
-15.756105
31
0.0
0
LINE
8
0
6
CONTINUOUS
10
59.976740
20
-16.661795
30
0.0
11
59.976740
21
-15.756105
31
0.0
0
LINE
8
0
6
CONTINUOUS
10
-6.213220
20
48.237535
30
0.0
11
-7.153130
21
47.191745
31
0.0
0
LINE
8
0
6
CONTINUOUS
10
8.474560
20
38.712785
30
0.0
11
8.843820
21
40.068805
31
0.0
0
LINE
8
0
6
CONTINUOUS
10
-2.587830
20
50.337795
30
0.0
11
-3.901660
21
49.830185
31
0.0
0
LINE
8
0
6
CONTINUOUS
10
8.146770
20
45.559385
30
0.0
11
7.449710
21
46.780295
31
0.0
0
LINE
8
0
6
CONTINUOUS
10
-7.153130
20
47.191745
30
0.0
11
-7.917920
21
46.012465
31
0.0
0
LINE
8
0
6
CONTINUOUS
10
8.644590
20
44.245235
30
0.0
11
8.146770
21
45.559385
31
0.0
0
LINE
8
0
6
CONTINUOUS
10
-8.632510
20
39.193825
30
0.0
11
-8.128260
21
37.879445
31
0.0
0
LINE
8
0
6
CONTINUOUS
10
8.997240
20
41.465495
30
0.0
11
8.930200
21
42.869395
31
0.0
0
LINE
8
0
6
CONTINUOUS
10
-5.494230
20
34.622365
30
0.0
11
-4.315500
21
33.853625
31
0.0
0
LINE
8
0
6
CONTINUOUS
10
0.195570
20
50.714265
30
0.0
11
-1.211510
21
50.634765
31
0.0
0
LINE
8
0
6
CONTINUOUS
10
-8.489760
20
44.728445
30
0.0
11
-8.852050
21
43.370755
31
0.0
0
LINE
8
0
6
CONTINUOUS
10
7.897840
20
37.430335
30
0.0
11
8.474560
21
38.712785
31
0.0
0
LINE
8
0
6
CONTINUOUS
10
6.183340
20
35.210245
30
0.0
11
7.127140
21
36.253015
31
0.0
0
LINE
8
0
6
CONTINUOUS
10
-2.998630
20
33.266015
30
0.0
11
-1.636550
21
32.902425
31
0.0
0
LINE
8
0
6
CONTINUOUS
10
-0.235290
20
32.755495
30
0.0
11
1.171870
21
32.829095
31
0.0
0
LINE
8
0
6
CONTINUOUS
10
7.449710
20
46.780295
30
0.0
11
6.570530
21
47.877445
31
0.0
0
LINE
8
0
6
CONTINUOUS
10
7.127140
20
36.253015
30
0.0
11
7.897840
21
37.430335
31
0.0
0
LINE
8
0
6
CONTINUOUS
10
-7.917920
20
46.012465
30
0.0
11
-8.489760
21
44.728445
31
0.0
0
LINE
8
0
6
CONTINUOUS
10
-1.211510
20
50.634765
30
0.0
11
-2.587830
21
50.337795
31
0.0
0
LINE
8
0
6
CONTINUOUS
10
-7.424040
20
36.660235
30
0.0
11
-6.539500
21
35.564945
31
0.0
0
LINE
8
0
6
CONTINUOUS
10
-8.925420
20
40.568865
30
0.0
11
-8.632510
21
39.193825
31
0.0
0
LINE
8
0
6
CONTINUOUS
10
-8.128260
20
37.879445
30
0.0
11
-7.424040
21
36.660235
31
0.0
0
LINE
8
0
6
CONTINUOUS
10
1.171870
20
32.829095
30
0.0
11
2.549970
21
33.120985
31
0.0
0
LINE
8
0
6
CONTINUOUS
10
-3.901660
20
49.830185
30
0.0
11
-5.119600
21
49.124475
31
0.0
0
LINE
8
0
6
CONTINUOUS
10
8.843820
20
40.068805
30
0.0
11
8.997240
21
41.465495
31
0.0
0
LINE
8
0
6
CONTINUOUS
10
6.570530
20
47.877445
30
0.0
11
5.529120
21
48.824085
31
0.0
0
LINE
8
0
6
CONTINUOUS
10
-4.315500
20
33.853625
30
0.0
11
-2.998630
21
33.266015
31
0.0
0
LINE
8
0
6
CONTINUOUS
10
1.622250
20
50.569595
30
0.0
11
0.195570
21
50.714265
31
0.0
0
LINE
8
0
6
CONTINUOUS
10
5.087600
20
34.326905
30
0.0
11
6.183340
21
35.210245
31
0.0
0
LINE
8
0
6
CONTINUOUS
10
-8.852050
20
43.370755
30
0.0
11
-8.998530
21
41.972985
31
0.0
0
LINE
8
0
6
CONTINUOUS
10
-8.998530
20
41.972985
30
0.0
11
-8.925420
21
40.568865
31
0.0
0
LINE
8
0
6
CONTINUOUS
10
-6.539500
20
35.564945
30
0.0
11
-5.494230
21
34.622365
31
0.0
0
LINE
8
0
6
CONTINUOUS
10
8.930200
20
42.869395
30
0.0
11
8.644590
21
44.245235
31
0.0
0
LINE
8
0
6
CONTINUOUS
10
-1.636550
20
32.902425
30
0.0
11
-0.235290
21
32.755495
31
0.0
0
LINE
8
0
6
CONTINUOUS
10
4.314840
20
49.618505
30
0.0
11
3.006980
21
50.201185
31
0.0
0
LINE
8
0
6
CONTINUOUS
10
2.549970
20
33.120985
30
0.0
11
3.866210
21
33.624285
31
0.0
0
LINE
8
0
6
CONTINUOUS
10
3.866210
20
33.624285
30
0.0
11
5.087600
21
34.326905
31
0.0
0
LINE
8
0
6
CONTINUOUS
10
3.006980
20
50.201185
30
0.0
11
1.622250
21
50.569595
31
0.0
0
LINE
8
0
6
CONTINUOUS
10
5.529120
20
48.824085
30
0.0
11
4.314840
21
49.618505
31
0.0
0
LINE
8
0
6
CONTINUOUS
10
-5.119600
20
49.124475
30
0.0
11
-6.213220
21
48.237535
31
0.0
0
LINE
8
0
6
CONTINUOUS
10
-7.371180
20
45.713275
30
0.0
11
-6.659340
21
46.811395
31
0.0
0
LINE
8
0
6
CONTINUOUS
10
-6.872290
20
46.980565
30
0.0
11
-7.606930
21
45.847325
31
0.0
0
LINE
8
0
6
CONTINUOUS
10
0.182690
20
50.092435
30
0.0
11
1.510500
21
49.957645
31
0.0
0
LINE
8
0
6
CONTINUOUS
10
1.558840
20
50.227675
30
0.0
11
0.188630
21
50.366725
31
0.0
0
LINE
8
0
6
CONTINUOUS
10
-1.523900
20
33.505465
30
0.0
11
-2.791180
21
33.844195
31
0.0
0
LINE
8
0
6
CONTINUOUS
10
-8.307680
20
40.645265
30
0.0
11
-8.376530
21
41.952395
31
0.0
0
LINE
8
0
6
CONTINUOUS
10
-8.644570
20
41.966065
30
0.0
11
-8.573490
21
40.617095
31
0.0
0
LINE
8
0
6
CONTINUOUS
10
-5.783750
20
47.785295
30
0.0
11
-4.766760
21
48.611245
31
0.0
0
LINE
8
0
6
CONTINUOUS
10
-4.919330
20
48.838215
30
0.0
11
-5.968880
21
47.985825
31
0.0
0
LINE
8
0
6
CONTINUOUS
10
-2.409580
20
49.741775
30
0.0
11
-1.127270
21
50.018595
31
0.0
0
LINE
8
0
6
CONTINUOUS
10
-1.163310
20
50.290545
30
0.0
11
-2.486670
21
50.004905
31
0.0
0
LINE
8
0
6
CONTINUOUS
10
8.232760
20
40.179595
30
0.0
11
7.889030
21
38.916845
31
0.0
0
LINE
8
0
6
CONTINUOUS
10
8.141400
20
38.833365
30
0.0
11
8.496180
21
40.136515
31
0.0
0
LINE
8
0
6
CONTINUOUS
10
-0.219190
20
33.368465
30
0.0
11
-1.523900
21
33.505465
31
0.0
0
LINE
8
0
6
CONTINUOUS
10
6.935830
20
46.428445
30
0.0
11
7.584510
21
45.291455
31
0.0
0
LINE
8
0
6
CONTINUOUS
10
7.827120
20
45.411995
30
0.0
11
7.157670
21
46.585375
31
0.0
0
LINE
8
0
6
CONTINUOUS
10
2.374640
20
33.709195
30
0.0
11
1.091100
21
33.436965
31
0.0
0
LINE
8
0
6
CONTINUOUS
10
8.047150
20
44.067925
30
0.0
11
8.312970
21
42.786925
31
0.0
0
LINE
8
0
6
CONTINUOUS
10
8.578970
20
42.827315
30
0.0
11
8.304600
21
44.149315
31
0.0
0
LINE
8
0
6
CONTINUOUS
10
-2.791180
20
33.844195
30
0.0
11
-4.018270
21
34.391775
31
0.0
0
LINE
8
0
6
CONTINUOUS
10
-8.035480
20
39.364665
30
0.0
11
-8.307680
21
40.645265
31
0.0
0
LINE
8
0
6
CONTINUOUS
10
-8.573490
20
40.617095
30
0.0
11
-8.292530
21
39.295515
31
0.0
0
LINE
8
0
6
CONTINUOUS
10
-4.766760
20
48.611245
30
0.0
11
-3.632810
21
49.268835
31
0.0
0
LINE
8
0
6
CONTINUOUS
10
-3.749060
20
49.516865
30
0.0
11
-4.919330
21
48.838215
31
0.0
0
LINE
8
0
6
CONTINUOUS
10
-6.087720
20
35.985955
30
0.0
11
-6.911750
21
37.005645
31
0.0
0
LINE
8
0
6
CONTINUOUS
10
4.736810
20
34.832635
30
0.0
11
3.599880
21
34.178335
31
0.0
0
LINE
8
0
6
CONTINUOUS
10
8.375270
20
41.479855
30
0.0
11
8.232760
21
40.179595
31
0.0
0
LINE
8
0
6
CONTINUOUS
10
8.496180
20
40.136515
30
0.0
11
8.643300
21
41.478395
31
0.0
0
LINE
8
0
6
CONTINUOUS
10
7.352320
20
37.723035
30
0.0
11
6.635730
21
36.626695
31
0.0
0
LINE
8
0
6
CONTINUOUS
10
6.847960
20
36.469995
30
0.0
11
7.587490
21
37.601385
31
0.0
0
LINE
8
0
6
CONTINUOUS
10
3.599880
20
34.178335
30
0.0
11
2.374640
21
33.709195
31
0.0
0
LINE
8
0
6
CONTINUOUS
10
-4.018270
20
34.391775
30
0.0
11
-5.115380
21
35.107795
31
0.0
0
LINE
8
0
6
CONTINUOUS
10
-3.632810
20
49.268835
30
0.0
11
-2.409580
21
49.741775
31
0.0
0
LINE
8
0
6
CONTINUOUS
10
-2.486670
20
50.004905
30
0.0
11
-3.749060
21
49.516865
31
0.0
0
LINE
8
0
6
CONTINUOUS
10
5.756570
20
35.655555
30
0.0
11
4.736810
21
34.832635
31
0.0
0
LINE
8
0
6
CONTINUOUS
10
-8.240350
20
43.253695
30
0.0
11
-7.902550
21
44.517715
31
0.0
0
LINE
8
0
6
CONTINUOUS
10
-8.155330
20
44.613505
30
0.0
11
-8.503990
21
43.309025
31
0.0
0
LINE
8
0
6
CONTINUOUS
10
-7.902550
20
44.517715
30
0.0
11
-7.371180
21
45.713275
31
0.0
0
LINE
8
0
6
CONTINUOUS
10
-7.606930
20
45.847325
30
0.0
11
-8.155330
21
44.613505
31
0.0
0
LINE
8
0
6
CONTINUOUS
10
-6.659340
20
46.811395
30
0.0
11
-5.783750
21
47.785295
31
0.0
0
LINE
8
0
6
CONTINUOUS
10
-5.968880
20
47.985825
30
0.0
11
-6.872290
21
46.980565
31
0.0
0
LINE
8
0
6
CONTINUOUS
10
1.510500
20
49.957645
30
0.0
11
2.799730
21
49.614325
31
0.0
0
LINE
8
0
6
CONTINUOUS
10
2.889340
20
49.873405
30
0.0
11
1.558840
21
50.227675
31
0.0
0
LINE
8
0
6
CONTINUOUS
10
8.312970
20
42.786925
30
0.0
11
8.375270
21
41.479855
31
0.0
0
LINE
8
0
6
CONTINUOUS
10
8.643300
20
41.478395
30
0.0
11
8.578970
21
42.827315
31
0.0
0
LINE
8
0
6
CONTINUOUS
10
2.799730
20
49.614325
30
0.0
11
4.017910
21
49.071495
31
0.0
0
LINE
8
0
6
CONTINUOUS
10
4.146570
20
49.313195
30
0.0
11
2.889340
21
49.873405
31
0.0
0
LINE
8
0
6
CONTINUOUS
10
-6.911750
20
37.005645
30
0.0
11
-7.566260
21
38.141305
31
0.0
0
LINE
8
0
6
CONTINUOUS
10
-7.808270
20
38.033025
30
0.0
11
-7.132790
21
36.861055
31
0.0
0
LINE
8
0
6
CONTINUOUS
10
5.148790
20
48.331515
30
0.0
11
6.117280
21
47.450195
31
0.0
0
LINE
8
0
6
CONTINUOUS
10
6.312910
20
47.639815
30
0.0
11
5.313490
21
48.549655
31
0.0
0
LINE
8
0
6
CONTINUOUS
10
6.117280
20
47.450195
30
0.0
11
6.935830
21
46.428445
31
0.0
0
LINE
8
0
6
CONTINUOUS
10
7.157670
20
46.585375
30
0.0
11
6.312910
21
47.639815
31
0.0
0
LINE
8
0
6
CONTINUOUS
10
4.017910
20
49.071495
30
0.0
11
5.148790
21
48.331515
31
0.0
0
LINE
8
0
6
CONTINUOUS
10
5.313490
20
48.549655
30
0.0
11
4.146570
21
49.313195
31
0.0
0
LINE
8
0
6
CONTINUOUS
10
-7.566260
20
38.141305
30
0.0
11
-8.035480
21
39.364665
31
0.0
0
LINE
8
0
6
CONTINUOUS
10
-8.292530
20
39.295515
30
0.0
11
-7.808270
21
38.033025
31
0.0
0
LINE
8
0
6
CONTINUOUS
10
-8.376530
20
41.952395
30
0.0
11
-8.240350
21
43.253695
31
0.0
0
LINE
8
0
6
CONTINUOUS
10
-8.503990
20
43.309025
30
0.0
11
-8.644570
21
41.966065
31
0.0
0
LINE
8
0
6
CONTINUOUS
10
-1.127270
20
50.018595
30
0.0
11
0.182690
21
50.092435
31
0.0
0
LINE
8
0
6
CONTINUOUS
10
0.188630
20
50.366725
30
0.0
11
-1.163310
21
50.290545
31
0.0
0
LINE
8
0
6
CONTINUOUS
10
-5.115380
20
35.107795
30
0.0
11
-6.087720
21
35.985955
31
0.0
0
LINE
8
0
6
CONTINUOUS
10
1.091100
20
33.436965
30
0.0
11
-0.219190
21
33.368465
31
0.0
0
LINE
8
0
6
CONTINUOUS
10
6.635730
20
36.626695
30
0.0
11
5.756570
21
35.655555
31
0.0
0
LINE
8
0
6
CONTINUOUS
10
7.584510
20
45.291455
30
0.0
11
8.047150
21
44.067925
31
0.0
0
LINE
8
0
6
CONTINUOUS
10
8.304600
20
44.149315
30
0.0
11
7.827120
21
45.411995
31
0.0
0
LINE
8
0
6
CONTINUOUS
10
7.889030
20
38.916845
30
0.0
11
7.352320
21
37.723035
31
0.0
0
LINE
8
0
6
CONTINUOUS
10
7.587490
20
37.601385
30
0.0
11
8.141400
21
38.833365
31
0.0
0
LINE
8
0
6
CONTINUOUS
10
3.011820
20
34.101765
30
0.0
11
4.372090
21
34.784785
31
0.0
0
LINE
8
0
6
CONTINUOUS
10
0.033530
20
33.534215
30
0.0
11
1.549000
21
33.680165
31
0.0
0
LINE
8
0
6
CONTINUOUS
10
-1.483030
20
33.668665
30
0.0
11
0.033530
21
33.534215
31
0.0
0
LINE
8
0
6
CONTINUOUS
10
-7.924570
20
39.489825
30
0.0
11
-7.369200
21
38.073875
31
0.0
0
LINE
8
0
6
CONTINUOUS
10
-4.314380
20
34.752175
30
0.0
11
-2.948920
21
34.079465
31
0.0
0
LINE
8
0
6
CONTINUOUS
10
-2.948920
20
34.079465
30
0.0
11
-1.483030
21
33.668665
31
0.0
0
LINE
8
0
6
CONTINUOUS
10
-5.532810
20
35.664035
30
0.0
11
-4.314380
21
34.752175
31
0.0
0
LINE
8
0
6
CONTINUOUS
10
-8.209880
20
40.983585
30
0.0
11
-7.924570
21
39.489825
31
0.0
0
LINE
8
0
6
CONTINUOUS
10
-6.600320
20
46.716115
30
0.0
11
-7.397020
21
45.420265
31
0.0
0
LINE
8
0
6
CONTINUOUS
10
-5.578870
20
47.843805
30
0.0
11
-6.600320
21
46.716115
31
0.0
0
LINE
8
0
6
CONTINUOUS
10
-6.562810
20
36.783965
30
0.0
11
-5.532810
21
35.664035
31
0.0
0
LINE
8
0
6
CONTINUOUS
10
-4.367410
20
48.764815
30
0.0
11
-5.578870
21
47.843805
31
0.0
0
LINE
8
0
6
CONTINUOUS
10
-7.369200
20
38.073875
30
0.0
11
-6.562810
21
36.783965
31
0.0
0
LINE
8
0
6
CONTINUOUS
10
-7.397020
20
45.420265
30
0.0
11
-7.941590
21
44.000155
31
0.0
0
LINE
8
0
6
CONTINUOUS
10
-8.215620
20
42.504295
30
0.0
11
-8.209880
21
40.983585
31
0.0
0
LINE
8
0
6
CONTINUOUS
10
1.487700
20
49.880825
30
0.0
11
-0.028840
21
50.015435
31
0.0
0
LINE
8
0
6
CONTINUOUS
10
7.928020
20
44.059985
30
0.0
11
7.374280
21
45.475675
31
0.0
0
LINE
8
0
6
CONTINUOUS
10
2.953620
20
49.470125
30
0.0
11
1.487700
21
49.880825
31
0.0
0
LINE
8
0
6
CONTINUOUS
10
4.319030
20
48.797345
30
0.0
11
2.953620
21
49.470125
31
0.0
0
LINE
8
0
6
CONTINUOUS
10
8.218230
20
42.565425
30
0.0
11
7.928020
21
44.059985
31
0.0
0
LINE
8
0
6
CONTINUOUS
10
4.372090
20
34.784785
30
0.0
11
5.583600
21
35.705795
31
0.0
0
LINE
8
0
6
CONTINUOUS
10
1.549000
20
33.680165
30
0.0
11
3.011820
21
34.101765
31
0.0
0
LINE
8
0
6
CONTINUOUS
10
-7.941590
20
44.000155
30
0.0
11
-8.215620
21
42.504295
31
0.0
0
LINE
8
0
6
CONTINUOUS
10
-3.007070
20
49.447745
30
0.0
11
-1.544310
21
49.869485
31
0.0
0
LINE
8
0
6
CONTINUOUS
10
-4.367410
20
48.764815
30
0.0
11
-3.007070
21
49.447745
31
0.0
0
LINE
8
0
6
CONTINUOUS
10
-0.028840
20
50.015435
30
0.0
11
-1.544310
21
49.869485
31
0.0
0
LINE
8
0
6
CONTINUOUS
10
7.400560
20
38.129565
30
0.0
11
6.605210
21
36.833425
31
0.0
0
LINE
8
0
6
CONTINUOUS
10
5.537630
20
47.885645
30
0.0
11
4.319030
21
48.797345
31
0.0
0
LINE
8
0
6
CONTINUOUS
10
5.583600
20
35.705795
30
0.0
11
6.605210
21
36.833425
31
0.0
0
LINE
8
0
6
CONTINUOUS
10
8.209970
20
41.047015
30
0.0
11
7.952110
21
39.548515
31
0.0
0
LINE
8
0
6
CONTINUOUS
10
7.400560
20
38.129565
30
0.0
11
7.952110
21
39.548515
31
0.0
0
LINE
8
0
6
CONTINUOUS
10
7.374280
20
45.475675
30
0.0
11
6.567420
21
46.765705
31
0.0
0
LINE
8
0
6
CONTINUOUS
10
6.567420
20
46.765705
30
0.0
11
5.537630
21
47.885645
31
0.0
0
LINE
8
0
6
CONTINUOUS
10
2.882950
20
34.423825
30
0.0
11
4.184690
21
35.077455
31
0.0
0
LINE
8
0
6
CONTINUOUS
10
0.032830
20
33.880695
30
0.0
11
1.483080
21
34.020365
31
0.0
0
LINE
8
0
6
CONTINUOUS
10
7.587590
20
43.953495
30
0.0
11
7.057680
21
45.308275
31
0.0
0
LINE
8
0
6
CONTINUOUS
10
4.133910
20
48.486975
30
0.0
11
2.827250
21
49.130805
31
0.0
0
LINE
8
0
6
CONTINUOUS
10
7.865300
20
42.523255
30
0.0
11
7.587590
21
43.953495
31
0.0
0
LINE
8
0
6
CONTINUOUS
10
4.184690
20
35.077455
30
0.0
11
5.344050
21
35.958825
31
0.0
0
LINE
8
0
6
CONTINUOUS
10
1.483080
20
34.020365
30
0.0
11
2.882950
21
34.423825
31
0.0
0
LINE
8
0
6
CONTINUOUS
10
6.321700
20
37.037925
30
0.0
11
7.082820
21
38.278285
31
0.0
0
LINE
8
0
6
CONTINUOUS
10
5.300070
20
47.614515
30
0.0
11
4.133910
21
48.486975
31
0.0
0
LINE
8
0
6
CONTINUOUS
10
5.344050
20
35.958825
30
0.0
11
6.321700
21
37.037925
31
0.0
0
LINE
8
0
6
CONTINUOUS
10
7.610640
20
39.636165
30
0.0
11
7.857400
21
41.070185
31
0.0
0
LINE
8
0
6
CONTINUOUS
10
7.082820
20
38.278285
30
0.0
11
7.610640
21
39.636165
31
0.0
0
LINE
8
0
6
CONTINUOUS
10
7.057680
20
45.308275
30
0.0
11
6.285550
21
46.542765
31
0.0
0
LINE
8
0
6
CONTINUOUS
10
6.285550
20
46.542765
30
0.0
11
5.300070
21
47.614515
31
0.0
0
LINE
8
0
6
CONTINUOUS
10
8.209970
20
41.047015
30
0.0
11
8.218230
21
42.565425
31
0.0
0
LINE
8
0
6
CONTINUOUS
10
7.865300
20
42.523255
30
0.0
11
7.857400
21
41.070185
31
0.0
0
LINE
8
0
6
CONTINUOUS
10
-59.611390
20
-15.250755
30
0.0
11
59.611390
21
-15.250755
31
0.0
0
LINE
8
0
6
CONTINUOUS
10
57.236160
20
51.411755
30
0.0
11
54.417540
21
54.820665
31
0.0
0
LINE
8
0
6
CONTINUOUS
10
-59.996960
20
38.319165
30
0.0
11
-59.984760
21
33.873235
31
0.0
0
LINE
8
0
6
CONTINUOUS
10
-59.976730
20
24.747895
30
0.0
11
-59.976730
21
-14.767315
31
0.0
0
LINE
8
0
6
CONTINUOUS
10
59.976740
20
-15.250755
30
0.0
11
59.976740
21
-14.767315
31
0.0
0
LINE
8
0
6
CONTINUOUS
10
59.611390
20
-15.250755
30
0.0
11
59.976740
21
-15.250755
31
0.0
0
LINE
8
0
6
CONTINUOUS
10
46.574800
20
59.175485
30
0.0
11
42.098050
21
59.745455
31
0.0
0
LINE
8
0
6
CONTINUOUS
10
50.765950
20
57.502265
30
0.0
11
46.574800
21
59.175485
31
0.0
0
LINE
8
0
6
CONTINUOUS
10
54.402410
20
54.834955
30
0.0
11
50.765950
21
57.502265
31
0.0
0
LINE
8
0
6
CONTINUOUS
10
57.254770
20
51.344585
30
0.0
11
54.402410
21
54.834955
31
0.0
0
LINE
8
0
6
CONTINUOUS
10
59.143840
20
47.252995
30
0.0
11
57.254770
21
51.344585
31
0.0
0
LINE
8
0
6
CONTINUOUS
10
59.924920
20
42.820285
30
0.0
11
59.143840
21
47.252995
31
0.0
0
LINE
8
0
6
CONTINUOUS
10
59.999990
20
38.304415
30
0.0
11
59.924920
21
42.820285
31
0.0
0
LINE
8
0
6
CONTINUOUS
10
-59.924910
20
42.820295
30
0.0
11
-59.999990
21
38.304425
31
0.0
0
LINE
8
0
6
CONTINUOUS
10
-59.143840
20
47.252995
30
0.0
11
-59.924910
21
42.820295
31
0.0
0
LINE
8
0
6
CONTINUOUS
10
-57.254760
20
51.344585
30
0.0
11
-59.143840
21
47.252995
31
0.0
0
LINE
8
0
6
CONTINUOUS
10
-54.402410
20
54.834965
30
0.0
11
-57.254760
21
51.344585
31
0.0
0
LINE
8
0
6
CONTINUOUS
10
-50.765950
20
57.502275
30
0.0
11
-54.402410
21
54.834965
31
0.0
0
LINE
8
0
6
CONTINUOUS
10
-46.574790
20
59.175485
30
0.0
11
-50.765950
21
57.502275
31
0.0
0
LINE
8
0
6
CONTINUOUS
10
-42.098040
20
59.745455
30
0.0
11
-46.574790
21
59.175485
31
0.0
0
LINE
8
0
6
CONTINUOUS
10
42.098050
20
59.745455
30
0.0
11
-42.098040
21
59.745455
31
0.0
0
LINE
8
0
6
CONTINUOUS
10
59.976740
20
29.266265
30
0.0
11
59.976740
21
33.784635
31
0.0
0
LINE
8
0
6
CONTINUOUS
10
59.976740
20
24.747895
30
0.0
11
59.976740
21
29.266265
31
0.0
0
LINE
8
0
6
CONTINUOUS
10
-59.976730
20
33.784635
30
0.0
11
-59.976730
21
29.266265
31
0.0
0
LINE
8
0
6
CONTINUOUS
10
-59.976730
20
29.266265
30
0.0
11
-59.976730
21
24.747895
31
0.0
0
LINE
8
0
6
CONTINUOUS
10
-59.999990
20
38.304425
30
0.0
11
-59.976730
21
33.784635
31
0.0
0
LINE
8
0
6
CONTINUOUS
10
59.976740
20
33.784635
30
0.0
11
59.999990
21
38.304415
31
0.0
0
LINE
8
0
6
CONTINUOUS
10
59.976740
20
-14.767315
30
0.0
11
59.976740
21
24.747895
31
0.0
0
LINE
8
0
6
CONTINUOUS
10
-59.976730
20
-15.250755
30
0.0
11
-59.611390
21
-15.250755
31
0.0
0
LINE
8
0
6
CONTINUOUS
10
-59.976730
20
-14.767315
30
0.0
11
-59.976730
21
-15.250755
31
0.0
0
LINE
8
0
6
CONTINUOUS
10
-53.342150
20
-15.756095
30
0.0
11
-53.342150
21
-15.250755
31
0.0
0
LINE
8
0
6
CONTINUOUS
10
53.342063
20
-15.250755
30
0.0
11
53.342063
21
-15.756095
31
0.0
0
LINE
8
0
6
CONTINUOUS
10
53.983843
20
-15.756095
30
0.0
11
53.983843
21
-15.250755
31
0.0
0
LINE
8
0
6
CONTINUOUS
10
-53.983854
20
-15.250755
30
0.0
11
-53.983854
21
-15.756095
31
0.0
0
LINE
8
0
6
CONTINUOUS
10
-53.342150
20
-15.250755
30
0.0
11
-53.342150
21
-15.756095
31
0.0
0
LINE
8
0
6
CONTINUOUS
10
53.342063
20
-15.756095
30
0.0
11
53.342063
21
-15.250755
31
0.0
0
LINE
8
0
6
CONTINUOUS
10
-8.265720
20
42.785485
30
0.0
11
-8.027040
21
44.035574
31
0.0
0
LINE
8
0
6
CONTINUOUS
10
-8.311094
20
42.525363
30
0.0
11
-8.265720
21
42.785485
31
0.0
0
LINE
8
0
6
CONTINUOUS
10
-8.027040
20
44.035574
30
0.0
11
-7.467135
21
45.464740
31
0.0
0
LINE
8
0
6
CONTINUOUS
10
-8.292375
20
40.986691
30
0.0
11
-8.311094
21
42.525363
31
0.0
0
LINE
8
0
6
CONTINUOUS
10
8.277924
20
42.785485
30
0.0
11
8.013239
21
44.096825
31
0.0
0
LINE
8
0
6
CONTINUOUS
10
8.314601
20
42.587880
30
0.0
11
8.277924
21
42.785485
31
0.0
0
LINE
8
0
6
CONTINUOUS
10
1.493720
20
49.920500
30
0.0
11
2.967592
21
49.513051
31
0.0
0
LINE
8
0
6
CONTINUOUS
10
2.967592
20
49.513051
30
0.0
11
4.343546
21
48.844448
31
0.0
0
LINE
8
0
6
CONTINUOUS
10
-0.029326
20
50.053771
30
0.0
11
1.493720
21
49.920500
31
0.0
0
LINE
8
0
6
CONTINUOUS
10
8.013239
20
44.096825
30
0.0
11
7.444076
21
45.521713
31
0.0
0
LINE
8
0
6
CONTINUOUS
10
-6.596477
20
36.764294
30
0.0
11
-7.420586
21
38.055977
31
0.0
0
LINE
8
0
6
CONTINUOUS
10
8.021045
20
39.538668
30
0.0
11
8.293620
21
41.050887
31
0.0
0
LINE
8
0
6
CONTINUOUS
10
7.530025
20
38.302325
30
0.0
11
8.021045
21
39.538668
31
0.0
0
LINE
8
0
6
CONTINUOUS
10
7.453449
20
38.111176
30
0.0
11
7.530025
21
38.302325
31
0.0
0
LINE
8
0
6
CONTINUOUS
10
-1.551286
20
49.908751
30
0.0
11
-0.029326
21
50.053771
31
0.0
0
LINE
8
0
6
CONTINUOUS
10
4.343546
20
48.844448
30
0.0
11
5.575940
21
47.936373
31
0.0
0
LINE
8
0
6
CONTINUOUS
10
5.604159
20
35.687214
30
0.0
11
6.640178
21
36.812828
31
0.0
0
LINE
8
0
6
CONTINUOUS
10
6.317954
20
47.143479
30
0.0
11
5.575940
21
47.936373
31
0.0
0
LINE
8
0
6
CONTINUOUS
10
6.621852
20
46.816908
30
0.0
11
6.317954
21
47.143479
31
0.0
0
LINE
8
0
6
CONTINUOUS
10
-4.392750
20
48.810824
30
0.0
11
-3.021942
21
49.489892
31
0.0
0
LINE
8
0
6
CONTINUOUS
10
7.444076
20
45.521713
30
0.0
11
6.621852
21
46.816908
31
0.0
0
LINE
8
0
6
CONTINUOUS
10
4.382420
20
34.770586
30
0.0
11
5.604159
21
35.687214
31
0.0
0
LINE
8
0
6
CONTINUOUS
10
-3.021942
20
49.489892
30
0.0
11
-1.551286
21
49.908751
31
0.0
0
LINE
8
0
6
CONTINUOUS
10
-5.617919
20
47.893210
30
0.0
11
-4.392750
21
48.810824
31
0.0
0
LINE
8
0
6
CONTINUOUS
10
-6.309051
20
47.143481
30
0.0
11
-5.617919
21
47.893210
31
0.0
0
LINE
8
0
6
CONTINUOUS
10
-6.655254
20
46.765747
30
0.0
11
-6.309051
21
47.143481
31
0.0
0
LINE
8
0
6
CONTINUOUS
10
-7.467135
20
45.464740
30
0.0
11
-6.655254
21
46.765747
31
0.0
0
LINE
8
0
6
CONTINUOUS
10
8.293620
20
41.050887
30
0.0
11
8.314601
21
42.587880
31
0.0
0
LINE
8
0
6
CONTINUOUS
10
-7.992061
20
39.479871
30
0.0
11
-8.292375
21
40.986691
31
0.0
0
LINE
8
0
6
CONTINUOUS
10
-7.520175
20
38.302325
30
0.0
11
-7.992061
21
39.479871
31
0.0
0
LINE
8
0
6
CONTINUOUS
10
-5.552401
20
35.646590
30
0.0
11
-6.596477
21
36.764294
31
0.0
0
LINE
8
0
6
CONTINUOUS
10
-5.552401
20
35.646590
30
0.0
11
-4.324117
21
34.739088
31
0.0
0
LINE
8
0
6
CONTINUOUS
10
-4.324117
20
34.739088
30
0.0
11
-2.952816
21
34.071012
31
0.0
0
LINE
8
0
6
CONTINUOUS
10
-7.420586
20
38.055977
30
0.0
11
-7.520175
21
38.302325
31
0.0
0
LINE
8
0
6
CONTINUOUS
10
3.015969
20
34.092438
30
0.0
11
4.382420
21
34.770586
31
0.0
0
LINE
8
0
6
CONTINUOUS
10
5.903870
20
35.505337
30
0.0
11
6.821460
21
36.489561
31
0.0
0
LINE
8
0
6
CONTINUOUS
10
-6.247747
20
35.840305
30
0.0
11
-5.241153
21
34.949966
31
0.0
0
LINE
8
0
6
CONTINUOUS
10
-7.113358
20
36.873766
30
0.0
11
-7.808270
21
38.033025
31
0.0
0
LINE
8
0
6
CONTINUOUS
10
4.851416
20
34.670681
30
0.0
11
5.903870
21
35.505337
31
0.0
0
LINE
8
0
6
CONTINUOUS
10
-5.241153
20
34.949966
30
0.0
11
-4.113393
21
34.222672
31
0.0
0
LINE
8
0
6
CONTINUOUS
10
3.107042
20
33.785575
30
0.0
11
3.684535
21
34.005551
31
0.0
0
LINE
8
0
6
CONTINUOUS
10
6.821460
20
36.489561
30
0.0
11
7.587490
21
37.601385
31
0.0
0
LINE
8
0
6
CONTINUOUS
10
3.684535
20
34.005551
30
0.0
11
4.851416
21
34.670681
31
0.0
0
LINE
8
0
6
CONTINUOUS
10
-6.247747
20
35.840305
30
0.0
11
-7.113358
21
36.873766
31
0.0
0
LINE
8
0
6
CONTINUOUS
10
-4.113393
20
34.222672
30
0.0
11
-3.128182
21
33.785575
31
0.0
0
LINE
8
0
6
CONTINUOUS
10
-7.229436
20
36.794417
30
0.0
11
-7.808270
21
38.033025
31
0.0
0
LINE
8
0
6
CONTINUOUS
10
6.980376
20
36.367080
30
0.0
11
7.587490
21
37.601385
31
0.0
0
LINE
8
0
6
CONTINUOUS
10
6.183340
20
35.210245
30
0.0
11
6.980376
21
36.367080
31
0.0
0
LINE
8
0
6
CONTINUOUS
10
-0.224322
20
33.177152
30
0.0
11
1.116674
21
33.247428
31
0.0
0
LINE
8
0
6
CONTINUOUS
10
2.430138
20
33.526515
30
0.0
11
3.107042
21
33.785575
31
0.0
0
LINE
8
0
6
CONTINUOUS
10
-3.128182
20
33.785575
30
0.0
11
-2.856454
21
33.664740
31
0.0
0
LINE
8
0
6
CONTINUOUS
10
1.116674
20
33.247428
30
0.0
11
2.430138
21
33.526515
31
0.0
0
LINE
8
0
6
CONTINUOUS
10
-1.559569
20
33.317694
30
0.0
11
-0.224322
21
33.177152
31
0.0
0
LINE
8
0
6
CONTINUOUS
10
-2.856454
20
33.664740
30
0.0
11
-1.559569
21
33.317694
31
0.0
0
ENDSEC
0
EOF
