999
Erzeugt mit innoplus bad 
0
SECTION
2
HEADER
9
$ACADVER
1
AC1009
9
$DWGCODEPAGE
3
ISO8859-1
0
ENDSEC
0
SECTION
2
TABLES
0
TABLE
2
LAYER
70
1
0
LAYER
2
0
70
0
62
7
6
CONTINUOUS
0
ENDTAB
0
ENDSEC
0
SECTION
2
ENTITIES
0
LINE
8
0
6
CONTINUOUS
10
45.412915
20
-167.500025
30
0.0
11
48.057335
21
-167.500025
31
0.0
0
LINE
8
0
6
CONTINUOUS
10
101.474355
20
-166.934505
30
0.0
11
101.320475
21
-161.057895
31
0.0
0
LINE
8
0
6
CONTINUOUS
10
101.320475
20
-161.057895
30
0.0
11
101.318615
21
-160.986935
31
0.0
0
LINE
8
0
6
CONTINUOUS
10
41.157845
20
-161.057905
30
0.0
11
41.003965
21
-166.934515
31
0.0
0
LINE
8
0
6
CONTINUOUS
10
41.159695
20
-160.986945
30
0.0
11
41.157845
21
-161.057905
31
0.0
0
LINE
8
0
6
CONTINUOUS
10
101.475725
20
-166.986935
30
0.0
11
101.474355
21
-166.934505
31
0.0
0
LINE
8
0
6
CONTINUOUS
10
71.239195
20
-160.500025
30
0.0
11
50.989145
21
-160.500025
31
0.0
0
LINE
8
0
6
CONTINUOUS
10
91.489235
20
-160.500025
30
0.0
11
71.239195
21
-160.500025
31
0.0
0
LINE
8
0
6
CONTINUOUS
10
99.164505
20
-167.500025
30
0.0
11
100.511575
21
-167.500025
31
0.0
0
LINE
8
0
6
CONTINUOUS
10
71.239315
20
-167.500025
30
0.0
11
91.489145
21
-167.500025
31
0.0
0
LINE
8
0
6
CONTINUOUS
10
50.989485
20
-167.500025
30
0.0
11
71.239315
21
-167.500025
31
0.0
0
LINE
8
0
6
CONTINUOUS
10
41.002585
20
-166.986945
30
0.0
11
41.065105
21
-167.242425
31
0.0
0
LINE
8
0
6
CONTINUOUS
10
100.362135
20
-160.500025
30
0.0
11
99.036995
21
-160.500025
31
0.0
0
LINE
8
0
6
CONTINUOUS
10
43.314265
20
-167.500025
30
0.0
11
45.412915
21
-167.500025
31
0.0
0
LINE
8
0
6
CONTINUOUS
10
41.003965
20
-166.934515
30
0.0
11
41.002585
21
-166.986945
31
0.0
0
LINE
8
0
6
CONTINUOUS
10
45.505315
20
-160.500025
30
0.0
11
43.441335
21
-160.500025
31
0.0
0
LINE
8
0
6
CONTINUOUS
10
43.441335
20
-160.500025
30
0.0
11
42.116195
21
-160.500025
31
0.0
0
LINE
8
0
6
CONTINUOUS
10
50.989145
20
-160.500025
30
0.0
11
48.106105
21
-160.500025
31
0.0
0
LINE
8
0
6
CONTINUOUS
10
101.318615
20
-160.986935
30
0.0
11
101.247375
21
-160.742505
31
0.0
0
LINE
8
0
6
CONTINUOUS
10
41.230975
20
-160.742505
30
0.0
11
41.159695
21
-160.986945
31
0.0
0
LINE
8
0
6
CONTINUOUS
10
41.065105
20
-167.242425
30
0.0
11
41.248685
21
-167.430835
31
0.0
0
LINE
8
0
6
CONTINUOUS
10
96.973215
20
-160.500025
30
0.0
11
94.372495
21
-160.500025
31
0.0
0
LINE
8
0
6
CONTINUOUS
10
91.489145
20
-167.500025
30
0.0
11
94.420955
21
-167.500025
31
0.0
0
LINE
8
0
6
CONTINUOUS
10
97.065385
20
-167.500025
30
0.0
11
99.164505
21
-167.500025
31
0.0
0
LINE
8
0
6
CONTINUOUS
10
41.967055
20
-167.500025
30
0.0
11
43.314265
21
-167.500025
31
0.0
0
LINE
8
0
6
CONTINUOUS
10
41.659535
20
-160.500025
30
0.0
11
41.413355
21
-160.564845
31
0.0
0
LINE
8
0
6
CONTINUOUS
10
42.116195
20
-160.500025
30
0.0
11
41.659535
21
-160.500025
31
0.0
0
LINE
8
0
6
CONTINUOUS
10
48.057335
20
-167.500025
30
0.0
11
50.989485
21
-167.500025
31
0.0
0
LINE
8
0
6
CONTINUOUS
10
94.420955
20
-167.500025
30
0.0
11
97.065385
21
-167.500025
31
0.0
0
LINE
8
0
6
CONTINUOUS
10
99.036995
20
-160.500025
30
0.0
11
96.973215
21
-160.500025
31
0.0
0
LINE
8
0
6
CONTINUOUS
10
100.818855
20
-160.500025
30
0.0
11
100.362135
21
-160.500025
31
0.0
0
LINE
8
0
6
CONTINUOUS
10
101.064985
20
-160.564845
30
0.0
11
100.818855
21
-160.500025
31
0.0
0
LINE
8
0
6
CONTINUOUS
10
41.502415
20
-167.500025
30
0.0
11
41.967055
21
-167.500025
31
0.0
0
LINE
8
0
6
CONTINUOUS
10
41.248685
20
-167.430835
30
0.0
11
41.502415
21
-167.500025
31
0.0
0
LINE
8
0
6
CONTINUOUS
10
41.413355
20
-160.564845
30
0.0
11
41.230975
21
-160.742505
31
0.0
0
LINE
8
0
6
CONTINUOUS
10
94.372495
20
-160.500025
30
0.0
11
91.489235
21
-160.500025
31
0.0
0
LINE
8
0
6
CONTINUOUS
10
101.413245
20
-167.242425
30
0.0
11
101.475725
21
-166.986935
31
0.0
0
LINE
8
0
6
CONTINUOUS
10
101.247375
20
-160.742505
30
0.0
11
101.064985
21
-160.564845
31
0.0
0
LINE
8
0
6
CONTINUOUS
10
100.511575
20
-167.500025
30
0.0
11
100.975885
21
-167.500025
31
0.0
0
LINE
8
0
6
CONTINUOUS
10
100.975885
20
-167.500025
30
0.0
11
101.229655
21
-167.430835
31
0.0
0
LINE
8
0
6
CONTINUOUS
10
101.229655
20
-167.430835
30
0.0
11
101.413245
21
-167.242425
31
0.0
0
LINE
8
0
6
CONTINUOUS
10
48.106105
20
-160.500025
30
0.0
11
45.505315
21
-160.500025
31
0.0
0
LINE
8
0
6
CONTINUOUS
10
-18.349865
20
161.056805
30
0.0
11
-18.255425
21
160.723305
31
0.0
0
LINE
8
0
6
CONTINUOUS
10
-18.528345
20
161.687145
30
0.0
11
-18.617245
21
162.001055
31
0.0
0
LINE
8
0
6
CONTINUOUS
10
55.760715
20
112.473395
30
0.0
11
55.342735
21
109.499995
31
0.0
0
LINE
8
0
6
CONTINUOUS
10
57.834448
20
112.473395
30
0.0
11
57.472475
21
109.499995
31
0.0
0
LINE
8
0
6
CONTINUOUS
10
63.500021
20
112.473395
30
0.0
11
63.291035
21
109.499995
31
0.0
0
LINE
8
0
6
CONTINUOUS
10
71.239325
20
112.473368
30
0.0
11
71.239325
21
109.499995
31
0.0
0
LINE
8
0
6
CONTINUOUS
10
78.916785
20
113.353295
30
0.0
11
79.187615
21
109.499995
31
0.0
0
LINE
8
0
6
CONTINUOUS
10
78.378989
20
115.785282
30
0.0
11
78.916785
21
113.353295
31
0.0
0
LINE
8
0
6
CONTINUOUS
10
87.135915
20
109.499995
30
0.0
11
86.594245
21
113.353295
31
0.0
0
LINE
8
0
6
CONTINUOUS
10
84.537075
20
113.353295
30
0.0
11
85.006175
21
109.499995
31
0.0
0
LINE
8
0
6
CONTINUOUS
10
85.006175
20
116.944005
30
0.0
11
83.871913
21
118.328421
31
0.0
0
LINE
8
0
6
CONTINUOUS
10
82.595985
20
117.741396
30
0.0
11
83.161765
21
116.944005
31
0.0
0
LINE
8
0
6
CONTINUOUS
10
86.594245
20
113.353295
30
0.0
11
85.006175
21
116.944005
31
0.0
0
LINE
8
0
6
CONTINUOUS
10
83.161765
20
116.944005
30
0.0
11
84.537075
21
113.353295
31
0.0
0
LINE
8
0
6
CONTINUOUS
10
52.239335
20
131.268735
30
0.0
11
52.239335
21
113.519615
31
0.0
0
LINE
8
0
6
CONTINUOUS
10
55.868015
20
135.196155
30
0.0
11
60.071415
21
139.745595
31
0.0
0
LINE
8
0
6
CONTINUOUS
10
53.169255
20
132.275225
30
0.0
11
55.868015
21
135.196155
31
0.0
0
LINE
8
0
6
CONTINUOUS
10
50.178915
20
139.228385
30
0.0
11
51.896725
21
141.791495
31
0.0
0
LINE
8
0
6
CONTINUOUS
10
49.561735
20
138.322835
30
0.0
11
52.239335
21
131.268735
31
0.0
0
LINE
8
0
6
CONTINUOUS
10
52.239335
20
131.268735
30
0.0
11
53.169255
21
132.275225
31
0.0
0
LINE
8
0
6
CONTINUOUS
10
46.111155
20
142.965125
30
0.0
11
49.561735
21
138.322835
31
0.0
0
LINE
8
0
6
CONTINUOUS
10
41.343805
20
146.448195
30
0.0
11
46.111155
21
142.965125
31
0.0
0
LINE
8
0
6
CONTINUOUS
10
-17.101255
20
161.674885
30
0.0
11
41.981615
21
148.831505
31
0.0
0
LINE
8
0
6
CONTINUOUS
10
42.705345
20
151.505735
30
0.0
11
-17.543865
21
163.136275
31
0.0
0
LINE
8
0
6
CONTINUOUS
10
41.343805
20
146.448195
30
0.0
11
41.511425
21
147.067145
31
0.0
0
LINE
8
0
6
CONTINUOUS
10
-16.703285
20
160.377255
30
0.0
11
41.343805
21
146.448195
31
0.0
0
LINE
8
0
6
CONTINUOUS
10
-18.056515
20
164.974325
30
0.0
11
43.650045
21
154.801675
31
0.0
0
LINE
8
0
6
CONTINUOUS
10
65.368015
20
145.478255
30
0.0
11
60.071415
21
139.745595
31
0.0
0
LINE
8
0
6
CONTINUOUS
10
88.972115
20
120.692295
30
0.0
11
90.241595
21
121.280695
31
0.0
0
LINE
8
0
6
CONTINUOUS
10
90.241705
20
122.288435
30
0.0
11
90.241595
21
121.280695
31
0.0
0
LINE
8
0
6
CONTINUOUS
10
90.246305
20
152.145125
30
0.0
11
88.925745
21
152.329485
31
0.0
0
LINE
8
0
6
CONTINUOUS
10
90.246115
20
150.790405
30
0.0
11
90.246305
21
152.145125
31
0.0
0
LINE
8
0
6
CONTINUOUS
10
-18.669075
20
167.288825
30
0.0
11
-20.174375
21
167.500025
31
0.0
0
LINE
8
0
6
CONTINUOUS
10
90.246115
20
150.790405
30
0.0
11
90.245445
21
145.478255
31
0.0
0
LINE
8
0
6
CONTINUOUS
10
53.169255
20
112.473395
30
0.0
11
55.868015
21
112.473395
31
0.0
0
LINE
8
0
6
CONTINUOUS
10
60.071415
20
112.473395
30
0.0
11
65.368015
21
112.473395
31
0.0
0
LINE
8
0
6
CONTINUOUS
10
52.239335
20
112.473395
30
0.0
11
53.169255
21
112.473395
31
0.0
0
LINE
8
0
6
CONTINUOUS
10
52.239335
20
113.519615
30
0.0
11
52.239335
21
112.473395
31
0.0
0
LINE
8
0
6
CONTINUOUS
10
88.925745
20
152.329485
30
0.0
11
71.246785
21
154.787445
31
0.0
0
LINE
8
0
6
CONTINUOUS
10
65.368015
20
112.473395
30
0.0
11
71.239335
21
112.473395
31
0.0
0
LINE
8
0
6
CONTINUOUS
10
55.868015
20
112.473395
30
0.0
11
60.071415
21
112.473395
31
0.0
0
LINE
8
0
6
CONTINUOUS
10
90.245445
20
145.478255
30
0.0
11
90.241705
21
122.288435
31
0.0
0
LINE
8
0
6
CONTINUOUS
10
71.239335
20
112.473395
30
0.0
11
88.972115
21
120.692295
31
0.0
0
LINE
8
0
6
CONTINUOUS
10
66.559055
20
155.439205
30
0.0
11
71.246785
21
154.787445
31
0.0
0
LINE
8
0
6
CONTINUOUS
10
59.291975
20
156.449585
30
0.0
11
66.559055
21
155.439205
31
0.0
0
LINE
8
0
6
CONTINUOUS
10
52.024905
20
157.459945
30
0.0
11
59.291975
21
156.449585
31
0.0
0
LINE
8
0
6
CONTINUOUS
10
44.757825
20
158.470325
30
0.0
11
52.024905
21
157.459945
31
0.0
0
LINE
8
0
6
CONTINUOUS
10
-19.536075
20
165.245895
30
0.0
11
-19.025935
21
163.444365
31
0.0
0
LINE
8
0
6
CONTINUOUS
10
-19.025935
20
163.444365
30
0.0
11
-18.617995
21
162.003705
31
0.0
0
LINE
8
0
6
CONTINUOUS
10
-18.617995
20
162.003705
30
0.0
11
-18.349865
21
161.056805
31
0.0
0
LINE
8
0
6
CONTINUOUS
10
-18.349865
20
161.056805
30
0.0
11
-18.255425
21
160.723305
31
0.0
0
LINE
8
0
6
CONTINUOUS
10
-18.255425
20
160.723305
30
0.0
11
-16.703285
21
160.377255
31
0.0
0
LINE
8
0
6
CONTINUOUS
10
44.757825
20
158.470325
30
0.0
11
-18.669075
21
167.288825
31
0.0
0
LINE
8
0
6
CONTINUOUS
10
-20.172335
20
167.492815
30
0.0
11
-19.875535
21
166.444745
31
0.0
0
LINE
8
0
6
CONTINUOUS
10
-18.669075
20
167.288825
30
0.0
11
-20.172335
21
167.492815
31
0.0
0
LINE
8
0
6
CONTINUOUS
10
-19.536075
20
165.245895
30
0.0
11
-18.056515
21
164.974325
31
0.0
0
LINE
8
0
6
CONTINUOUS
10
-19.536075
20
165.245895
30
0.0
11
-19.875535
21
166.444745
31
0.0
0
LINE
8
0
6
CONTINUOUS
10
52.239165
20
44.499995
30
0.0
11
52.239165
21
-160.500025
31
0.0
0
LINE
8
0
6
CONTINUOUS
10
47.599785
20
63.131315
30
0.0
11
51.152015
21
53.673865
31
0.0
0
LINE
8
0
6
CONTINUOUS
10
34.910915
20
77.656545
30
0.0
11
42.143085
21
71.033345
31
0.0
0
LINE
8
0
6
CONTINUOUS
10
42.143085
20
71.033345
30
0.0
11
47.599785
21
63.131315
31
0.0
0
LINE
8
0
6
CONTINUOUS
10
90.239175
20
87.978755
30
0.0
11
90.239175
21
108.774745
31
0.0
0
LINE
8
0
6
CONTINUOUS
10
26.490915
20
82.321215
30
0.0
11
34.910915
21
77.656545
31
0.0
0
LINE
8
0
6
CONTINUOUS
10
51.152015
20
53.673865
30
0.0
11
52.239165
21
44.499995
31
0.0
0
LINE
8
0
6
CONTINUOUS
10
-69.257445
20
93.500105
30
0.0
11
16.059515
21
84.790575
31
0.0
0
LINE
8
0
6
CONTINUOUS
10
-81.295925
20
82.543205
30
0.0
11
-80.537745
21
84.627025
31
0.0
0
LINE
8
0
6
CONTINUOUS
10
-77.831305
20
90.312045
30
0.0
11
-75.397295
21
92.210355
31
0.0
0
LINE
8
0
6
CONTINUOUS
10
-72.559895
20
93.417195
30
0.0
11
-69.257445
21
93.500105
31
0.0
0
LINE
8
0
6
CONTINUOUS
10
-80.537745
20
84.627025
30
0.0
11
-79.424265
21
87.638685
31
0.0
0
LINE
8
0
6
CONTINUOUS
10
-79.424265
20
87.638685
30
0.0
11
-77.831305
21
90.312045
31
0.0
0
LINE
8
0
6
CONTINUOUS
10
-75.397295
20
92.210355
30
0.0
11
-72.559895
21
93.417195
31
0.0
0
LINE
8
0
6
CONTINUOUS
10
-99.709325
20
87.497965
30
0.0
11
-96.741565
21
86.409115
31
0.0
0
LINE
8
0
6
CONTINUOUS
10
-86.032445
20
82.416525
30
0.0
11
-84.097595
21
81.712285
31
0.0
0
LINE
8
0
6
CONTINUOUS
10
-96.741565
20
86.409115
30
0.0
11
-93.847775
21
85.315065
31
0.0
0
LINE
8
0
6
CONTINUOUS
10
-93.847775
20
85.315065
30
0.0
11
-91.017535
21
84.230945
31
0.0
0
LINE
8
0
6
CONTINUOUS
10
-82.833905
20
81.252425
30
0.0
11
-81.695825
21
81.639525
31
0.0
0
LINE
8
0
6
CONTINUOUS
10
-91.017535
20
84.230945
30
0.0
11
-88.354245
21
83.261605
31
0.0
0
LINE
8
0
6
CONTINUOUS
10
-88.354245
20
83.261605
30
0.0
11
-86.032445
21
82.416525
31
0.0
0
LINE
8
0
6
CONTINUOUS
10
-81.695825
20
81.639525
30
0.0
11
-81.295925
21
82.543205
31
0.0
0
LINE
8
0
6
CONTINUOUS
10
-82.829205
20
109.495475
30
0.0
11
-87.848845
21
108.733775
31
0.0
0
LINE
8
0
6
CONTINUOUS
10
-95.451395
20
103.210205
30
0.0
11
-97.820745
21
98.541435
31
0.0
0
LINE
8
0
6
CONTINUOUS
10
-71.523775
20
109.465355
30
0.0
11
-82.829205
21
109.495475
31
0.0
0
LINE
8
0
6
CONTINUOUS
10
-87.848845
20
108.733775
30
0.0
11
-91.949195
21
106.728235
31
0.0
0
LINE
8
0
6
CONTINUOUS
10
-91.949195
20
106.728235
30
0.0
11
-95.451395
21
103.210205
31
0.0
0
LINE
8
0
6
CONTINUOUS
10
16.059515
20
84.790575
30
0.0
11
26.490915
21
82.321215
31
0.0
0
LINE
8
0
6
CONTINUOUS
10
89.414835
20
109.499995
30
0.0
11
65.964545
21
109.499995
31
0.0
0
LINE
8
0
6
CONTINUOUS
10
43.369455
20
109.499995
30
0.0
11
20.710925
21
109.499995
31
0.0
0
LINE
8
0
6
CONTINUOUS
10
65.964545
20
109.499995
30
0.0
11
43.369455
21
109.499995
31
0.0
0
LINE
8
0
6
CONTINUOUS
10
90.239175
20
67.372235
30
0.0
11
90.239175
21
87.978755
31
0.0
0
LINE
8
0
6
CONTINUOUS
10
90.239175
20
-160.500025
30
0.0
11
90.239165
21
43.599095
31
0.0
0
LINE
8
0
6
CONTINUOUS
10
90.239165
20
43.599095
30
0.0
11
90.239175
21
67.372235
31
0.0
0
LINE
8
0
6
CONTINUOUS
10
90.239175
20
108.774745
30
0.0
11
90.239175
21
109.499995
31
0.0
0
LINE
8
0
6
CONTINUOUS
10
-101.475755
20
88.763755
30
0.0
11
-101.475755
21
88.303475
31
0.0
0
LINE
8
0
6
CONTINUOUS
10
-101.225895
20
89.441115
30
0.0
11
-101.475755
21
88.763755
31
0.0
0
LINE
8
0
6
CONTINUOUS
10
-100.554695
20
91.029895
30
0.0
11
-101.225895
21
89.441115
31
0.0
0
LINE
8
0
6
CONTINUOUS
10
-101.068195
20
88.117605
30
0.0
11
-99.709325
21
87.497965
31
0.0
0
LINE
8
0
6
CONTINUOUS
10
20.710925
20
109.499995
30
0.0
11
-71.523775
21
109.465355
31
0.0
0
LINE
8
0
6
CONTINUOUS
10
90.239175
20
109.499995
30
0.0
11
89.414835
21
109.499995
31
0.0
0
LINE
8
0
6
CONTINUOUS
10
-83.404495
20
81.441175
30
0.0
11
-82.929095
21
81.283915
31
0.0
0
LINE
8
0
6
CONTINUOUS
10
-85.081665
20
82.064555
30
0.0
11
-83.905785
21
81.624585
31
0.0
0
LINE
8
0
6
CONTINUOUS
10
-83.905785
20
81.624585
30
0.0
11
-83.500615
21
81.472975
31
0.0
0
LINE
8
0
6
CONTINUOUS
10
-83.500615
20
81.472975
30
0.0
11
-83.404495
21
81.441175
31
0.0
0
LINE
8
0
6
CONTINUOUS
10
-83.905785
20
81.624585
30
0.0
11
-83.500615
21
81.472975
31
0.0
0
LINE
8
0
6
CONTINUOUS
10
-85.081665
20
82.064555
30
0.0
11
-83.905785
21
81.624585
31
0.0
0
ENDSEC
0
EOF
