999
Erzeugt mit innoplus bad 
0
SECTION
2
HEADER
9
$ACADVER
1
AC1009
9
$DWGCODEPAGE
3
ISO8859-1
0
ENDSEC
0
SECTION
2
TABLES
0
TABLE
2
LAYER
70
1
0
LAYER
2
0
70
0
62
7
6
CONTINUOUS
0
ENDTAB
0
ENDSEC
0
SECTION
2
ENTITIES
0
LINE
8
0
6
CONTINUOUS
10
-83.502770
20
13.327560
30
0.0
11
-83.529450
21
12.817590
31
0.0
0
LINE
8
0
6
CONTINUOUS
10
-48.974510
20
15.100920
30
0.0
11
-59.624420
21
15.100920
31
0.0
0
LINE
8
0
6
CONTINUOUS
10
-49.051440
20
14.581520
30
0.0
11
-59.954990
21
14.581520
31
0.0
0
LINE
8
0
6
CONTINUOUS
10
-59.624420
20
15.100920
30
0.0
11
-69.236030
21
15.100920
31
0.0
0
LINE
8
0
6
CONTINUOUS
10
-59.954990
20
14.581520
30
0.0
11
-69.972610
21
14.581520
31
0.0
0
LINE
8
0
6
CONTINUOUS
10
-69.236030
20
15.100920
30
0.0
11
-76.557050
21
15.100920
31
0.0
0
LINE
8
0
6
CONTINUOUS
10
-69.972610
20
14.581520
30
0.0
11
-77.644720
21
14.581520
31
0.0
0
LINE
8
0
6
CONTINUOUS
10
-76.557050
20
15.100920
30
0.0
11
-80.597980
21
15.100920
31
0.0
0
LINE
8
0
6
CONTINUOUS
10
-77.644720
20
14.581520
30
0.0
11
-81.856230
21
14.581520
31
0.0
0
LINE
8
0
6
CONTINUOUS
10
-81.634060
20
15.100920
30
0.0
11
-82.917000
21
14.581520
31
0.0
0
LINE
8
0
6
CONTINUOUS
10
-80.597980
20
15.100920
30
0.0
11
-81.634060
21
15.100920
31
0.0
0
LINE
8
0
6
CONTINUOUS
10
-82.917000
20
14.581520
30
0.0
11
-83.502770
21
13.327560
31
0.0
0
LINE
8
0
6
CONTINUOUS
10
-81.856230
20
14.581520
30
0.0
11
-82.917000
21
14.581520
31
0.0
0
LINE
8
0
6
CONTINUOUS
10
59.622530
20
15.100920
30
0.0
11
48.974570
21
15.100920
31
0.0
0
LINE
8
0
6
CONTINUOUS
10
59.953190
20
14.581510
30
0.0
11
49.051450
21
14.581510
31
0.0
0
LINE
8
0
6
CONTINUOUS
10
69.238680
20
15.100920
30
0.0
11
59.622530
21
15.100920
31
0.0
0
LINE
8
0
6
CONTINUOUS
10
69.975250
20
14.581510
30
0.0
11
59.953190
21
14.581510
31
0.0
0
LINE
8
0
6
CONTINUOUS
10
76.558810
20
15.100920
30
0.0
11
69.238680
21
15.100920
31
0.0
0
LINE
8
0
6
CONTINUOUS
10
77.646460
20
14.581520
30
0.0
11
69.975250
21
14.581510
31
0.0
0
LINE
8
0
6
CONTINUOUS
10
80.597560
20
15.100920
30
0.0
11
76.558810
21
15.100920
31
0.0
0
LINE
8
0
6
CONTINUOUS
10
81.855820
20
14.581520
30
0.0
11
77.646460
21
14.581520
31
0.0
0
LINE
8
0
6
CONTINUOUS
10
82.917000
20
14.581520
30
0.0
11
81.634060
21
15.100920
31
0.0
0
LINE
8
0
6
CONTINUOUS
10
81.634060
20
15.100920
30
0.0
11
80.597560
21
15.100920
31
0.0
0
LINE
8
0
6
CONTINUOUS
10
83.502770
20
13.327550
30
0.0
11
82.917000
21
14.581520
31
0.0
0
LINE
8
0
6
CONTINUOUS
10
82.917000
20
14.581520
30
0.0
11
81.855820
21
14.581520
31
0.0
0
LINE
8
0
6
CONTINUOUS
10
48.974570
20
15.100920
30
0.0
11
24.487300
21
15.100920
31
0.0
0
LINE
8
0
6
CONTINUOUS
10
24.525730
20
14.581510
30
0.0
11
49.051450
21
14.581510
31
0.0
0
LINE
8
0
6
CONTINUOUS
10
0.000030
20
15.100920
30
0.0
11
-48.974510
21
15.100920
31
0.0
0
LINE
8
0
6
CONTINUOUS
10
-49.051440
20
14.581520
30
0.0
11
0.000000
21
14.581520
31
0.0
0
LINE
8
0
6
CONTINUOUS
10
-79.539840
20
-15.100930
30
0.0
11
-71.578820
21
-15.100930
31
0.0
0
LINE
8
0
6
CONTINUOUS
10
83.529450
20
12.817580
30
0.0
11
83.502770
21
13.327550
31
0.0
0
LINE
8
0
6
CONTINUOUS
10
79.537980
20
-15.100930
30
0.0
11
83.899320
21
-15.100930
31
0.0
0
LINE
8
0
6
CONTINUOUS
10
-61.200250
20
-15.100930
30
0.0
11
-49.990100
21
-15.100930
31
0.0
0
LINE
8
0
6
CONTINUOUS
10
-71.578820
20
-15.100930
30
0.0
11
-61.200250
21
-15.100930
31
0.0
0
LINE
8
0
6
CONTINUOUS
10
24.995050
20
-15.100930
30
0.0
11
49.990100
21
-15.100930
31
0.0
0
LINE
8
0
6
CONTINUOUS
10
0.000000
20
-15.100930
30
0.0
11
24.995050
21
-15.100930
31
0.0
0
LINE
8
0
6
CONTINUOUS
10
-49.990100
20
-15.100930
30
0.0
11
0.000000
21
-15.100930
31
0.0
0
LINE
8
0
6
CONTINUOUS
10
24.487300
20
15.100920
30
0.0
11
0.000030
21
15.100920
31
0.0
0
LINE
8
0
6
CONTINUOUS
10
24.525730
20
14.581510
30
0.0
11
0.000000
21
14.581520
31
0.0
0
LINE
8
0
6
CONTINUOUS
10
84.990100
20
-15.100930
30
0.0
11
83.529450
21
12.817580
31
0.0
0
LINE
8
0
6
CONTINUOUS
10
83.899320
20
-15.100930
30
0.0
11
84.990100
21
-15.100930
31
0.0
0
LINE
8
0
6
CONTINUOUS
10
-83.898890
20
-15.100930
30
0.0
11
-79.539840
21
-15.100930
31
0.0
0
LINE
8
0
6
CONTINUOUS
10
49.990100
20
-15.100930
30
0.0
11
61.202130
21
-15.100930
31
0.0
0
LINE
8
0
6
CONTINUOUS
10
71.575990
20
-15.100930
30
0.0
11
79.537980
21
-15.100930
31
0.0
0
LINE
8
0
6
CONTINUOUS
10
61.202130
20
-15.100930
30
0.0
11
71.575990
21
-15.100930
31
0.0
0
LINE
8
0
6
CONTINUOUS
10
-84.990100
20
-15.100930
30
0.0
11
-83.898890
21
-15.100930
31
0.0
0
LINE
8
0
6
CONTINUOUS
10
-83.529450
20
12.817590
30
0.0
11
-84.990100
21
-15.100930
31
0.0
0
LINE
8
0
6
CONTINUOUS
10
57.795870
20
15.100920
30
0.0
11
55.356780
21
15.100920
31
0.0
0
LINE
8
0
6
CONTINUOUS
10
58.711120
20
15.100920
30
0.0
11
57.795870
21
15.100920
31
0.0
0
LINE
8
0
6
CONTINUOUS
10
55.356780
20
15.100920
30
0.0
11
51.470640
21
15.100920
31
0.0
0
LINE
8
0
6
CONTINUOUS
10
51.470640
20
15.100920
30
0.0
11
46.286840
21
15.100920
31
0.0
0
LINE
8
0
6
CONTINUOUS
10
46.286840
20
15.100920
30
0.0
11
40.340890
21
15.100920
31
0.0
0
LINE
8
0
6
CONTINUOUS
10
40.340890
20
15.100920
30
0.0
11
33.937730
21
15.100920
31
0.0
0
LINE
8
0
6
CONTINUOUS
10
33.937730
20
15.100920
30
0.0
11
27.534560
21
15.100920
31
0.0
0
LINE
8
0
6
CONTINUOUS
10
27.534560
20
15.100920
30
0.0
11
21.588620
21
15.100920
31
0.0
0
LINE
8
0
6
CONTINUOUS
10
21.588620
20
15.100920
30
0.0
11
16.404820
21
15.100920
31
0.0
0
LINE
8
0
6
CONTINUOUS
10
16.404820
20
15.100920
30
0.0
11
12.517930
21
15.100920
31
0.0
0
LINE
8
0
6
CONTINUOUS
10
12.517930
20
15.100920
30
0.0
11
10.079950
21
15.100920
31
0.0
0
LINE
8
0
6
CONTINUOUS
10
10.079950
20
15.100920
30
0.0
11
9.165090
21
15.100920
31
0.0
0
LINE
8
0
6
CONTINUOUS
10
-24.636780
20
15.100920
30
0.0
11
-25.213720
21
15.100920
31
0.0
0
LINE
8
0
6
CONTINUOUS
10
-25.213720
20
15.100920
30
0.0
11
-26.750360
21
15.100920
31
0.0
0
LINE
8
0
6
CONTINUOUS
10
-26.750360
20
15.100920
30
0.0
11
-29.198180
21
15.100920
31
0.0
0
LINE
8
0
6
CONTINUOUS
10
-29.198180
20
15.100920
30
0.0
11
-32.464480
21
15.100920
31
0.0
0
LINE
8
0
6
CONTINUOUS
10
-32.464480
20
15.100920
30
0.0
11
-36.210440
21
15.100920
31
0.0
0
LINE
8
0
6
CONTINUOUS
10
-36.210440
20
15.100920
30
0.0
11
-40.244480
21
15.100930
31
0.0
0
LINE
8
0
6
CONTINUOUS
10
-40.244480
20
15.100930
30
0.0
11
-44.278510
21
15.100930
31
0.0
0
LINE
8
0
6
CONTINUOUS
10
-44.278510
20
15.100930
30
0.0
11
-48.024470
21
15.100930
31
0.0
0
LINE
8
0
6
CONTINUOUS
10
-48.024470
20
15.100930
30
0.0
11
-51.290780
21
15.100930
31
0.0
0
LINE
8
0
6
CONTINUOUS
10
-51.290780
20
15.100930
30
0.0
11
-53.739050
21
15.100930
31
0.0
0
LINE
8
0
6
CONTINUOUS
10
-53.739050
20
15.100930
30
0.0
11
-55.274990
21
15.100930
31
0.0
0
LINE
8
0
6
CONTINUOUS
10
-55.274990
20
15.100930
30
0.0
11
-55.851690
21
15.100930
31
0.0
0
ENDSEC
0
EOF
