999
Erzeugt mit innoplus bad 
0
SECTION
2
HEADER
9
$ACADVER
1
AC1009
9
$DWGCODEPAGE
3
ISO8859-1
0
ENDSEC
0
SECTION
2
TABLES
0
TABLE
2
LAYER
70
1
0
LAYER
2
0
70
0
62
7
6
CONTINUOUS
0
ENDTAB
0
ENDSEC
0
SECTION
2
ENTITIES
0
LINE
8
0
6
CONTINUOUS
10
84.064810
20
11.704180
30
0.0
11
84.051100
21
11.951700
31
0.0
0
LINE
8
0
6
CONTINUOUS
10
-84.049720
20
11.952120
30
0.0
11
-84.063430
21
11.704600
31
0.0
0
LINE
8
0
6
CONTINUOUS
10
-56.881730
20
14.466640
30
0.0
11
-66.824570
21
14.466640
31
0.0
0
LINE
8
0
6
CONTINUOUS
10
-0.052410
20
14.466640
30
0.0
11
-15.749720
21
14.466640
31
0.0
0
LINE
8
0
6
CONTINUOUS
10
80.386100
20
14.466640
30
0.0
11
78.840880
21
14.466640
31
0.0
0
LINE
8
0
6
CONTINUOUS
10
82.424490
20
14.163650
30
0.0
11
80.386100
21
14.466640
31
0.0
0
LINE
8
0
6
CONTINUOUS
10
56.831190
20
14.466640
30
0.0
11
44.641310
21
14.466640
31
0.0
0
LINE
8
0
6
CONTINUOUS
10
-80.385170
20
14.466640
30
0.0
11
-82.423680
21
14.163920
31
0.0
0
LINE
8
0
6
CONTINUOUS
10
-78.839320
20
14.466640
30
0.0
11
-80.385170
21
14.466640
31
0.0
0
LINE
8
0
6
CONTINUOUS
10
-44.758150
20
14.466640
30
0.0
11
-56.881730
21
14.466640
31
0.0
0
LINE
8
0
6
CONTINUOUS
10
15.643510
20
14.466640
30
0.0
11
-0.052410
21
14.466640
31
0.0
0
LINE
8
0
6
CONTINUOUS
10
66.834380
20
14.466640
30
0.0
11
56.831190
21
14.466640
31
0.0
0
LINE
8
0
6
CONTINUOUS
10
-74.259510
20
14.466640
30
0.0
11
-78.839320
21
14.466640
31
0.0
0
LINE
8
0
6
CONTINUOUS
10
-30.841540
20
14.466640
30
0.0
11
-44.758150
21
14.466640
31
0.0
0
LINE
8
0
6
CONTINUOUS
10
74.264570
20
14.466640
30
0.0
11
66.834380
21
14.466640
31
0.0
0
LINE
8
0
6
CONTINUOUS
10
30.734870
20
14.466640
30
0.0
11
15.643510
21
14.466640
31
0.0
0
LINE
8
0
6
CONTINUOUS
10
-66.824570
20
14.466640
30
0.0
11
-74.259510
21
14.466640
31
0.0
0
LINE
8
0
6
CONTINUOUS
10
-15.749720
20
14.466640
30
0.0
11
-30.841540
21
14.466640
31
0.0
0
LINE
8
0
6
CONTINUOUS
10
44.641310
20
14.466640
30
0.0
11
30.734870
21
14.466640
31
0.0
0
LINE
8
0
6
CONTINUOUS
10
78.840880
20
14.466640
30
0.0
11
74.264570
21
14.466640
31
0.0
0
LINE
8
0
6
CONTINUOUS
10
84.051100
20
11.951700
30
0.0
11
83.616960
21
13.249230
31
0.0
0
LINE
8
0
6
CONTINUOUS
10
83.616960
20
13.249230
30
0.0
11
82.424490
21
14.163650
31
0.0
0
LINE
8
0
6
CONTINUOUS
10
-83.616510
20
13.249690
30
0.0
11
-84.049720
21
11.952120
31
0.0
0
LINE
8
0
6
CONTINUOUS
10
-82.423680
20
14.163920
30
0.0
11
-83.616510
21
13.249690
31
0.0
0
LINE
8
0
6
CONTINUOUS
10
71.101850
20
-14.466640
30
0.0
11
79.004140
21
-14.466640
31
0.0
0
LINE
8
0
6
CONTINUOUS
10
60.467160
20
-14.466640
30
0.0
11
71.101850
21
-14.466640
31
0.0
0
LINE
8
0
6
CONTINUOUS
10
-79.004170
20
-14.466640
30
0.0
11
-71.101890
21
-14.466640
31
0.0
0
LINE
8
0
6
CONTINUOUS
10
83.870340
20
-14.466640
30
0.0
11
85.513470
21
-14.466640
31
0.0
0
LINE
8
0
6
CONTINUOUS
10
85.513470
20
-14.466640
30
0.0
11
84.064810
21
11.704180
31
0.0
0
LINE
8
0
6
CONTINUOUS
10
79.004140
20
-14.466640
30
0.0
11
83.870340
21
-14.466640
31
0.0
0
LINE
8
0
6
CONTINUOUS
10
47.508750
20
-14.466640
30
0.0
11
60.467160
21
-14.466640
31
0.0
0
LINE
8
0
6
CONTINUOUS
10
32.724570
20
-14.466640
30
0.0
11
47.508750
21
-14.466640
31
0.0
0
LINE
8
0
6
CONTINUOUS
10
16.682830
20
-14.466640
30
0.0
11
32.724570
21
-14.466640
31
0.0
0
LINE
8
0
6
CONTINUOUS
10
-0.000030
20
-14.466640
30
0.0
11
16.682830
21
-14.466640
31
0.0
0
LINE
8
0
6
CONTINUOUS
10
-16.682890
20
-14.466640
30
0.0
11
-0.000030
21
-14.466640
31
0.0
0
LINE
8
0
6
CONTINUOUS
10
-32.724630
20
-14.466640
30
0.0
11
-16.682890
21
-14.466640
31
0.0
0
LINE
8
0
6
CONTINUOUS
10
-47.508780
20
-14.466640
30
0.0
11
-32.724630
21
-14.466640
31
0.0
0
LINE
8
0
6
CONTINUOUS
10
-60.467200
20
-14.466640
30
0.0
11
-47.508780
21
-14.466640
31
0.0
0
LINE
8
0
6
CONTINUOUS
10
-71.101890
20
-14.466640
30
0.0
11
-60.467200
21
-14.466640
31
0.0
0
LINE
8
0
6
CONTINUOUS
10
-83.870370
20
-14.466640
30
0.0
11
-79.004170
21
-14.466640
31
0.0
0
LINE
8
0
6
CONTINUOUS
10
-85.513470
20
-14.466640
30
0.0
11
-83.870370
21
-14.466640
31
0.0
0
LINE
8
0
6
CONTINUOUS
10
-84.063430
20
11.704600
30
0.0
11
-85.513470
21
-14.466640
31
0.0
0
LINE
8
0
6
CONTINUOUS
10
-17.637430
20
14.466640
30
0.0
11
-21.641670
21
14.466640
31
0.0
0
LINE
8
0
6
CONTINUOUS
10
14.907240
20
14.466640
30
0.0
11
13.423870
21
14.466640
31
0.0
0
LINE
8
0
6
CONTINUOUS
10
13.423870
20
14.466640
30
0.0
11
11.031640
21
14.466640
31
0.0
0
LINE
8
0
6
CONTINUOUS
10
15.445230
20
14.466640
30
0.0
11
14.907240
21
14.466640
31
0.0
0
LINE
8
0
6
CONTINUOUS
10
-14.903310
20
14.466640
30
0.0
11
-15.365350
21
14.466640
31
0.0
0
LINE
8
0
6
CONTINUOUS
10
-13.416940
20
14.466640
30
0.0
11
-14.903310
21
14.466640
31
0.0
0
LINE
8
0
6
CONTINUOUS
10
-11.024480
20
14.466640
30
0.0
11
-13.416940
21
14.466640
31
0.0
0
LINE
8
0
6
CONTINUOUS
10
-7.765210
20
14.466640
30
0.0
11
-11.024480
21
14.466640
31
0.0
0
LINE
8
0
6
CONTINUOUS
10
-4.031750
20
14.466640
30
0.0
11
-7.765210
21
14.466640
31
0.0
0
LINE
8
0
6
CONTINUOUS
10
0.009120
20
14.466640
30
0.0
11
-4.031750
21
14.466640
31
0.0
0
LINE
8
0
6
CONTINUOUS
10
4.043760
20
14.466640
30
0.0
11
0.009120
21
14.466640
31
0.0
0
LINE
8
0
6
CONTINUOUS
10
7.761410
20
14.466640
30
0.0
11
4.043760
21
14.466640
31
0.0
0
LINE
8
0
6
CONTINUOUS
10
11.031640
20
14.466640
30
0.0
11
7.761410
21
14.466640
31
0.0
0
LINE
8
0
6
CONTINUOUS
10
-21.641670
20
14.466640
30
0.0
11
-24.172360
21
14.466640
31
0.0
0
LINE
8
0
6
CONTINUOUS
10
-24.172360
20
14.466640
30
0.0
11
-25.057060
21
14.466640
31
0.0
0
LINE
8
0
6
CONTINUOUS
10
25.018660
20
14.466640
30
0.0
11
24.197070
21
14.466640
31
0.0
0
LINE
8
0
6
CONTINUOUS
10
24.197070
20
14.466640
30
0.0
11
21.725180
21
14.466640
31
0.0
0
LINE
8
0
6
CONTINUOUS
10
21.725180
20
14.466640
30
0.0
11
17.771450
21
14.466640
31
0.0
0
LINE
8
0
6
CONTINUOUS
10
17.771450
20
14.466640
30
0.0
11
12.605310
21
14.466640
31
0.0
0
LINE
8
0
6
CONTINUOUS
10
12.605310
20
14.466640
30
0.0
11
6.578840
21
14.466640
31
0.0
0
LINE
8
0
6
CONTINUOUS
10
6.578840
20
14.466640
30
0.0
11
0.102710
21
14.466640
31
0.0
0
LINE
8
0
6
CONTINUOUS
10
0.102710
20
14.466640
30
0.0
11
-6.381720
21
14.466640
31
0.0
0
LINE
8
0
6
CONTINUOUS
10
-6.381720
20
14.466640
30
0.0
11
-12.432560
21
14.466640
31
0.0
0
LINE
8
0
6
CONTINUOUS
10
-12.432560
20
14.466640
30
0.0
11
-17.637430
21
14.466640
31
0.0
0
ENDSEC
0
EOF
