999
Erzeugt mit innoplus bad 
0
SECTION
2
HEADER
9
$ACADVER
1
AC1009
9
$DWGCODEPAGE
3
ISO8859-1
0
ENDSEC
0
SECTION
2
TABLES
0
TABLE
2
LAYER
70
1
0
LAYER
2
0
70
0
62
7
6
CONTINUOUS
0
ENDTAB
0
ENDSEC
0
SECTION
2
ENTITIES
0
LINE
8
0
6
CONTINUOUS
10
-58.269320
20
58.267050
30
0.0
11
-45.776220
21
68.520750
31
0.0
0
LINE
8
0
6
CONTINUOUS
10
-46.435470
20
69.511180
30
0.0
11
-59.110030
21
59.108720
31
0.0
0
LINE
8
0
6
CONTINUOUS
10
-82.423680
20
-0.031440
30
0.0
11
-80.836490
21
16.055050
31
0.0
0
LINE
8
0
6
CONTINUOUS
10
-82.005480
20
16.282530
30
0.0
11
-83.616510
21
-0.037800
31
0.0
0
LINE
8
0
6
CONTINUOUS
10
-58.331770
20
-58.316380
30
0.0
11
-68.542150
21
-45.855120
31
0.0
0
LINE
8
0
6
CONTINUOUS
10
-69.530370
20
-46.531660
30
0.0
11
-59.177100
21
-59.168120
31
0.0
0
LINE
8
0
6
CONTINUOUS
10
-0.030650
20
-82.424050
30
0.0
11
-16.120490
21
-80.844090
31
0.0
0
LINE
8
0
6
CONTINUOUS
10
-16.361210
20
-82.014270
30
0.0
11
-0.037060
21
-83.617230
31
0.0
0
LINE
8
0
6
CONTINUOUS
10
82.424490
20
0.031790
30
0.0
11
80.836470
21
-16.055010
31
0.0
0
LINE
8
0
6
CONTINUOUS
10
82.005620
20
-16.282530
30
0.0
11
83.616960
21
0.038200
31
0.0
0
LINE
8
0
6
CONTINUOUS
10
58.269920
20
-58.267090
30
0.0
11
45.776480
21
-68.520880
31
0.0
0
LINE
8
0
6
CONTINUOUS
10
46.435790
20
-69.511340
30
0.0
11
59.110610
21
-59.108640
31
0.0
0
LINE
8
0
6
CONTINUOUS
10
58.331910
20
58.316330
30
0.0
11
68.541910
21
45.854910
31
0.0
0
LINE
8
0
6
CONTINUOUS
10
69.530370
20
46.531560
30
0.0
11
59.177150
21
59.168110
31
0.0
0
LINE
8
0
6
CONTINUOUS
10
-16.056510
20
80.834840
30
0.0
11
0.030530
21
82.423520
31
0.0
0
LINE
8
0
6
CONTINUOUS
10
0.037010
20
83.615920
30
0.0
11
-16.283680
21
82.004390
31
0.0
0
LINE
8
0
6
CONTINUOUS
10
-68.522480
20
45.774010
30
0.0
11
-58.269320
21
58.267050
31
0.0
0
LINE
8
0
6
CONTINUOUS
10
-59.110030
20
59.108720
30
0.0
11
-69.512460
21
46.434040
31
0.0
0
LINE
8
0
6
CONTINUOUS
10
-80.844350
20
-16.117150
30
0.0
11
-82.423680
21
-0.031440
31
0.0
0
LINE
8
0
6
CONTINUOUS
10
-83.616510
20
-0.037800
30
0.0
11
-82.013770
21
-16.359350
31
0.0
0
LINE
8
0
6
CONTINUOUS
10
-45.859180
20
-68.537740
30
0.0
11
-58.331770
21
-58.316380
31
0.0
0
LINE
8
0
6
CONTINUOUS
10
-59.177100
20
-59.168120
30
0.0
11
-46.533700
21
-69.527970
31
0.0
0
LINE
8
0
6
CONTINUOUS
10
45.859320
20
68.537780
30
0.0
11
58.331910
21
58.316330
31
0.0
0
LINE
8
0
6
CONTINUOUS
10
59.177150
20
59.168110
30
0.0
11
46.533860
21
69.527940
31
0.0
0
LINE
8
0
6
CONTINUOUS
10
16.056930
20
-80.835570
30
0.0
11
-0.030650
21
-82.424050
31
0.0
0
LINE
8
0
6
CONTINUOUS
10
-0.037060
20
-83.617230
30
0.0
11
16.284110
21
-82.004830
31
0.0
0
LINE
8
0
6
CONTINUOUS
10
80.844280
20
16.117270
30
0.0
11
82.424490
21
0.031790
31
0.0
0
LINE
8
0
6
CONTINUOUS
10
83.616960
20
0.038200
30
0.0
11
82.013840
21
16.359490
31
0.0
0
LINE
8
0
6
CONTINUOUS
10
68.522890
20
-45.774010
30
0.0
11
58.269920
21
-58.267090
31
0.0
0
LINE
8
0
6
CONTINUOUS
10
59.110610
20
-59.108640
30
0.0
11
69.512880
21
-46.433990
31
0.0
0
LINE
8
0
6
CONTINUOUS
10
-31.523500
20
76.140590
30
0.0
11
-16.056510
21
80.834840
31
0.0
0
LINE
8
0
6
CONTINUOUS
10
-16.283680
20
82.004390
30
0.0
11
-31.975210
21
77.241400
31
0.0
0
LINE
8
0
6
CONTINUOUS
10
-76.142570
20
31.521070
30
0.0
11
-68.522480
21
45.774010
31
0.0
0
LINE
8
0
6
CONTINUOUS
10
-69.512460
20
46.434040
30
0.0
11
-77.243370
21
31.973730
31
0.0
0
LINE
8
0
6
CONTINUOUS
10
-76.156710
20
-31.591890
30
0.0
11
-80.844350
21
-16.117150
31
0.0
0
LINE
8
0
6
CONTINUOUS
10
-82.013770
20
-16.359350
30
0.0
11
-77.258180
21
-32.059710
31
0.0
0
LINE
8
0
6
CONTINUOUS
10
-31.592230
20
-76.156950
30
0.0
11
-45.859180
21
-68.537740
31
0.0
0
LINE
8
0
6
CONTINUOUS
10
-46.533700
20
-69.527970
30
0.0
11
-32.059700
21
-77.258240
31
0.0
0
LINE
8
0
6
CONTINUOUS
10
76.142670
20
-31.521160
30
0.0
11
68.522890
21
-45.774010
31
0.0
0
LINE
8
0
6
CONTINUOUS
10
69.512880
20
-46.433990
30
0.0
11
77.243550
21
-31.973870
31
0.0
0
LINE
8
0
6
CONTINUOUS
10
31.592180
20
76.156390
30
0.0
11
45.859320
21
68.537780
31
0.0
0
LINE
8
0
6
CONTINUOUS
10
46.533860
20
69.527940
30
0.0
11
32.059500
21
77.257130
31
0.0
0
LINE
8
0
6
CONTINUOUS
10
31.523740
20
-76.140840
30
0.0
11
16.056930
21
-80.835570
31
0.0
0
LINE
8
0
6
CONTINUOUS
10
16.284110
20
-82.004830
30
0.0
11
31.975510
21
-77.241680
31
0.0
0
LINE
8
0
6
CONTINUOUS
10
76.156950
20
31.592060
30
0.0
11
80.844280
21
16.117270
31
0.0
0
LINE
8
0
6
CONTINUOUS
10
82.013840
20
16.359490
30
0.0
11
77.258320
21
32.059840
31
0.0
0
LINE
8
0
6
CONTINUOUS
10
-45.776220
20
68.520750
30
0.0
11
-31.523500
21
76.140590
31
0.0
0
LINE
8
0
6
CONTINUOUS
10
-31.975210
20
77.241400
30
0.0
11
-46.435470
21
69.511180
31
0.0
0
LINE
8
0
6
CONTINUOUS
10
-80.836490
20
16.055050
30
0.0
11
-76.142570
21
31.521070
31
0.0
0
LINE
8
0
6
CONTINUOUS
10
-77.243370
20
31.973730
30
0.0
11
-82.005480
21
16.282530
31
0.0
0
LINE
8
0
6
CONTINUOUS
10
-68.542150
20
-45.855120
30
0.0
11
-76.156710
21
-31.591890
31
0.0
0
LINE
8
0
6
CONTINUOUS
10
-77.258180
20
-32.059710
30
0.0
11
-69.530370
21
-46.531660
31
0.0
0
LINE
8
0
6
CONTINUOUS
10
-16.120490
20
-80.844090
30
0.0
11
-31.592230
21
-76.156950
31
0.0
0
LINE
8
0
6
CONTINUOUS
10
-32.059700
20
-77.258240
30
0.0
11
-16.361210
21
-82.014270
31
0.0
0
LINE
8
0
6
CONTINUOUS
10
0.030530
20
82.423520
30
0.0
11
16.120420
21
80.843440
31
0.0
0
LINE
8
0
6
CONTINUOUS
10
16.361020
20
82.012700
30
0.0
11
0.037010
21
83.615920
31
0.0
0
LINE
8
0
6
CONTINUOUS
10
45.776480
20
-68.520880
30
0.0
11
31.523740
21
-76.140840
31
0.0
0
LINE
8
0
6
CONTINUOUS
10
31.975510
20
-77.241680
30
0.0
11
46.435790
21
-69.511340
31
0.0
0
LINE
8
0
6
CONTINUOUS
10
68.541910
20
45.854910
30
0.0
11
76.156950
21
31.592060
31
0.0
0
LINE
8
0
6
CONTINUOUS
10
77.258320
20
32.059840
30
0.0
11
69.530370
21
46.531560
31
0.0
0
LINE
8
0
6
CONTINUOUS
10
80.836470
20
-16.055010
30
0.0
11
76.142670
21
-31.521160
31
0.0
0
LINE
8
0
6
CONTINUOUS
10
77.243550
20
-31.973870
30
0.0
11
82.005620
21
-16.282530
31
0.0
0
LINE
8
0
6
CONTINUOUS
10
16.120420
20
80.843440
30
0.0
11
31.592180
21
76.156390
31
0.0
0
LINE
8
0
6
CONTINUOUS
10
32.059500
20
77.257130
30
0.0
11
16.361020
21
82.012700
31
0.0
0
LINE
8
0
6
CONTINUOUS
10
16.682850
20
83.870350
30
0.0
11
0.000000
21
85.513470
31
0.0
0
LINE
8
0
6
CONTINUOUS
10
32.724590
20
79.004140
30
0.0
11
16.682850
21
83.870350
31
0.0
0
LINE
8
0
6
CONTINUOUS
10
47.508740
20
71.101850
30
0.0
11
32.724590
21
79.004140
31
0.0
0
LINE
8
0
6
CONTINUOUS
10
60.467150
20
60.467150
30
0.0
11
47.508740
21
71.101850
31
0.0
0
LINE
8
0
6
CONTINUOUS
10
71.101850
20
47.508740
30
0.0
11
60.467150
21
60.467150
31
0.0
0
LINE
8
0
6
CONTINUOUS
10
79.004140
20
32.724590
30
0.0
11
71.101850
21
47.508740
31
0.0
0
LINE
8
0
6
CONTINUOUS
10
83.870340
20
16.682850
30
0.0
11
79.004140
21
32.724590
31
0.0
0
LINE
8
0
6
CONTINUOUS
10
85.513470
20
0.000010
30
0.0
11
83.870340
21
16.682850
31
0.0
0
LINE
8
0
6
CONTINUOUS
10
83.870340
20
-16.682840
30
0.0
11
85.513470
21
0.000010
31
0.0
0
LINE
8
0
6
CONTINUOUS
10
79.004140
20
-32.724570
30
0.0
11
83.870340
21
-16.682840
31
0.0
0
LINE
8
0
6
CONTINUOUS
10
71.101850
20
-47.508740
30
0.0
11
79.004140
21
-32.724570
31
0.0
0
LINE
8
0
6
CONTINUOUS
10
60.467150
20
-60.467150
30
0.0
11
71.101850
21
-47.508740
31
0.0
0
LINE
8
0
6
CONTINUOUS
10
47.508740
20
-71.101860
30
0.0
11
60.467150
21
-60.467150
31
0.0
0
LINE
8
0
6
CONTINUOUS
10
32.724570
20
-79.004150
30
0.0
11
47.508740
21
-71.101860
31
0.0
0
LINE
8
0
6
CONTINUOUS
10
16.682830
20
-83.870350
30
0.0
11
32.724570
21
-79.004150
31
0.0
0
LINE
8
0
6
CONTINUOUS
10
-0.000030
20
-85.513470
30
0.0
11
16.682830
21
-83.870350
31
0.0
0
LINE
8
0
6
CONTINUOUS
10
-16.682890
20
-83.870340
30
0.0
11
-0.000030
21
-85.513470
31
0.0
0
LINE
8
0
6
CONTINUOUS
10
-32.724630
20
-79.004130
30
0.0
11
-16.682890
21
-83.870340
31
0.0
0
LINE
8
0
6
CONTINUOUS
10
-47.508780
20
-71.101820
30
0.0
11
-32.724630
21
-79.004130
31
0.0
0
LINE
8
0
6
CONTINUOUS
10
-60.467200
20
-60.467120
30
0.0
11
-47.508780
21
-71.101820
31
0.0
0
LINE
8
0
6
CONTINUOUS
10
-71.101890
20
-47.508690
30
0.0
11
-60.467200
21
-60.467120
31
0.0
0
LINE
8
0
6
CONTINUOUS
10
-79.004170
20
-32.724520
30
0.0
11
-71.101890
21
-47.508690
31
0.0
0
LINE
8
0
6
CONTINUOUS
10
-83.870370
20
-16.682780
30
0.0
11
-79.004170
21
-32.724520
31
0.0
0
LINE
8
0
6
CONTINUOUS
10
-85.513470
20
0.000080
30
0.0
11
-83.870370
21
-16.682780
31
0.0
0
LINE
8
0
6
CONTINUOUS
10
-83.870330
20
16.682940
30
0.0
11
-85.513470
21
0.000080
31
0.0
0
LINE
8
0
6
CONTINUOUS
10
-79.004100
20
32.724680
30
0.0
11
-83.870330
21
16.682940
31
0.0
0
LINE
8
0
6
CONTINUOUS
10
-71.101790
20
47.508830
30
0.0
11
-79.004100
21
32.724680
31
0.0
0
LINE
8
0
6
CONTINUOUS
10
-60.467080
20
60.467230
30
0.0
11
-71.101790
21
47.508830
31
0.0
0
LINE
8
0
6
CONTINUOUS
10
-47.508640
20
71.101920
30
0.0
11
-60.467080
21
60.467230
31
0.0
0
LINE
8
0
6
CONTINUOUS
10
-32.724470
20
79.004190
30
0.0
11
-47.508640
21
71.101920
31
0.0
0
LINE
8
0
6
CONTINUOUS
10
0.000000
20
85.513470
30
0.0
11
-16.682720
21
83.870380
31
0.0
0
LINE
8
0
6
CONTINUOUS
10
-16.682720
20
83.870380
30
0.0
11
-32.724470
21
79.004190
31
0.0
0
LINE
8
0
6
CONTINUOUS
10
0.000010
20
25.004650
30
0.0
11
4.878160
21
24.524190
31
0.0
0
LINE
8
0
6
CONTINUOUS
10
4.878160
20
24.524190
30
0.0
11
9.568860
21
23.101280
31
0.0
0
LINE
8
0
6
CONTINUOUS
10
9.568860
20
23.101280
30
0.0
11
13.891840
21
20.790610
31
0.0
0
LINE
8
0
6
CONTINUOUS
10
13.891840
20
20.790610
30
0.0
11
17.680950
21
17.680960
31
0.0
0
LINE
8
0
6
CONTINUOUS
10
17.680950
20
17.680960
30
0.0
11
20.790600
21
13.891840
31
0.0
0
LINE
8
0
6
CONTINUOUS
10
20.790600
20
13.891840
30
0.0
11
23.101270
21
9.568870
31
0.0
0
LINE
8
0
6
CONTINUOUS
10
23.101270
20
9.568870
30
0.0
11
24.524180
21
4.878180
31
0.0
0
LINE
8
0
6
CONTINUOUS
10
24.524180
20
4.878180
30
0.0
11
25.004640
21
0.000010
31
0.0
0
LINE
8
0
6
CONTINUOUS
10
25.004640
20
0.000010
30
0.0
11
24.524180
21
-4.878150
31
0.0
0
LINE
8
0
6
CONTINUOUS
10
24.524180
20
-4.878150
30
0.0
11
23.101270
21
-9.568840
31
0.0
0
LINE
8
0
6
CONTINUOUS
10
23.101270
20
-9.568840
30
0.0
11
20.790600
21
-13.891810
31
0.0
0
LINE
8
0
6
CONTINUOUS
10
20.790600
20
-13.891810
30
0.0
11
17.680940
21
-17.680930
31
0.0
0
LINE
8
0
6
CONTINUOUS
10
17.680940
20
-17.680930
30
0.0
11
13.891840
21
-20.790580
31
0.0
0
LINE
8
0
6
CONTINUOUS
10
13.891840
20
-20.790580
30
0.0
11
9.568860
21
-23.101250
31
0.0
0
LINE
8
0
6
CONTINUOUS
10
9.568860
20
-23.101250
30
0.0
11
4.878160
21
-24.524160
31
0.0
0
LINE
8
0
6
CONTINUOUS
10
4.878160
20
-24.524160
30
0.0
11
0.000000
21
-25.004620
31
0.0
0
LINE
8
0
6
CONTINUOUS
10
0.000000
20
-25.004620
30
0.0
11
-4.878160
21
-24.524160
31
0.0
0
LINE
8
0
6
CONTINUOUS
10
-4.878160
20
-24.524160
30
0.0
11
-9.568860
21
-23.101250
31
0.0
0
LINE
8
0
6
CONTINUOUS
10
-9.568860
20
-23.101250
30
0.0
11
-13.891830
21
-20.790580
31
0.0
0
LINE
8
0
6
CONTINUOUS
10
-13.891830
20
-20.790580
30
0.0
11
-17.680940
21
-17.680930
31
0.0
0
LINE
8
0
6
CONTINUOUS
10
-17.680940
20
-17.680930
30
0.0
11
-20.790590
21
-13.891810
31
0.0
0
LINE
8
0
6
CONTINUOUS
10
-20.790590
20
-13.891810
30
0.0
11
-23.101260
21
-9.568840
31
0.0
0
LINE
8
0
6
CONTINUOUS
10
-23.101260
20
-9.568840
30
0.0
11
-24.524170
21
-4.878150
31
0.0
0
LINE
8
0
6
CONTINUOUS
10
-24.524170
20
-4.878150
30
0.0
11
-25.004630
21
0.000020
31
0.0
0
LINE
8
0
6
CONTINUOUS
10
-25.004630
20
0.000020
30
0.0
11
-24.524170
21
4.878180
31
0.0
0
LINE
8
0
6
CONTINUOUS
10
-24.524170
20
4.878180
30
0.0
11
-23.101260
21
9.568870
31
0.0
0
LINE
8
0
6
CONTINUOUS
10
-23.101260
20
9.568870
30
0.0
11
-20.790590
21
13.891850
31
0.0
0
LINE
8
0
6
CONTINUOUS
10
-20.790590
20
13.891850
30
0.0
11
-17.680940
21
17.680960
31
0.0
0
LINE
8
0
6
CONTINUOUS
10
-17.680940
20
17.680960
30
0.0
11
-13.891830
21
20.790610
31
0.0
0
LINE
8
0
6
CONTINUOUS
10
-13.891830
20
20.790610
30
0.0
11
-9.568850
21
23.101280
31
0.0
0
LINE
8
0
6
CONTINUOUS
10
-9.568850
20
23.101280
30
0.0
11
-4.878160
21
24.524190
31
0.0
0
LINE
8
0
6
CONTINUOUS
10
-4.878160
20
24.524190
30
0.0
11
0.000010
21
25.004650
31
0.0
0
ENDSEC
0
EOF
