999
unknown String-ID: 20550
0
SECTION
2
HEADER
9
$ACADVER
1
AC1009
9
$DWGCODEPAGE
3
unknown String-ID: 20561
0
ENDSEC
0
SECTION
2
TABLES
0
TABLE
2
LAYER
70
1
0
LAYER
2
0
70
0
62
7
6
CONTINUOUS
0
ENDTAB
0
ENDSEC
0
SECTION
2
ENTITIES
0
LINE
8
0
6
CONTINUOUS
10
-0.018771
20
0.179355
30
0.0
11
-0.018771
21
0.177964
31
0.0
0
LINE
8
0
6
CONTINUOUS
10
-0.018771
20
0.177964
30
0.0
11
-0.018771
21
0.171106
31
0.0
0
LINE
8
0
6
CONTINUOUS
10
-0.004553
20
0.180735
30
0.0
11
-0.004433
21
0.179150
31
0.0
0
LINE
8
0
6
CONTINUOUS
10
-0.004433
20
0.179150
30
0.0
11
-0.004227
21
0.177574
31
0.0
0
LINE
8
0
6
CONTINUOUS
10
-0.004270
20
0.181453
30
0.0
11
-0.004460
21
0.181453
31
0.0
0
LINE
8
0
6
CONTINUOUS
10
-0.003345
20
0.174592
30
0.0
11
-0.002638
21
0.173200
31
0.0
0
LINE
8
0
6
CONTINUOUS
10
-0.005509
20
0.173625
30
0.0
11
-0.005351
21
0.177958
31
0.0
0
LINE
8
0
6
CONTINUOUS
10
-0.018771
20
0.180735
30
0.0
11
-0.018771
21
0.179355
31
0.0
0
LINE
8
0
6
CONTINUOUS
10
-0.004167
20
0.180901
30
0.0
11
-0.004167
21
0.181224
31
0.0
0
LINE
8
0
6
CONTINUOUS
10
-0.004504
20
0.181224
30
0.0
11
-0.004504
21
0.180901
31
0.0
0
LINE
8
0
6
CONTINUOUS
10
-0.004302
20
0.179173
30
0.0
11
-0.003990
21
0.177599
31
0.0
0
LINE
8
0
6
CONTINUOUS
10
-0.003990
20
0.177599
30
0.0
11
-0.003639
21
0.175933
31
0.0
0
LINE
8
0
6
CONTINUOUS
10
-0.003639
20
0.175933
30
0.0
11
-0.003015
21
0.174492
31
0.0
0
LINE
8
0
6
CONTINUOUS
10
-0.003015
20
0.174492
30
0.0
11
-0.002154
21
0.173433
31
0.0
0
LINE
8
0
6
CONTINUOUS
10
-0.002154
20
0.173433
30
0.0
11
-0.001123
21
0.172718
31
0.0
0
LINE
8
0
6
CONTINUOUS
10
-0.001123
20
0.172718
30
0.0
11
-0.000060
21
0.172505
31
0.0
0
LINE
8
0
6
CONTINUOUS
10
-0.003968
20
0.179173
30
0.0
11
-0.003678
21
0.177599
31
0.0
0
LINE
8
0
6
CONTINUOUS
10
-0.003678
20
0.177599
30
0.0
11
-0.003362
21
0.176127
31
0.0
0
LINE
8
0
6
CONTINUOUS
10
-0.003362
20
0.176127
30
0.0
11
-0.002773
21
0.174823
31
0.0
0
LINE
8
0
6
CONTINUOUS
10
-0.002773
20
0.174823
30
0.0
11
-0.001986
21
0.173851
31
0.0
0
LINE
8
0
6
CONTINUOUS
10
-0.001986
20
0.173851
30
0.0
11
-0.001034
21
0.173225
31
0.0
0
LINE
8
0
6
CONTINUOUS
10
-0.018771
20
0.181224
30
0.0
11
-0.018771
21
0.180901
31
0.0
0
LINE
8
0
6
CONTINUOUS
10
-0.018771
20
0.180901
30
0.0
11
-0.018771
21
0.180735
31
0.0
0
LINE
8
0
6
CONTINUOUS
10
-0.004504
20
0.180901
30
0.0
11
-0.004553
21
0.180735
31
0.0
0
LINE
8
0
6
CONTINUOUS
10
-0.004172
20
0.180560
30
0.0
11
-0.004167
21
0.180901
31
0.0
0
LINE
8
0
6
CONTINUOUS
10
-0.004172
20
0.180560
30
0.0
11
-0.003968
21
0.179173
31
0.0
0
LINE
8
0
6
CONTINUOUS
10
-0.004489
20
0.181224
30
0.0
11
-0.004672
21
0.181224
31
0.0
0
LINE
8
0
6
CONTINUOUS
10
-0.003156
20
0.181453
30
0.0
11
-0.004188
21
0.181453
31
0.0
0
LINE
8
0
6
CONTINUOUS
10
-0.004183
20
0.181453
30
0.0
11
-0.003152
21
0.181453
31
0.0
0
LINE
8
0
6
CONTINUOUS
10
-0.007434
20
0.181453
30
0.0
11
-0.011235
21
0.181453
31
0.0
0
LINE
8
0
6
CONTINUOUS
10
-0.011372
20
0.181224
30
0.0
11
-0.007532
21
0.181224
31
0.0
0
LINE
8
0
6
CONTINUOUS
10
-0.016703
20
0.181453
30
0.0
11
-0.018110
21
0.181453
31
0.0
0
LINE
8
0
6
CONTINUOUS
10
-0.018324
20
0.181224
30
0.0
11
-0.016899
21
0.181224
31
0.0
0
LINE
8
0
6
CONTINUOUS
10
-0.007532
20
0.181224
30
0.0
11
-0.006405
21
0.181224
31
0.0
0
LINE
8
0
6
CONTINUOUS
10
-0.006260
20
0.181453
30
0.0
11
-0.007434
21
0.181453
31
0.0
0
LINE
8
0
6
CONTINUOUS
10
-0.004460
20
0.181453
30
0.0
11
-0.005170
21
0.181453
31
0.0
0
LINE
8
0
6
CONTINUOUS
10
-0.005356
20
0.181224
30
0.0
11
-0.004672
21
0.181224
31
0.0
0
LINE
8
0
6
CONTINUOUS
10
-0.005170
20
0.181453
30
0.0
11
-0.006260
21
0.181453
31
0.0
0
LINE
8
0
6
CONTINUOUS
10
-0.006405
20
0.181224
30
0.0
11
-0.005356
21
0.181224
31
0.0
0
LINE
8
0
6
CONTINUOUS
10
-0.004286
20
0.181453
30
0.0
11
-0.004504
21
0.181224
31
0.0
0
LINE
8
0
6
CONTINUOUS
10
-0.001389
20
0.181453
30
0.0
11
-0.002779
21
0.181452
31
0.0
0
LINE
8
0
6
CONTINUOUS
10
-0.002780
20
0.181224
30
0.0
11
-0.001390
21
0.181224
31
0.0
0
LINE
8
0
6
CONTINUOUS
10
-0.014070
20
0.181453
30
0.0
11
-0.016703
21
0.181453
31
0.0
0
LINE
8
0
6
CONTINUOUS
10
-0.016899
20
0.181224
30
0.0
11
-0.014238
21
0.181224
31
0.0
0
LINE
8
0
6
CONTINUOUS
10
-0.000060
20
0.181453
30
0.0
11
-0.001389
21
0.181453
31
0.0
0
LINE
8
0
6
CONTINUOUS
10
-0.001390
20
0.181224
30
0.0
11
-0.000060
21
0.181224
31
0.0
0
LINE
8
0
6
CONTINUOUS
10
-0.011235
20
0.181453
30
0.0
11
-0.014070
21
0.181453
31
0.0
0
LINE
8
0
6
CONTINUOUS
10
-0.014238
20
0.181224
30
0.0
11
-0.011372
21
0.181224
31
0.0
0
LINE
8
0
6
CONTINUOUS
10
-0.018552
20
0.181453
30
0.0
11
-0.018771
21
0.181224
31
0.0
0
LINE
8
0
6
CONTINUOUS
10
-0.018110
20
0.181453
30
0.0
11
-0.018552
21
0.181453
31
0.0
0
LINE
8
0
6
CONTINUOUS
10
-0.018771
20
0.181224
30
0.0
11
-0.018324
21
0.181224
31
0.0
0
LINE
8
0
6
CONTINUOUS
10
-0.004199
20
0.181453
30
0.0
11
-0.004274
21
0.181453
31
0.0
0
LINE
8
0
6
CONTINUOUS
10
-0.004492
20
0.181224
30
0.0
11
-0.004371
21
0.181224
31
0.0
0
LINE
8
0
6
CONTINUOUS
10
-0.004070
20
0.181453
30
0.0
11
-0.004199
21
0.181453
31
0.0
0
LINE
8
0
6
CONTINUOUS
10
-0.004371
20
0.181224
30
0.0
11
-0.004167
21
0.181224
31
0.0
0
LINE
8
0
6
CONTINUOUS
10
-0.004071
20
0.181224
30
0.0
11
-0.002780
21
0.181224
31
0.0
0
LINE
8
0
6
CONTINUOUS
10
-0.004176
20
0.181454
30
0.0
11
-0.004274
21
0.181454
31
0.0
0
LINE
8
0
6
CONTINUOUS
10
-0.003980
20
0.181453
30
0.0
11
-0.002779
21
0.181452
31
0.0
0
LINE
8
0
6
CONTINUOUS
10
-0.003980
20
0.181453
30
0.0
11
-0.004070
21
0.181453
31
0.0
0
LINE
8
0
6
CONTINUOUS
10
-0.004167
20
0.181224
30
0.0
11
-0.004071
21
0.181224
31
0.0
0
LINE
8
0
6
CONTINUOUS
10
-0.018771
20
0.171106
30
0.0
11
-0.018771
21
0.146262
31
0.0
0
LINE
8
0
6
CONTINUOUS
10
-0.003936
20
0.181454
30
0.0
11
-0.004176
21
0.181454
31
0.0
0
LINE
8
0
6
CONTINUOUS
10
-0.010887
20
0.145554
30
0.0
11
-0.005430
21
0.145491
31
0.0
0
LINE
8
0
6
CONTINUOUS
10
-0.007532
20
0.145539
30
0.0
11
-0.005653
21
0.145487
31
0.0
0
LINE
8
0
6
CONTINUOUS
10
-0.014554
20
0.145533
30
0.0
11
-0.011323
21
0.145551
31
0.0
0
LINE
8
0
6
CONTINUOUS
10
-0.016899
20
0.145546
30
0.0
11
-0.014554
21
0.145533
31
0.0
0
LINE
8
0
6
CONTINUOUS
10
-0.018324
20
0.145583
30
0.0
11
-0.016899
21
0.145546
31
0.0
0
LINE
8
0
6
CONTINUOUS
10
-0.011323
20
0.145551
30
0.0
11
-0.007532
21
0.145539
31
0.0
0
LINE
8
0
6
CONTINUOUS
10
-0.001698
20
0.145485
30
0.0
11
-0.000060
21
0.145490
31
0.0
0
LINE
8
0
6
CONTINUOUS
10
-0.005653
20
0.145487
30
0.0
11
-0.003698
21
0.145483
31
0.0
0
LINE
8
0
6
CONTINUOUS
10
-0.003698
20
0.145483
30
0.0
11
-0.001698
21
0.145485
31
0.0
0
LINE
8
0
6
CONTINUOUS
10
-0.018771
20
0.145612
30
0.0
11
-0.018324
21
0.145583
31
0.0
0
LINE
8
0
6
CONTINUOUS
10
-0.018771
20
0.146262
30
0.0
11
-0.018771
21
0.145612
31
0.0
0
LINE
8
0
6
CONTINUOUS
10
0.018652
20
0.177964
30
0.0
11
0.018652
21
0.179355
31
0.0
0
LINE
8
0
6
CONTINUOUS
10
0.018652
20
0.171106
30
0.0
11
0.018652
21
0.177964
31
0.0
0
LINE
8
0
6
CONTINUOUS
10
0.004314
20
0.179150
30
0.0
11
0.004433
21
0.180735
31
0.0
0
LINE
8
0
6
CONTINUOUS
10
0.004108
20
0.177574
30
0.0
11
0.004314
21
0.179150
31
0.0
0
LINE
8
0
6
CONTINUOUS
10
0.004340
20
0.181453
30
0.0
11
0.004150
21
0.181453
31
0.0
0
LINE
8
0
6
CONTINUOUS
10
-0.000060
20
0.171725
30
0.0
11
-0.000060
21
0.171644
31
0.0
0
LINE
8
0
6
CONTINUOUS
10
0.002519
20
0.173200
30
0.0
11
0.003226
21
0.174592
31
0.0
0
LINE
8
0
6
CONTINUOUS
10
0.005231
20
0.177958
30
0.0
11
0.005389
21
0.173625
31
0.0
0
LINE
8
0
6
CONTINUOUS
10
0.018652
20
0.179355
30
0.0
11
0.018652
21
0.180735
31
0.0
0
LINE
8
0
6
CONTINUOUS
10
0.004047
20
0.181224
30
0.0
11
0.004047
21
0.180901
31
0.0
0
LINE
8
0
6
CONTINUOUS
10
0.004384
20
0.180901
30
0.0
11
0.004384
21
0.181224
31
0.0
0
LINE
8
0
6
CONTINUOUS
10
0.003870
20
0.177599
30
0.0
11
0.004182
21
0.179173
31
0.0
0
LINE
8
0
6
CONTINUOUS
10
0.003519
20
0.175933
30
0.0
11
0.003870
21
0.177599
31
0.0
0
LINE
8
0
6
CONTINUOUS
10
0.002895
20
0.174492
30
0.0
11
0.003519
21
0.175933
31
0.0
0
LINE
8
0
6
CONTINUOUS
10
0.002035
20
0.173433
30
0.0
11
0.002895
21
0.174492
31
0.0
0
LINE
8
0
6
CONTINUOUS
10
0.001004
20
0.172718
30
0.0
11
0.002035
21
0.173433
31
0.0
0
LINE
8
0
6
CONTINUOUS
10
-0.000060
20
0.172505
30
0.0
11
0.001004
21
0.172718
31
0.0
0
LINE
8
0
6
CONTINUOUS
10
0.003558
20
0.177599
30
0.0
11
0.003848
21
0.179173
31
0.0
0
LINE
8
0
6
CONTINUOUS
10
0.003243
20
0.176127
30
0.0
11
0.003558
21
0.177599
31
0.0
0
LINE
8
0
6
CONTINUOUS
10
0.002654
20
0.174823
30
0.0
11
0.003243
21
0.176127
31
0.0
0
LINE
8
0
6
CONTINUOUS
10
0.001867
20
0.173851
30
0.0
11
0.002654
21
0.174823
31
0.0
0
LINE
8
0
6
CONTINUOUS
10
0.000914
20
0.173225
30
0.0
11
0.001867
21
0.173851
31
0.0
0
LINE
8
0
6
CONTINUOUS
10
0.018652
20
0.180901
30
0.0
11
0.018652
21
0.181224
31
0.0
0
LINE
8
0
6
CONTINUOUS
10
0.018652
20
0.180735
30
0.0
11
0.018652
21
0.180901
31
0.0
0
LINE
8
0
6
CONTINUOUS
10
0.004433
20
0.180735
30
0.0
11
0.004384
21
0.180901
31
0.0
0
LINE
8
0
6
CONTINUOUS
10
0.004047
20
0.180901
30
0.0
11
0.004053
21
0.180560
31
0.0
0
LINE
8
0
6
CONTINUOUS
10
0.003848
20
0.179173
30
0.0
11
0.004053
21
0.180560
31
0.0
0
LINE
8
0
6
CONTINUOUS
10
0.004552
20
0.181224
30
0.0
11
0.004369
21
0.181224
31
0.0
0
LINE
8
0
6
CONTINUOUS
10
0.003033
20
0.181453
30
0.0
11
0.004064
21
0.181453
31
0.0
0
LINE
8
0
6
CONTINUOUS
10
0.004068
20
0.181453
30
0.0
11
0.003036
21
0.181453
31
0.0
0
LINE
8
0
6
CONTINUOUS
10
0.007412
20
0.181224
30
0.0
11
0.011253
21
0.181224
31
0.0
0
LINE
8
0
6
CONTINUOUS
10
0.011116
20
0.181453
30
0.0
11
0.007314
21
0.181453
31
0.0
0
LINE
8
0
6
CONTINUOUS
10
0.016779
20
0.181224
30
0.0
11
0.018205
21
0.181224
31
0.0
0
LINE
8
0
6
CONTINUOUS
10
0.017991
20
0.181453
30
0.0
11
0.016583
21
0.181453
31
0.0
0
LINE
8
0
6
CONTINUOUS
10
0.007314
20
0.181453
30
0.0
11
0.006140
21
0.181453
31
0.0
0
LINE
8
0
6
CONTINUOUS
10
0.006285
20
0.181224
30
0.0
11
0.007412
21
0.181224
31
0.0
0
LINE
8
0
6
CONTINUOUS
10
0.004552
20
0.181224
30
0.0
11
0.005236
21
0.181224
31
0.0
0
LINE
8
0
6
CONTINUOUS
10
0.005050
20
0.181453
30
0.0
11
0.004340
21
0.181453
31
0.0
0
LINE
8
0
6
CONTINUOUS
10
0.005236
20
0.181224
30
0.0
11
0.006285
21
0.181224
31
0.0
0
LINE
8
0
6
CONTINUOUS
10
0.006140
20
0.181453
30
0.0
11
0.005050
21
0.181453
31
0.0
0
LINE
8
0
6
CONTINUOUS
10
0.004384
20
0.181224
30
0.0
11
0.004166
21
0.181453
31
0.0
0
LINE
8
0
6
CONTINUOUS
10
0.001270
20
0.181224
30
0.0
11
0.002660
21
0.181224
31
0.0
0
LINE
8
0
6
CONTINUOUS
10
0.002659
20
0.181452
30
0.0
11
0.001269
21
0.181453
31
0.0
0
LINE
8
0
6
CONTINUOUS
10
0.014118
20
0.181224
30
0.0
11
0.016779
21
0.181224
31
0.0
0
LINE
8
0
6
CONTINUOUS
10
0.016583
20
0.181453
30
0.0
11
0.013950
21
0.181453
31
0.0
0
LINE
8
0
6
CONTINUOUS
10
-0.000060
20
0.181224
30
0.0
11
0.001270
21
0.181224
31
0.0
0
LINE
8
0
6
CONTINUOUS
10
0.001269
20
0.181453
30
0.0
11
-0.000060
21
0.181453
31
0.0
0
LINE
8
0
6
CONTINUOUS
10
0.011253
20
0.181224
30
0.0
11
0.014118
21
0.181224
31
0.0
0
LINE
8
0
6
CONTINUOUS
10
0.013950
20
0.181453
30
0.0
11
0.011116
21
0.181453
31
0.0
0
LINE
8
0
6
CONTINUOUS
10
0.018205
20
0.181224
30
0.0
11
0.018652
21
0.181224
31
0.0
0
LINE
8
0
6
CONTINUOUS
10
0.018432
20
0.181453
30
0.0
11
0.017991
21
0.181453
31
0.0
0
LINE
8
0
6
CONTINUOUS
10
0.018652
20
0.181224
30
0.0
11
0.018432
21
0.181453
31
0.0
0
LINE
8
0
6
CONTINUOUS
10
0.004251
20
0.181224
30
0.0
11
0.004372
21
0.181224
31
0.0
0
LINE
8
0
6
CONTINUOUS
10
0.004154
20
0.181453
30
0.0
11
0.004079
21
0.181453
31
0.0
0
LINE
8
0
6
CONTINUOUS
10
0.004047
20
0.181224
30
0.0
11
0.004251
21
0.181224
31
0.0
0
LINE
8
0
6
CONTINUOUS
10
0.004079
20
0.181453
30
0.0
11
0.003951
21
0.181453
31
0.0
0
LINE
8
0
6
CONTINUOUS
10
0.002660
20
0.181224
30
0.0
11
0.003951
21
0.181224
31
0.0
0
LINE
8
0
6
CONTINUOUS
10
0.004154
20
0.181454
30
0.0
11
0.004056
21
0.181454
31
0.0
0
LINE
8
0
6
CONTINUOUS
10
0.002659
20
0.181452
30
0.0
11
0.003860
21
0.181453
31
0.0
0
LINE
8
0
6
CONTINUOUS
10
0.003951
20
0.181224
30
0.0
11
0.004047
21
0.181224
31
0.0
0
LINE
8
0
6
CONTINUOUS
10
0.003951
20
0.181453
30
0.0
11
0.003860
21
0.181453
31
0.0
0
LINE
8
0
6
CONTINUOUS
10
0.018652
20
0.146262
30
0.0
11
0.018652
21
0.171106
31
0.0
0
LINE
8
0
6
CONTINUOUS
10
0.004056
20
0.181454
30
0.0
11
0.003817
21
0.181454
31
0.0
0
LINE
8
0
6
CONTINUOUS
10
0.005310
20
0.145491
30
0.0
11
0.010768
21
0.145554
31
0.0
0
LINE
8
0
6
CONTINUOUS
10
0.005534
20
0.145487
30
0.0
11
0.007412
21
0.145539
31
0.0
0
LINE
8
0
6
CONTINUOUS
10
0.011203
20
0.145551
30
0.0
11
0.014434
21
0.145533
31
0.0
0
LINE
8
0
6
CONTINUOUS
10
0.014434
20
0.145533
30
0.0
11
0.016779
21
0.145546
31
0.0
0
LINE
8
0
6
CONTINUOUS
10
0.016779
20
0.145546
30
0.0
11
0.018205
21
0.145583
31
0.0
0
LINE
8
0
6
CONTINUOUS
10
0.007412
20
0.145539
30
0.0
11
0.011203
21
0.145551
31
0.0
0
LINE
8
0
6
CONTINUOUS
10
-0.000060
20
0.145490
30
0.0
11
0.001579
21
0.145485
31
0.0
0
LINE
8
0
6
CONTINUOUS
10
0.003578
20
0.145483
30
0.0
11
0.005534
21
0.145487
31
0.0
0
LINE
8
0
6
CONTINUOUS
10
0.001579
20
0.145485
30
0.0
11
0.003578
21
0.145483
31
0.0
0
LINE
8
0
6
CONTINUOUS
10
0.018652
20
0.145612
30
0.0
11
0.018652
21
0.146262
31
0.0
0
LINE
8
0
6
CONTINUOUS
10
0.018205
20
0.145583
30
0.0
11
0.018652
21
0.145612
31
0.0
0
LINE
8
0
6
CONTINUOUS
10
0.018861
20
-0.174454
30
0.0
11
0.018861
21
-0.174098
31
0.0
0
LINE
8
0
6
CONTINUOUS
10
-0.018861
20
-0.174098
30
0.0
11
-0.018861
21
-0.174454
31
0.0
0
LINE
8
0
6
CONTINUOUS
10
0.006313
20
0.062559
30
0.0
11
0.007732
21
0.064160
31
0.0
0
LINE
8
0
6
CONTINUOUS
10
0.002311
20
0.060558
30
0.0
11
0.004464
21
0.061330
31
0.0
0
LINE
8
0
6
CONTINUOUS
10
0.004464
20
0.061330
30
0.0
11
0.006313
21
0.062559
31
0.0
0
LINE
8
0
6
CONTINUOUS
10
-0.000000
20
0.060295
30
0.0
11
0.002311
21
0.060558
31
0.0
0
LINE
8
0
6
CONTINUOUS
10
0.008624
20
0.066025
30
0.0
11
0.008928
21
0.068026
31
0.0
0
LINE
8
0
6
CONTINUOUS
10
0.007732
20
0.064160
30
0.0
11
0.008624
21
0.066025
31
0.0
0
LINE
8
0
6
CONTINUOUS
10
-0.007732
20
0.064160
30
0.0
11
-0.006313
21
0.062559
31
0.0
0
LINE
8
0
6
CONTINUOUS
10
-0.004464
20
0.061330
30
0.0
11
-0.002311
21
0.060558
31
0.0
0
LINE
8
0
6
CONTINUOUS
10
-0.006313
20
0.062559
30
0.0
11
-0.004464
21
0.061330
31
0.0
0
LINE
8
0
6
CONTINUOUS
10
-0.002311
20
0.060558
30
0.0
11
-0.000000
21
0.060295
31
0.0
0
LINE
8
0
6
CONTINUOUS
10
-0.008928
20
0.068026
30
0.0
11
-0.008624
21
0.066025
31
0.0
0
LINE
8
0
6
CONTINUOUS
10
-0.008624
20
0.066025
30
0.0
11
-0.007732
21
0.064160
31
0.0
0
LINE
8
0
6
CONTINUOUS
10
-0.008928
20
0.068611
30
0.0
11
-0.008928
21
0.068169
31
0.0
0
LINE
8
0
6
CONTINUOUS
10
0.008928
20
0.068169
30
0.0
11
0.008928
21
0.068611
31
0.0
0
LINE
8
0
6
CONTINUOUS
10
-0.008928
20
0.068708
30
0.0
11
-0.008928
21
0.068611
31
0.0
0
LINE
8
0
6
CONTINUOUS
10
0.008928
20
0.068611
30
0.0
11
0.008928
21
0.068708
31
0.0
0
LINE
8
0
6
CONTINUOUS
10
0.003202
20
0.077085
30
0.0
11
0.006187
21
0.076013
31
0.0
0
LINE
8
0
6
CONTINUOUS
10
0.011953
20
0.069506
30
0.0
11
0.012375
21
0.066732
31
0.0
0
LINE
8
0
6
CONTINUOUS
10
-0.000000
20
0.077450
30
0.0
11
0.003202
21
0.077085
31
0.0
0
LINE
8
0
6
CONTINUOUS
10
0.006187
20
0.076013
30
0.0
11
0.008750
21
0.074311
31
0.0
0
LINE
8
0
6
CONTINUOUS
10
0.010717
20
0.072091
30
0.0
11
0.011953
21
0.069506
31
0.0
0
LINE
8
0
6
CONTINUOUS
10
0.008750
20
0.074311
30
0.0
11
0.010717
21
0.072091
31
0.0
0
LINE
8
0
6
CONTINUOUS
10
-0.006188
20
0.076013
30
0.0
11
-0.003202
21
0.077085
31
0.0
0
LINE
8
0
6
CONTINUOUS
10
-0.012375
20
0.066732
30
0.0
11
-0.011954
21
0.069506
31
0.0
0
LINE
8
0
6
CONTINUOUS
10
-0.003202
20
0.077085
30
0.0
11
-0.000000
21
0.077450
31
0.0
0
LINE
8
0
6
CONTINUOUS
10
-0.008751
20
0.074311
30
0.0
11
-0.006188
21
0.076013
31
0.0
0
LINE
8
0
6
CONTINUOUS
10
-0.011954
20
0.069506
30
0.0
11
-0.010717
21
0.072091
31
0.0
0
LINE
8
0
6
CONTINUOUS
10
-0.010717
20
0.072091
30
0.0
11
-0.008751
21
0.074311
31
0.0
0
LINE
8
0
6
CONTINUOUS
10
-0.007732
20
0.072574
30
0.0
11
-0.006313
21
0.074175
31
0.0
0
LINE
8
0
6
CONTINUOUS
10
-0.010717
20
0.061374
30
0.0
11
-0.008751
21
0.059154
31
0.0
0
LINE
8
0
6
CONTINUOUS
10
0.008750
20
0.059154
30
0.0
11
0.010717
21
0.061374
31
0.0
0
LINE
8
0
6
CONTINUOUS
10
-0.006187
20
0.057451
30
0.0
11
-0.003203
21
0.056381
31
0.0
0
LINE
8
0
6
CONTINUOUS
10
-0.012375
20
0.066732
30
0.0
11
-0.011954
21
0.063958
31
0.0
0
LINE
8
0
6
CONTINUOUS
10
0.011953
20
0.063958
30
0.0
11
0.012375
21
0.066732
31
0.0
0
LINE
8
0
6
CONTINUOUS
10
0.003203
20
0.056381
30
0.0
11
0.006187
21
0.057451
31
0.0
0
LINE
8
0
6
CONTINUOUS
10
-0.008751
20
0.059154
30
0.0
11
-0.006187
21
0.057451
31
0.0
0
LINE
8
0
6
CONTINUOUS
10
0.006187
20
0.057451
30
0.0
11
0.008750
21
0.059154
31
0.0
0
LINE
8
0
6
CONTINUOUS
10
-0.003203
20
0.056381
30
0.0
11
-0.000000
21
0.056015
31
0.0
0
LINE
8
0
6
CONTINUOUS
10
-0.000000
20
0.056015
30
0.0
11
0.003203
21
0.056381
31
0.0
0
LINE
8
0
6
CONTINUOUS
10
-0.011954
20
0.063958
30
0.0
11
-0.010717
21
0.061374
31
0.0
0
LINE
8
0
6
CONTINUOUS
10
0.010717
20
0.061374
30
0.0
11
0.011953
21
0.063958
31
0.0
0
LINE
8
0
6
CONTINUOUS
10
-0.008928
20
0.068026
30
0.0
11
-0.008624
21
0.070028
31
0.0
0
LINE
8
0
6
CONTINUOUS
10
-0.008928
20
0.068169
30
0.0
11
-0.008928
21
0.068026
31
0.0
0
LINE
8
0
6
CONTINUOUS
10
0.007732
20
0.071892
30
0.0
11
0.008624
21
0.070028
31
0.0
0
LINE
8
0
6
CONTINUOUS
10
-0.008624
20
0.070028
30
0.0
11
-0.007732
21
0.071892
31
0.0
0
LINE
8
0
6
CONTINUOUS
10
0.008928
20
0.068026
30
0.0
11
0.008928
21
0.068169
31
0.0
0
LINE
8
0
6
CONTINUOUS
10
0.008624
20
0.070028
30
0.0
11
0.008928
21
0.068026
31
0.0
0
LINE
8
0
6
CONTINUOUS
10
-0.002310
20
0.075495
30
0.0
11
-0.000000
21
0.075759
31
0.0
0
LINE
8
0
6
CONTINUOUS
10
-0.000000
20
0.075759
30
0.0
11
0.002310
21
0.075495
31
0.0
0
LINE
8
0
6
CONTINUOUS
10
-0.007732
20
0.071892
30
0.0
11
-0.006313
21
0.073493
31
0.0
0
LINE
8
0
6
CONTINUOUS
10
0.006313
20
0.073493
30
0.0
11
0.007732
21
0.071892
31
0.0
0
LINE
8
0
6
CONTINUOUS
10
0.004464
20
0.074722
30
0.0
11
0.006313
21
0.073493
31
0.0
0
LINE
8
0
6
CONTINUOUS
10
-0.006313
20
0.073493
30
0.0
11
-0.004464
21
0.074722
31
0.0
0
LINE
8
0
6
CONTINUOUS
10
-0.004464
20
0.074722
30
0.0
11
-0.002310
21
0.075495
31
0.0
0
LINE
8
0
6
CONTINUOUS
10
0.002310
20
0.076177
30
0.0
11
0.004464
21
0.075404
31
0.0
0
LINE
8
0
6
CONTINUOUS
10
0.008624
20
0.070709
30
0.0
11
0.008928
21
0.068708
31
0.0
0
LINE
8
0
6
CONTINUOUS
10
-0.000000
20
0.076440
30
0.0
11
0.002310
21
0.076177
31
0.0
0
LINE
8
0
6
CONTINUOUS
10
0.004464
20
0.075404
30
0.0
11
0.006313
21
0.074175
31
0.0
0
LINE
8
0
6
CONTINUOUS
10
0.007732
20
0.072574
30
0.0
11
0.008624
21
0.070709
31
0.0
0
LINE
8
0
6
CONTINUOUS
10
0.006313
20
0.074175
30
0.0
11
0.007732
21
0.072574
31
0.0
0
LINE
8
0
6
CONTINUOUS
10
-0.004464
20
0.075404
30
0.0
11
-0.002310
21
0.076177
31
0.0
0
LINE
8
0
6
CONTINUOUS
10
-0.008928
20
0.068708
30
0.0
11
-0.008624
21
0.070709
31
0.0
0
LINE
8
0
6
CONTINUOUS
10
-0.002310
20
0.076177
30
0.0
11
-0.000000
21
0.076440
31
0.0
0
LINE
8
0
6
CONTINUOUS
10
-0.006313
20
0.074175
30
0.0
11
-0.004464
21
0.075404
31
0.0
0
LINE
8
0
6
CONTINUOUS
10
-0.008624
20
0.070709
30
0.0
11
-0.007732
21
0.072574
31
0.0
0
LINE
8
0
6
CONTINUOUS
10
0.011953
20
0.065934
30
0.0
11
0.010717
21
0.063349
31
0.0
0
LINE
8
0
6
CONTINUOUS
10
-0.010717
20
0.063349
30
0.0
11
-0.011954
21
0.065934
31
0.0
0
LINE
8
0
6
CONTINUOUS
10
0.003203
20
0.058356
30
0.0
11
-0.000000
21
0.057991
31
0.0
0
LINE
8
0
6
CONTINUOUS
10
-0.000000
20
0.057991
30
0.0
11
-0.003203
21
0.058356
31
0.0
0
LINE
8
0
6
CONTINUOUS
10
0.008750
20
0.061129
30
0.0
11
0.006187
21
0.059427
31
0.0
0
LINE
8
0
6
CONTINUOUS
10
-0.006187
20
0.059427
30
0.0
11
-0.008751
21
0.061129
31
0.0
0
LINE
8
0
6
CONTINUOUS
10
0.006187
20
0.059427
30
0.0
11
0.003203
21
0.058356
31
0.0
0
LINE
8
0
6
CONTINUOUS
10
0.012375
20
0.068708
30
0.0
11
0.011953
21
0.065934
31
0.0
0
LINE
8
0
6
CONTINUOUS
10
-0.011954
20
0.065934
30
0.0
11
-0.012375
21
0.068708
31
0.0
0
LINE
8
0
6
CONTINUOUS
10
-0.003203
20
0.058356
30
0.0
11
-0.006187
21
0.059427
31
0.0
0
LINE
8
0
6
CONTINUOUS
10
0.010717
20
0.063349
30
0.0
11
0.008750
21
0.061129
31
0.0
0
LINE
8
0
6
CONTINUOUS
10
-0.008751
20
0.061129
30
0.0
11
-0.010717
21
0.063349
31
0.0
0
LINE
8
0
6
CONTINUOUS
10
0.002310
20
0.075495
30
0.0
11
0.004464
21
0.074722
31
0.0
0
LINE
8
0
6
CONTINUOUS
10
0.009899
20
0.058159
30
0.0
11
0.012124
21
0.060670
31
0.0
0
LINE
8
0
6
CONTINUOUS
10
0.003623
20
0.055021
30
0.0
11
0.007000
21
0.056232
31
0.0
0
LINE
8
0
6
CONTINUOUS
10
0.007000
20
0.056232
30
0.0
11
0.009899
21
0.058159
31
0.0
0
LINE
8
0
6
CONTINUOUS
10
-0.000000
20
0.054608
30
0.0
11
0.003623
21
0.055021
31
0.0
0
LINE
8
0
6
CONTINUOUS
10
0.013523
20
0.063594
30
0.0
11
0.013999
21
0.066732
31
0.0
0
LINE
8
0
6
CONTINUOUS
10
0.012124
20
0.060670
30
0.0
11
0.013523
21
0.063594
31
0.0
0
LINE
8
0
6
CONTINUOUS
10
-0.012124
20
0.060670
30
0.0
11
-0.009899
21
0.058159
31
0.0
0
LINE
8
0
6
CONTINUOUS
10
-0.007000
20
0.056232
30
0.0
11
-0.003624
21
0.055021
31
0.0
0
LINE
8
0
6
CONTINUOUS
10
-0.009899
20
0.058159
30
0.0
11
-0.007000
21
0.056232
31
0.0
0
LINE
8
0
6
CONTINUOUS
10
-0.003624
20
0.055021
30
0.0
11
-0.000000
21
0.054608
31
0.0
0
LINE
8
0
6
CONTINUOUS
10
-0.014000
20
0.066732
30
0.0
11
-0.013523
21
0.063594
31
0.0
0
LINE
8
0
6
CONTINUOUS
10
-0.013523
20
0.063594
30
0.0
11
-0.012124
21
0.060670
31
0.0
0
LINE
8
0
6
CONTINUOUS
10
0.013999
20
0.066732
30
0.0
11
0.013999
21
0.067316
31
0.0
0
LINE
8
0
6
CONTINUOUS
10
0.013523
20
0.069870
30
0.0
11
0.013999
21
0.066732
31
0.0
0
LINE
8
0
6
CONTINUOUS
10
-0.014000
20
0.066732
30
0.0
11
-0.013523
21
0.069870
31
0.0
0
LINE
8
0
6
CONTINUOUS
10
-0.014000
20
0.067316
30
0.0
11
-0.014000
21
0.066732
31
0.0
0
LINE
8
0
6
CONTINUOUS
10
0.013999
20
0.067316
30
0.0
11
0.013997
21
0.119985
31
0.0
0
LINE
8
0
6
CONTINUOUS
10
0.018861
20
0.129134
30
0.0
11
0.018861
21
0.130618
31
0.0
0
LINE
8
0
6
CONTINUOUS
10
-0.018861
20
0.130618
30
0.0
11
-0.018861
21
0.129134
31
0.0
0
LINE
8
0
6
CONTINUOUS
10
0.018861
20
-0.174098
30
0.0
11
0.018861
21
0.103162
31
0.0
0
LINE
8
0
6
CONTINUOUS
10
-0.018861
20
0.103162
30
0.0
11
-0.018861
21
-0.174098
31
0.0
0
LINE
8
0
6
CONTINUOUS
10
0.008830
20
0.144046
30
0.0
11
0.005639
21
0.144046
31
0.0
0
LINE
8
0
6
CONTINUOUS
10
-0.013997
20
0.119985
30
0.0
11
-0.014000
21
0.067316
31
0.0
0
LINE
8
0
6
CONTINUOUS
10
0.018861
20
0.130618
30
0.0
11
0.018861
21
0.143300
31
0.0
0
LINE
8
0
6
CONTINUOUS
10
-0.005639
20
0.144046
30
0.0
11
-0.008830
21
0.144046
31
0.0
0
LINE
8
0
6
CONTINUOUS
10
-0.018861
20
0.143300
30
0.0
11
-0.018861
21
0.130618
31
0.0
0
LINE
8
0
6
CONTINUOUS
10
0.018861
20
0.120713
30
0.0
11
0.018861
21
0.124923
31
0.0
0
LINE
8
0
6
CONTINUOUS
10
0.018861
20
0.115132
30
0.0
11
0.018861
21
0.120713
31
0.0
0
LINE
8
0
6
CONTINUOUS
10
0.018861
20
0.109799
30
0.0
11
0.018861
21
0.115132
31
0.0
0
LINE
8
0
6
CONTINUOUS
10
0.018861
20
0.105534
30
0.0
11
0.018861
21
0.109799
31
0.0
0
LINE
8
0
6
CONTINUOUS
10
0.018861
20
0.124923
30
0.0
11
0.018861
21
0.129134
31
0.0
0
LINE
8
0
6
CONTINUOUS
10
0.015637
20
0.144046
30
0.0
11
0.012599
21
0.144046
31
0.0
0
LINE
8
0
6
CONTINUOUS
10
0.018861
20
0.103162
30
0.0
11
0.018861
21
0.105534
31
0.0
0
LINE
8
0
6
CONTINUOUS
10
0.013997
20
0.119985
30
0.0
11
0.013997
21
0.120705
31
0.0
0
LINE
8
0
6
CONTINUOUS
10
0.003623
20
0.078444
30
0.0
11
0.007000
21
0.077232
31
0.0
0
LINE
8
0
6
CONTINUOUS
10
0.005639
20
0.144046
30
0.0
11
0.002273
21
0.144046
31
0.0
0
LINE
8
0
6
CONTINUOUS
10
-0.000000
20
0.078857
30
0.0
11
0.003623
21
0.078444
31
0.0
0
LINE
8
0
6
CONTINUOUS
10
0.012124
20
0.072794
30
0.0
11
0.013523
21
0.069870
31
0.0
0
LINE
8
0
6
CONTINUOUS
10
0.002273
20
0.144046
30
0.0
11
-0.000000
21
0.144046
31
0.0
0
LINE
8
0
6
CONTINUOUS
10
0.012599
20
0.144046
30
0.0
11
0.008830
21
0.144046
31
0.0
0
LINE
8
0
6
CONTINUOUS
10
0.009899
20
0.075306
30
0.0
11
0.012124
21
0.072794
31
0.0
0
LINE
8
0
6
CONTINUOUS
10
0.017765
20
0.144046
30
0.0
11
0.015637
21
0.144046
31
0.0
0
LINE
8
0
6
CONTINUOUS
10
0.018861
20
0.144046
30
0.0
11
0.017765
21
0.144046
31
0.0
0
LINE
8
0
6
CONTINUOUS
10
0.018861
20
0.143300
30
0.0
11
0.018861
21
0.144046
31
0.0
0
LINE
8
0
6
CONTINUOUS
10
0.007000
20
0.077232
30
0.0
11
0.009899
21
0.075306
31
0.0
0
LINE
8
0
6
CONTINUOUS
10
-0.018861
20
0.124923
30
0.0
11
-0.018861
21
0.120713
31
0.0
0
LINE
8
0
6
CONTINUOUS
10
-0.018861
20
0.120713
30
0.0
11
-0.018861
21
0.115132
31
0.0
0
LINE
8
0
6
CONTINUOUS
10
-0.018861
20
0.115132
30
0.0
11
-0.018861
21
0.109799
31
0.0
0
LINE
8
0
6
CONTINUOUS
10
-0.018861
20
0.109799
30
0.0
11
-0.018861
21
0.105534
31
0.0
0
LINE
8
0
6
CONTINUOUS
10
-0.018861
20
0.129134
30
0.0
11
-0.018861
21
0.124923
31
0.0
0
LINE
8
0
6
CONTINUOUS
10
-0.012599
20
0.144046
30
0.0
11
-0.015637
21
0.144046
31
0.0
0
LINE
8
0
6
CONTINUOUS
10
-0.018861
20
0.105534
30
0.0
11
-0.018861
21
0.103162
31
0.0
0
LINE
8
0
6
CONTINUOUS
10
-0.013997
20
0.120705
30
0.0
11
-0.013997
21
0.119985
31
0.0
0
LINE
8
0
6
CONTINUOUS
10
-0.007000
20
0.077232
30
0.0
11
-0.003623
21
0.078444
31
0.0
0
LINE
8
0
6
CONTINUOUS
10
-0.002273
20
0.144046
30
0.0
11
-0.005639
21
0.144046
31
0.0
0
LINE
8
0
6
CONTINUOUS
10
-0.003623
20
0.078444
30
0.0
11
-0.000000
21
0.078857
31
0.0
0
LINE
8
0
6
CONTINUOUS
10
-0.013523
20
0.069870
30
0.0
11
-0.012124
21
0.072794
31
0.0
0
LINE
8
0
6
CONTINUOUS
10
-0.000000
20
0.144046
30
0.0
11
-0.002273
21
0.144046
31
0.0
0
LINE
8
0
6
CONTINUOUS
10
-0.008830
20
0.144046
30
0.0
11
-0.012599
21
0.144046
31
0.0
0
LINE
8
0
6
CONTINUOUS
10
-0.012124
20
0.072794
30
0.0
11
-0.009899
21
0.075306
31
0.0
0
LINE
8
0
6
CONTINUOUS
10
-0.015637
20
0.144046
30
0.0
11
-0.017765
21
0.144046
31
0.0
0
LINE
8
0
6
CONTINUOUS
10
-0.018861
20
0.144046
30
0.0
11
-0.018861
21
0.143300
31
0.0
0
LINE
8
0
6
CONTINUOUS
10
-0.017765
20
0.144046
30
0.0
11
-0.018861
21
0.144046
31
0.0
0
LINE
8
0
6
CONTINUOUS
10
-0.009899
20
0.075306
30
0.0
11
-0.007000
21
0.077232
31
0.0
0
LINE
8
0
6
CONTINUOUS
10
0.022276
20
-0.177403
30
0.0
11
0.020350
21
-0.177052
31
0.0
0
LINE
8
0
6
CONTINUOUS
10
-0.020350
20
-0.177052
30
0.0
11
-0.022276
21
-0.177403
31
0.0
0
LINE
8
0
6
CONTINUOUS
10
0.022757
20
-0.181276
30
0.0
11
0.022757
21
-0.177887
31
0.0
0
LINE
8
0
6
CONTINUOUS
10
-0.022757
20
-0.177887
30
0.0
11
-0.022757
21
-0.181276
31
0.0
0
LINE
8
0
6
CONTINUOUS
10
0.022757
20
-0.177887
30
0.0
11
0.022757
21
-0.177491
31
0.0
0
LINE
8
0
6
CONTINUOUS
10
-0.022757
20
-0.177491
30
0.0
11
-0.022757
21
-0.177887
31
0.0
0
LINE
8
0
6
CONTINUOUS
10
-0.010654
20
-0.181454
30
0.0
11
-0.005486
21
-0.181454
31
0.0
0
LINE
8
0
6
CONTINUOUS
10
-0.015202
20
-0.181454
30
0.0
11
-0.010654
21
-0.181454
31
0.0
0
LINE
8
0
6
CONTINUOUS
10
0.015202
20
-0.181454
30
0.0
11
0.018866
21
-0.181454
31
0.0
0
LINE
8
0
6
CONTINUOUS
10
-0.018866
20
-0.181454
30
0.0
11
-0.015202
21
-0.181454
31
0.0
0
LINE
8
0
6
CONTINUOUS
10
-0.000000
20
-0.181454
30
0.0
11
0.005486
21
-0.181454
31
0.0
0
LINE
8
0
6
CONTINUOUS
10
0.022757
20
-0.181454
30
0.0
11
0.022757
21
-0.181276
31
0.0
0
LINE
8
0
6
CONTINUOUS
10
0.021435
20
-0.181454
30
0.0
11
0.022757
21
-0.181454
31
0.0
0
LINE
8
0
6
CONTINUOUS
10
-0.005486
20
-0.181454
30
0.0
11
-0.000000
21
-0.181454
31
0.0
0
LINE
8
0
6
CONTINUOUS
10
0.018866
20
-0.181454
30
0.0
11
0.021435
21
-0.181454
31
0.0
0
LINE
8
0
6
CONTINUOUS
10
-0.021435
20
-0.181454
30
0.0
11
-0.018866
21
-0.181454
31
0.0
0
LINE
8
0
6
CONTINUOUS
10
-0.022757
20
-0.181454
30
0.0
11
-0.021435
21
-0.181454
31
0.0
0
LINE
8
0
6
CONTINUOUS
10
-0.022757
20
-0.181276
30
0.0
11
-0.022757
21
-0.181454
31
0.0
0
LINE
8
0
6
CONTINUOUS
10
0.005486
20
-0.181454
30
0.0
11
0.010654
21
-0.181454
31
0.0
0
LINE
8
0
6
CONTINUOUS
10
-0.015202
20
-0.177491
30
0.0
11
-0.010654
21
-0.177491
31
0.0
0
LINE
8
0
6
CONTINUOUS
10
-0.010654
20
-0.177491
30
0.0
11
-0.005486
21
-0.177491
31
0.0
0
LINE
8
0
6
CONTINUOUS
10
0.015202
20
-0.177491
30
0.0
11
0.018866
21
-0.177491
31
0.0
0
LINE
8
0
6
CONTINUOUS
10
-0.018866
20
-0.177491
30
0.0
11
-0.015202
21
-0.177491
31
0.0
0
LINE
8
0
6
CONTINUOUS
10
-0.000000
20
-0.177491
30
0.0
11
0.005486
21
-0.177491
31
0.0
0
LINE
8
0
6
CONTINUOUS
10
-0.005486
20
-0.177491
30
0.0
11
-0.000000
21
-0.177491
31
0.0
0
LINE
8
0
6
CONTINUOUS
10
0.022757
20
-0.177491
30
0.0
11
0.022276
21
-0.177403
31
0.0
0
LINE
8
0
6
CONTINUOUS
10
0.021435
20
-0.177491
30
0.0
11
0.022757
21
-0.177491
31
0.0
0
LINE
8
0
6
CONTINUOUS
10
0.018866
20
-0.177491
30
0.0
11
0.021435
21
-0.177491
31
0.0
0
LINE
8
0
6
CONTINUOUS
10
-0.022757
20
-0.177491
30
0.0
11
-0.021435
21
-0.177491
31
0.0
0
LINE
8
0
6
CONTINUOUS
10
-0.022276
20
-0.177403
30
0.0
11
-0.022757
21
-0.177491
31
0.0
0
LINE
8
0
6
CONTINUOUS
10
-0.021435
20
-0.177491
30
0.0
11
-0.018866
21
-0.177491
31
0.0
0
LINE
8
0
6
CONTINUOUS
10
0.005486
20
-0.177491
30
0.0
11
0.010654
21
-0.177491
31
0.0
0
LINE
8
0
6
CONTINUOUS
10
0.010654
20
-0.181454
30
0.0
11
0.015202
21
-0.181454
31
0.0
0
LINE
8
0
6
CONTINUOUS
10
0.020350
20
-0.177052
30
0.0
11
0.019260
21
-0.175954
31
0.0
0
LINE
8
0
6
CONTINUOUS
10
-0.019260
20
-0.175954
30
0.0
11
-0.020350
21
-0.177052
31
0.0
0
LINE
8
0
6
CONTINUOUS
10
0.010654
20
-0.177491
30
0.0
11
0.015202
21
-0.177491
31
0.0
0
LINE
8
0
6
CONTINUOUS
10
-0.018861
20
-0.174454
30
0.0
11
-0.019260
21
-0.175954
31
0.0
0
ENDSEC
0
EOF
