999
Erzeugt mit innoplus bad 
0
SECTION
2
HEADER
9
$ACADVER
1
AC1009
9
$DWGCODEPAGE
3
ISO8859-1
0
ENDSEC
0
SECTION
2
TABLES
0
TABLE
2
LAYER
70
1
0
LAYER
2
0
70
0
62
7
6
CONTINUOUS
0
ENDTAB
0
ENDSEC
0
SECTION
2
ENTITIES
0
LINE
8
0
6
CONTINUOUS
10
-0.016899
20
0.038596
30
0.0
11
-0.014377
21
0.034888
31
0.0
0
LINE
8
0
6
CONTINUOUS
10
-0.016899
20
0.038596
30
0.0
11
-0.014549
21
0.034888
31
0.0
0
LINE
8
0
6
CONTINUOUS
10
-0.014454
20
0.034888
30
0.0
11
-0.011546
21
0.031882
31
0.0
0
LINE
8
0
6
CONTINUOUS
10
-0.016899
20
0.038596
30
0.0
11
-0.014454
21
0.034888
31
0.0
0
LINE
8
0
6
CONTINUOUS
10
-0.004549
20
0.019949
30
0.0
11
-0.004504
21
-0.031559
31
0.0
0
LINE
8
0
6
CONTINUOUS
10
-0.004672
20
0.027659
30
0.0
11
-0.004489
21
0.026519
31
0.0
0
LINE
8
0
6
CONTINUOUS
10
-0.011397
20
0.031882
30
0.0
11
-0.007532
21
0.029591
31
0.0
0
LINE
8
0
6
CONTINUOUS
10
-0.011546
20
0.031882
30
0.0
11
-0.007532
21
0.029591
31
0.0
0
LINE
8
0
6
CONTINUOUS
10
-0.006493
20
0.029045
30
0.0
11
-0.005457
21
0.028485
31
0.0
0
LINE
8
0
6
CONTINUOUS
10
-0.016899
20
0.038596
30
0.0
11
-0.014296
21
0.034888
31
0.0
0
LINE
8
0
6
CONTINUOUS
10
-0.005457
20
0.028485
30
0.0
11
-0.004685
21
0.027603
31
0.0
0
LINE
8
0
6
CONTINUOUS
10
-0.004553
20
0.025288
30
0.0
11
-0.004549
21
0.019949
31
0.0
0
LINE
8
0
6
CONTINUOUS
10
-0.004537
20
0.026510
30
0.0
11
-0.004553
21
0.025288
31
0.0
0
LINE
8
0
6
CONTINUOUS
10
-0.006416
20
0.029107
30
0.0
11
-0.007532
21
0.029591
31
0.0
0
LINE
8
0
6
CONTINUOUS
10
-0.007532
20
0.029591
30
0.0
11
-0.006493
21
0.029045
31
0.0
0
LINE
8
0
6
CONTINUOUS
10
-0.007532
20
0.029591
30
0.0
11
-0.006416
21
0.029107
31
0.0
0
LINE
8
0
6
CONTINUOUS
10
-0.004713
20
0.027646
30
0.0
11
-0.004537
21
0.026510
31
0.0
0
LINE
8
0
6
CONTINUOUS
10
-0.004274
20
-0.031559
30
0.0
11
-0.004282
21
0.019944
31
0.0
0
LINE
8
0
6
CONTINUOUS
10
-0.004500
20
0.019944
30
0.0
11
-0.004492
21
-0.031559
31
0.0
0
LINE
8
0
6
CONTINUOUS
10
-0.011372
20
0.031882
30
0.0
11
-0.007532
21
0.029591
31
0.0
0
LINE
8
0
6
CONTINUOUS
10
-0.018324
20
0.042737
30
0.0
11
-0.016899
21
0.038596
31
0.0
0
LINE
8
0
6
CONTINUOUS
10
-0.007532
20
0.029591
30
0.0
11
-0.006405
21
0.029111
31
0.0
0
LINE
8
0
6
CONTINUOUS
10
-0.005356
20
0.028523
30
0.0
11
-0.004672
21
0.027659
31
0.0
0
LINE
8
0
6
CONTINUOUS
10
-0.006405
20
0.029111
30
0.0
11
-0.005356
21
0.028523
31
0.0
0
LINE
8
0
6
CONTINUOUS
10
-0.004504
20
0.025288
30
0.0
11
-0.004500
21
0.019944
31
0.0
0
LINE
8
0
6
CONTINUOUS
10
-0.004286
20
0.025288
30
0.0
11
-0.004270
21
0.026570
31
0.0
0
LINE
8
0
6
CONTINUOUS
10
-0.004489
20
0.026519
30
0.0
11
-0.004504
21
0.025288
31
0.0
0
LINE
8
0
6
CONTINUOUS
10
-0.002780
20
-0.032256
30
0.0
11
-0.001390
21
-0.032256
31
0.0
0
LINE
8
0
6
CONTINUOUS
10
-0.016899
20
0.038596
30
0.0
11
-0.014238
21
0.034888
31
0.0
0
LINE
8
0
6
CONTINUOUS
10
-0.001390
20
-0.032256
30
0.0
11
-0.000060
21
-0.032256
31
0.0
0
LINE
8
0
6
CONTINUOUS
10
-0.004492
20
-0.031559
30
0.0
11
-0.004492
21
-0.031854
31
0.0
0
LINE
8
0
6
CONTINUOUS
10
-0.000060
20
0.065503
30
0.0
11
-0.004229
21
0.065026
31
0.0
0
LINE
8
0
6
CONTINUOUS
10
-0.008190
20
0.063630
30
0.0
11
-0.011738
21
0.061374
31
0.0
0
LINE
8
0
6
CONTINUOUS
10
-0.011738
20
0.061374
30
0.0
11
-0.014688
21
0.058377
31
0.0
0
LINE
8
0
6
CONTINUOUS
10
-0.014688
20
0.058377
30
0.0
11
-0.016903
21
0.054817
31
0.0
0
LINE
8
0
6
CONTINUOUS
10
-0.016903
20
0.054817
30
0.0
11
-0.018281
21
0.050844
31
0.0
0
LINE
8
0
6
CONTINUOUS
10
-0.018281
20
0.050844
30
0.0
11
-0.018771
21
0.046665
31
0.0
0
LINE
8
0
6
CONTINUOUS
10
-0.004229
20
0.065026
30
0.0
11
-0.008190
21
0.063630
31
0.0
0
LINE
8
0
6
CONTINUOUS
10
-0.014238
20
0.034888
30
0.0
11
-0.011372
21
0.031882
31
0.0
0
LINE
8
0
6
CONTINUOUS
10
-0.018771
20
0.046665
30
0.0
11
-0.018324
21
0.042737
31
0.0
0
LINE
8
0
6
CONTINUOUS
10
-0.004492
20
-0.031854
30
0.0
11
-0.004371
21
-0.032031
31
0.0
0
LINE
8
0
6
CONTINUOUS
10
-0.004371
20
-0.032031
30
0.0
11
-0.004167
21
-0.032256
31
0.0
0
LINE
8
0
6
CONTINUOUS
10
-0.004071
20
-0.032256
30
0.0
11
-0.002780
21
-0.032256
31
0.0
0
LINE
8
0
6
CONTINUOUS
10
-0.011235
20
0.032054
30
0.0
11
-0.007434
21
0.029787
31
0.0
0
LINE
8
0
6
CONTINUOUS
10
-0.018110
20
0.042786
30
0.0
11
-0.016703
21
0.038698
31
0.0
0
LINE
8
0
6
CONTINUOUS
10
-0.007434
20
0.029787
30
0.0
11
-0.006260
21
0.029285
31
0.0
0
LINE
8
0
6
CONTINUOUS
10
-0.005170
20
0.028664
30
0.0
11
-0.004460
21
0.027759
31
0.0
0
LINE
8
0
6
CONTINUOUS
10
-0.006260
20
0.029285
30
0.0
11
-0.005170
21
0.028664
31
0.0
0
LINE
8
0
6
CONTINUOUS
10
-0.004286
20
0.025288
30
0.0
11
-0.004282
21
0.019944
31
0.0
0
LINE
8
0
6
CONTINUOUS
10
-0.004460
20
0.027759
30
0.0
11
-0.004270
21
0.026570
31
0.0
0
LINE
8
0
6
CONTINUOUS
10
-0.002779
20
-0.032046
30
0.0
11
-0.001389
21
-0.032049
31
0.0
0
LINE
8
0
6
CONTINUOUS
10
-0.016703
20
0.038698
30
0.0
11
-0.014070
21
0.035028
31
0.0
0
LINE
8
0
6
CONTINUOUS
10
-0.001389
20
-0.032049
30
0.0
11
-0.000060
21
-0.032051
31
0.0
0
LINE
8
0
6
CONTINUOUS
10
-0.004274
20
-0.031559
30
0.0
11
-0.004274
21
-0.031786
31
0.0
0
LINE
8
0
6
CONTINUOUS
10
-0.000060
20
0.065283
30
0.0
11
-0.004179
21
0.064812
31
0.0
0
LINE
8
0
6
CONTINUOUS
10
-0.008094
20
0.063432
30
0.0
11
-0.011600
21
0.061203
31
0.0
0
LINE
8
0
6
CONTINUOUS
10
-0.011600
20
0.061203
30
0.0
11
-0.014516
21
0.058241
31
0.0
0
LINE
8
0
6
CONTINUOUS
10
-0.014516
20
0.058241
30
0.0
11
-0.016704
21
0.054722
31
0.0
0
LINE
8
0
6
CONTINUOUS
10
-0.016704
20
0.054722
30
0.0
11
-0.018067
21
0.050795
31
0.0
0
LINE
8
0
6
CONTINUOUS
10
-0.018067
20
0.050795
30
0.0
11
-0.018552
21
0.046664
31
0.0
0
LINE
8
0
6
CONTINUOUS
10
-0.004179
20
0.064812
30
0.0
11
-0.008094
21
0.063432
31
0.0
0
LINE
8
0
6
CONTINUOUS
10
-0.014070
20
0.035028
30
0.0
11
-0.011235
21
0.032054
31
0.0
0
LINE
8
0
6
CONTINUOUS
10
-0.018552
20
0.046664
30
0.0
11
-0.018110
21
0.042786
31
0.0
0
LINE
8
0
6
CONTINUOUS
10
-0.004274
20
-0.031786
30
0.0
11
-0.004199
21
-0.031896
31
0.0
0
LINE
8
0
6
CONTINUOUS
10
-0.004199
20
-0.031896
30
0.0
11
-0.004070
21
-0.032043
31
0.0
0
LINE
8
0
6
CONTINUOUS
10
-0.003980
20
-0.032045
30
0.0
11
-0.002779
21
-0.032046
31
0.0
0
LINE
8
0
6
CONTINUOUS
10
-0.003980
20
-0.032045
30
0.0
11
-0.004070
21
-0.032043
31
0.0
0
LINE
8
0
6
CONTINUOUS
10
-0.004167
20
-0.032256
30
0.0
11
-0.004071
21
-0.032256
31
0.0
0
LINE
8
0
6
CONTINUOUS
10
-0.016899
20
0.038596
30
0.0
11
-0.014554
21
0.034888
31
0.0
0
LINE
8
0
6
CONTINUOUS
10
0.014257
20
0.034888
30
0.0
11
0.016779
21
0.038596
31
0.0
0
LINE
8
0
6
CONTINUOUS
10
0.014429
20
0.034888
30
0.0
11
0.016779
21
0.038596
31
0.0
0
LINE
8
0
6
CONTINUOUS
10
0.011427
20
0.031882
30
0.0
11
0.014334
21
0.034888
31
0.0
0
LINE
8
0
6
CONTINUOUS
10
0.004384
20
-0.031559
30
0.0
11
0.004429
21
0.019949
31
0.0
0
LINE
8
0
6
CONTINUOUS
10
0.007412
20
0.029591
30
0.0
11
0.011277
21
0.031882
31
0.0
0
LINE
8
0
6
CONTINUOUS
10
0.007412
20
0.029591
30
0.0
11
0.011427
21
0.031882
31
0.0
0
LINE
8
0
6
CONTINUOUS
10
0.005337
20
0.028485
30
0.0
11
0.006373
21
0.029045
31
0.0
0
LINE
8
0
6
CONTINUOUS
10
0.014176
20
0.034888
30
0.0
11
0.016779
21
0.038596
31
0.0
0
LINE
8
0
6
CONTINUOUS
10
0.004565
20
0.027603
30
0.0
11
0.005337
21
0.028485
31
0.0
0
LINE
8
0
6
CONTINUOUS
10
0.004429
20
0.019949
30
0.0
11
0.004433
21
0.025288
31
0.0
0
LINE
8
0
6
CONTINUOUS
10
0.004433
20
0.025288
30
0.0
11
0.004418
21
0.026510
31
0.0
0
LINE
8
0
6
CONTINUOUS
10
0.007412
20
0.029591
30
0.0
11
0.006296
21
0.029107
31
0.0
0
LINE
8
0
6
CONTINUOUS
10
0.006373
20
0.029045
30
0.0
11
0.007412
21
0.029591
31
0.0
0
LINE
8
0
6
CONTINUOUS
10
0.006296
20
0.029107
30
0.0
11
0.007412
21
0.029591
31
0.0
0
LINE
8
0
6
CONTINUOUS
10
0.004418
20
0.026510
30
0.0
11
0.004593
21
0.027646
31
0.0
0
LINE
8
0
6
CONTINUOUS
10
0.004552
20
0.027659
30
0.0
11
0.004369
21
0.026519
31
0.0
0
LINE
8
0
6
CONTINUOUS
10
0.004373
20
-0.031559
30
0.0
11
0.004380
21
0.019944
31
0.0
0
LINE
8
0
6
CONTINUOUS
10
0.004162
20
0.019944
30
0.0
11
0.004154
21
-0.031559
31
0.0
0
LINE
8
0
6
CONTINUOUS
10
0.007412
20
0.029591
30
0.0
11
0.011253
21
0.031882
31
0.0
0
LINE
8
0
6
CONTINUOUS
10
0.016779
20
0.038596
30
0.0
11
0.018205
21
0.042737
31
0.0
0
LINE
8
0
6
CONTINUOUS
10
0.006285
20
0.029111
30
0.0
11
0.007412
21
0.029591
31
0.0
0
LINE
8
0
6
CONTINUOUS
10
0.004552
20
0.027659
30
0.0
11
0.005236
21
0.028523
31
0.0
0
LINE
8
0
6
CONTINUOUS
10
0.005236
20
0.028523
30
0.0
11
0.006285
21
0.029111
31
0.0
0
LINE
8
0
6
CONTINUOUS
10
0.004380
20
0.019944
30
0.0
11
0.004384
21
0.025288
31
0.0
0
LINE
8
0
6
CONTINUOUS
10
0.004384
20
0.025288
30
0.0
11
0.004369
21
0.026519
31
0.0
0
LINE
8
0
6
CONTINUOUS
10
0.004150
20
0.026570
30
0.0
11
0.004166
21
0.025288
31
0.0
0
LINE
8
0
6
CONTINUOUS
10
0.001270
20
-0.032256
30
0.0
11
0.002660
21
-0.032256
31
0.0
0
LINE
8
0
6
CONTINUOUS
10
0.014118
20
0.034888
30
0.0
11
0.016779
21
0.038596
31
0.0
0
LINE
8
0
6
CONTINUOUS
10
-0.000060
20
-0.032256
30
0.0
11
0.001270
21
-0.032256
31
0.0
0
LINE
8
0
6
CONTINUOUS
10
0.004372
20
-0.031854
30
0.0
11
0.004373
21
-0.031559
31
0.0
0
LINE
8
0
6
CONTINUOUS
10
0.004109
20
0.065026
30
0.0
11
-0.000060
21
0.065503
31
0.0
0
LINE
8
0
6
CONTINUOUS
10
0.011619
20
0.061374
30
0.0
11
0.008071
21
0.063630
31
0.0
0
LINE
8
0
6
CONTINUOUS
10
0.014569
20
0.058377
30
0.0
11
0.011619
21
0.061374
31
0.0
0
LINE
8
0
6
CONTINUOUS
10
0.016783
20
0.054817
30
0.0
11
0.014569
21
0.058377
31
0.0
0
LINE
8
0
6
CONTINUOUS
10
0.018162
20
0.050844
30
0.0
11
0.016783
21
0.054817
31
0.0
0
LINE
8
0
6
CONTINUOUS
10
0.018652
20
0.046665
30
0.0
11
0.018162
21
0.050844
31
0.0
0
LINE
8
0
6
CONTINUOUS
10
0.008071
20
0.063630
30
0.0
11
0.004109
21
0.065026
31
0.0
0
LINE
8
0
6
CONTINUOUS
10
0.011253
20
0.031882
30
0.0
11
0.014118
21
0.034888
31
0.0
0
LINE
8
0
6
CONTINUOUS
10
0.018205
20
0.042737
30
0.0
11
0.018652
21
0.046665
31
0.0
0
LINE
8
0
6
CONTINUOUS
10
0.004251
20
-0.032031
30
0.0
11
0.004372
21
-0.031854
31
0.0
0
LINE
8
0
6
CONTINUOUS
10
0.004047
20
-0.032256
30
0.0
11
0.004251
21
-0.032031
31
0.0
0
LINE
8
0
6
CONTINUOUS
10
0.002660
20
-0.032256
30
0.0
11
0.003951
21
-0.032256
31
0.0
0
LINE
8
0
6
CONTINUOUS
10
0.007314
20
0.029787
30
0.0
11
0.011116
21
0.032054
31
0.0
0
LINE
8
0
6
CONTINUOUS
10
0.016583
20
0.038698
30
0.0
11
0.017991
21
0.042786
31
0.0
0
LINE
8
0
6
CONTINUOUS
10
0.006140
20
0.029285
30
0.0
11
0.007314
21
0.029787
31
0.0
0
LINE
8
0
6
CONTINUOUS
10
0.004340
20
0.027759
30
0.0
11
0.005050
21
0.028664
31
0.0
0
LINE
8
0
6
CONTINUOUS
10
0.005050
20
0.028664
30
0.0
11
0.006140
21
0.029285
31
0.0
0
LINE
8
0
6
CONTINUOUS
10
0.004162
20
0.019944
30
0.0
11
0.004166
21
0.025288
31
0.0
0
LINE
8
0
6
CONTINUOUS
10
0.004150
20
0.026570
30
0.0
11
0.004340
21
0.027759
31
0.0
0
LINE
8
0
6
CONTINUOUS
10
0.001269
20
-0.032049
30
0.0
11
0.002659
21
-0.032046
31
0.0
0
LINE
8
0
6
CONTINUOUS
10
0.013950
20
0.035028
30
0.0
11
0.016583
21
0.038698
31
0.0
0
LINE
8
0
6
CONTINUOUS
10
-0.000060
20
-0.032051
30
0.0
11
0.001269
21
-0.032049
31
0.0
0
LINE
8
0
6
CONTINUOUS
10
0.004154
20
-0.031786
30
0.0
11
0.004154
21
-0.031559
31
0.0
0
LINE
8
0
6
CONTINUOUS
10
0.004060
20
0.064812
30
0.0
11
-0.000060
21
0.065283
31
0.0
0
LINE
8
0
6
CONTINUOUS
10
0.011481
20
0.061203
30
0.0
11
0.007975
21
0.063432
31
0.0
0
LINE
8
0
6
CONTINUOUS
10
0.014396
20
0.058241
30
0.0
11
0.011481
21
0.061203
31
0.0
0
LINE
8
0
6
CONTINUOUS
10
0.016585
20
0.054722
30
0.0
11
0.014396
21
0.058241
31
0.0
0
LINE
8
0
6
CONTINUOUS
10
0.017948
20
0.050795
30
0.0
11
0.016585
21
0.054722
31
0.0
0
LINE
8
0
6
CONTINUOUS
10
0.018432
20
0.046664
30
0.0
11
0.017948
21
0.050795
31
0.0
0
LINE
8
0
6
CONTINUOUS
10
0.007975
20
0.063432
30
0.0
11
0.004060
21
0.064812
31
0.0
0
LINE
8
0
6
CONTINUOUS
10
0.011116
20
0.032054
30
0.0
11
0.013950
21
0.035028
31
0.0
0
LINE
8
0
6
CONTINUOUS
10
0.017991
20
0.042786
30
0.0
11
0.018432
21
0.046664
31
0.0
0
LINE
8
0
6
CONTINUOUS
10
0.004079
20
-0.031896
30
0.0
11
0.004154
21
-0.031786
31
0.0
0
LINE
8
0
6
CONTINUOUS
10
0.003951
20
-0.032043
30
0.0
11
0.004079
21
-0.031896
31
0.0
0
LINE
8
0
6
CONTINUOUS
10
0.002659
20
-0.032046
30
0.0
11
0.003860
21
-0.032045
31
0.0
0
LINE
8
0
6
CONTINUOUS
10
0.003951
20
-0.032256
30
0.0
11
0.004047
21
-0.032256
31
0.0
0
LINE
8
0
6
CONTINUOUS
10
0.003951
20
-0.032043
30
0.0
11
0.003860
21
-0.032045
31
0.0
0
LINE
8
0
6
CONTINUOUS
10
0.014434
20
0.034888
30
0.0
11
0.016779
21
0.038596
31
0.0
0
LINE
8
0
6
CONTINUOUS
10
0.018861
20
0.047859
30
0.0
11
0.017765
21
0.052306
31
0.0
0
LINE
8
0
6
CONTINUOUS
10
0.018861
20
0.043279
30
0.0
11
0.018861
21
0.047859
31
0.0
0
LINE
8
0
6
CONTINUOUS
10
0.005639
20
0.027461
30
0.0
11
0.008830
21
0.028745
31
0.0
0
LINE
8
0
6
CONTINUOUS
10
0.017765
20
0.038831
30
0.0
11
0.018861
21
0.043279
31
0.0
0
LINE
8
0
6
CONTINUOUS
10
0.015637
20
0.034775
30
0.0
11
0.017765
21
0.038831
31
0.0
0
LINE
8
0
6
CONTINUOUS
10
0.012599
20
0.031347
30
0.0
11
0.015637
21
0.034775
31
0.0
0
LINE
8
0
6
CONTINUOUS
10
-0.018861
20
0.047859
30
0.0
11
-0.018861
21
0.043279
31
0.0
0
LINE
8
0
6
CONTINUOUS
10
-0.008830
20
0.028745
30
0.0
11
-0.005639
21
0.027462
31
0.0
0
LINE
8
0
6
CONTINUOUS
10
-0.018861
20
0.043279
30
0.0
11
-0.017765
21
0.038831
31
0.0
0
LINE
8
0
6
CONTINUOUS
10
-0.017765
20
0.038831
30
0.0
11
-0.015637
21
0.034775
31
0.0
0
LINE
8
0
6
CONTINUOUS
10
-0.015637
20
0.034775
30
0.0
11
-0.012599
21
0.031347
31
0.0
0
LINE
8
0
6
CONTINUOUS
10
0.013999
20
-0.061495
30
0.0
11
0.013999
21
-0.060491
31
0.0
0
LINE
8
0
6
CONTINUOUS
10
0.013523
20
-0.063307
30
0.0
11
0.013999
21
-0.061495
31
0.0
0
LINE
8
0
6
CONTINUOUS
10
-0.014000
20
-0.061495
30
0.0
11
-0.013523
21
-0.063307
31
0.0
0
LINE
8
0
6
CONTINUOUS
10
-0.014000
20
-0.060491
30
0.0
11
-0.014000
21
-0.061495
31
0.0
0
LINE
8
0
6
CONTINUOUS
10
0.013999
20
-0.060491
30
0.0
11
0.013997
21
0.030126
31
0.0
0
LINE
8
0
6
CONTINUOUS
10
0.006035
20
0.027583
30
0.0
11
0.008861
21
0.028762
31
0.0
0
LINE
8
0
6
CONTINUOUS
10
0.005670
20
0.027471
30
0.0
11
0.006035
21
0.027583
31
0.0
0
LINE
8
0
6
CONTINUOUS
10
-0.008861
20
0.028762
30
0.0
11
-0.006035
21
0.027583
31
0.0
0
LINE
8
0
6
CONTINUOUS
10
-0.006035
20
0.027583
30
0.0
11
-0.005670
21
0.027471
31
0.0
0
LINE
8
0
6
CONTINUOUS
10
0.009267
20
0.028983
30
0.0
11
0.009314
21
0.029009
31
0.0
0
LINE
8
0
6
CONTINUOUS
10
-0.009314
20
0.029009
30
0.0
11
-0.009267
21
0.028983
31
0.0
0
LINE
8
0
6
CONTINUOUS
10
-0.013997
20
0.030126
30
0.0
11
-0.014000
21
-0.060491
31
0.0
0
LINE
8
0
6
CONTINUOUS
10
0.008861
20
0.028762
30
0.0
11
0.009267
21
0.028983
31
0.0
0
LINE
8
0
6
CONTINUOUS
10
-0.009267
20
0.028983
30
0.0
11
-0.008861
21
0.028762
31
0.0
0
LINE
8
0
6
CONTINUOUS
10
0.014826
20
0.033686
30
0.0
11
0.015637
21
0.034775
31
0.0
0
LINE
8
0
6
CONTINUOUS
10
0.014270
20
0.033028
30
0.0
11
0.015637
21
0.034775
31
0.0
0
LINE
8
0
6
CONTINUOUS
10
0.014410
20
0.032962
30
0.0
11
0.014826
21
0.033686
31
0.0
0
LINE
8
0
6
CONTINUOUS
10
0.014113
20
0.032192
30
0.0
11
0.014410
21
0.032962
31
0.0
0
LINE
8
0
6
CONTINUOUS
10
0.013997
20
0.030126
30
0.0
11
0.013996
21
0.031365
31
0.0
0
LINE
8
0
6
CONTINUOUS
10
0.003623
20
-0.068257
30
0.0
11
0.007000
21
-0.067557
31
0.0
0
LINE
8
0
6
CONTINUOUS
10
-0.000000
20
-0.068495
30
0.0
11
0.003623
21
-0.068257
31
0.0
0
LINE
8
0
6
CONTINUOUS
10
0.012124
20
-0.064996
30
0.0
11
0.013523
21
-0.063307
31
0.0
0
LINE
8
0
6
CONTINUOUS
10
0.012599
20
0.031347
30
0.0
11
0.008830
21
0.028745
31
0.0
0
LINE
8
0
6
CONTINUOUS
10
0.009899
20
-0.066446
30
0.0
11
0.012124
21
-0.064996
31
0.0
0
LINE
8
0
6
CONTINUOUS
10
0.013996
20
0.031365
30
0.0
11
0.014113
21
0.032192
31
0.0
0
LINE
8
0
6
CONTINUOUS
10
0.007000
20
-0.067557
30
0.0
11
0.009899
21
-0.066446
31
0.0
0
LINE
8
0
6
CONTINUOUS
10
-0.015637
20
0.034775
30
0.0
11
-0.014826
21
0.033686
31
0.0
0
LINE
8
0
6
CONTINUOUS
10
-0.015637
20
0.034775
30
0.0
11
-0.014270
21
0.033028
31
0.0
0
LINE
8
0
6
CONTINUOUS
10
-0.014826
20
0.033686
30
0.0
11
-0.014410
21
0.032962
31
0.0
0
LINE
8
0
6
CONTINUOUS
10
-0.014410
20
0.032962
30
0.0
11
-0.014113
21
0.032192
31
0.0
0
LINE
8
0
6
CONTINUOUS
10
-0.013997
20
0.031365
30
0.0
11
-0.013997
21
0.030126
31
0.0
0
LINE
8
0
6
CONTINUOUS
10
-0.007000
20
-0.067557
30
0.0
11
-0.003623
21
-0.068257
31
0.0
0
LINE
8
0
6
CONTINUOUS
10
-0.003623
20
-0.068257
30
0.0
11
-0.000000
21
-0.068495
31
0.0
0
LINE
8
0
6
CONTINUOUS
10
-0.013523
20
-0.063307
30
0.0
11
-0.012124
21
-0.064995
31
0.0
0
LINE
8
0
6
CONTINUOUS
10
-0.008830
20
0.028745
30
0.0
11
-0.012599
21
0.031347
31
0.0
0
LINE
8
0
6
CONTINUOUS
10
-0.012124
20
-0.064995
30
0.0
11
-0.009899
21
-0.066446
31
0.0
0
LINE
8
0
6
CONTINUOUS
10
-0.014113
20
0.032192
30
0.0
11
-0.013997
21
0.031365
31
0.0
0
LINE
8
0
6
CONTINUOUS
10
-0.009899
20
-0.066446
30
0.0
11
-0.007000
21
-0.067557
31
0.0
0
LINE
8
0
6
CONTINUOUS
10
-0.015202
20
0.028410
30
0.0
11
-0.013997
21
0.027578
31
0.0
0
LINE
8
0
6
CONTINUOUS
10
0.022757
20
0.048332
30
0.0
11
0.021435
21
0.053698
31
0.0
0
LINE
8
0
6
CONTINUOUS
10
-0.015202
20
0.062728
30
0.0
11
-0.018866
21
0.058592
31
0.0
0
LINE
8
0
6
CONTINUOUS
10
0.015202
20
0.028410
30
0.0
11
0.018866
21
0.032546
31
0.0
0
LINE
8
0
6
CONTINUOUS
10
0.021435
20
0.053698
30
0.0
11
0.018866
21
0.058592
31
0.0
0
LINE
8
0
6
CONTINUOUS
10
-0.018866
20
0.032546
30
0.0
11
-0.015202
21
0.028410
31
0.0
0
LINE
8
0
6
CONTINUOUS
10
-0.018866
20
0.058592
30
0.0
11
-0.021435
21
0.053698
31
0.0
0
LINE
8
0
6
CONTINUOUS
10
0.010653
20
0.065867
30
0.0
11
0.005486
21
0.067827
31
0.0
0
LINE
8
0
6
CONTINUOUS
10
-0.021435
20
0.053698
30
0.0
11
-0.022757
21
0.048332
31
0.0
0
LINE
8
0
6
CONTINUOUS
10
0.022757
20
0.042805
30
0.0
11
0.022757
21
0.048332
31
0.0
0
LINE
8
0
6
CONTINUOUS
10
-0.005486
20
0.067827
30
0.0
11
-0.010653
21
0.065868
31
0.0
0
LINE
8
0
6
CONTINUOUS
10
-0.022757
20
0.048332
30
0.0
11
-0.022757
21
0.042806
31
0.0
0
LINE
8
0
6
CONTINUOUS
10
0.021435
20
0.037439
30
0.0
11
0.022757
21
0.042805
31
0.0
0
LINE
8
0
6
CONTINUOUS
10
0.018866
20
0.032546
30
0.0
11
0.021435
21
0.037439
31
0.0
0
LINE
8
0
6
CONTINUOUS
10
0.015202
20
0.062728
30
0.0
11
0.010653
21
0.065867
31
0.0
0
LINE
8
0
6
CONTINUOUS
10
0.005486
20
0.067827
30
0.0
11
0.000000
21
0.068495
31
0.0
0
LINE
8
0
6
CONTINUOUS
10
-0.022757
20
0.042806
30
0.0
11
-0.021435
21
0.037440
31
0.0
0
LINE
8
0
6
CONTINUOUS
10
-0.021435
20
0.037440
30
0.0
11
-0.018866
21
0.032546
31
0.0
0
LINE
8
0
6
CONTINUOUS
10
-0.010653
20
0.065868
30
0.0
11
-0.015202
21
0.062728
31
0.0
0
LINE
8
0
6
CONTINUOUS
10
0.000000
20
0.068495
30
0.0
11
-0.005486
21
0.067827
31
0.0
0
LINE
8
0
6
CONTINUOUS
10
0.018866
20
0.058592
30
0.0
11
0.015202
21
0.062728
31
0.0
0
LINE
8
0
6
CONTINUOUS
10
0.013997
20
0.027578
30
0.0
11
0.015202
21
0.028410
31
0.0
0
ENDSEC
0
EOF
