999
Erzeugt mit innoplus bad 
0
SECTION
2
HEADER
9
$ACADVER
1
AC1009
9
$DWGCODEPAGE
3
ISO8859-1
0
ENDSEC
0
SECTION
2
TABLES
0
TABLE
2
LAYER
70
1
0
LAYER
2
0
70
0
62
7
6
CONTINUOUS
0
ENDTAB
0
ENDSEC
0
SECTION
2
ENTITIES
0
LINE
8
0
6
CONTINUOUS
10
-0.018771
20
0.101980
30
0.0
11
-0.018771
21
0.100589
31
0.0
0
LINE
8
0
6
CONTINUOUS
10
-0.018771
20
0.100589
30
0.0
11
-0.018771
21
0.093731
31
0.0
0
LINE
8
0
6
CONTINUOUS
10
-0.004553
20
0.103360
30
0.0
11
-0.004433
21
0.101775
31
0.0
0
LINE
8
0
6
CONTINUOUS
10
-0.004433
20
0.101775
30
0.0
11
-0.004227
21
0.100199
31
0.0
0
LINE
8
0
6
CONTINUOUS
10
-0.004270
20
0.104078
30
0.0
11
-0.004460
21
0.104078
31
0.0
0
LINE
8
0
6
CONTINUOUS
10
-0.003345
20
0.097217
30
0.0
11
-0.002638
21
0.095825
31
0.0
0
LINE
8
0
6
CONTINUOUS
10
-0.005509
20
0.096250
30
0.0
11
-0.005351
21
0.100583
31
0.0
0
LINE
8
0
6
CONTINUOUS
10
-0.018771
20
0.103360
30
0.0
11
-0.018771
21
0.101980
31
0.0
0
LINE
8
0
6
CONTINUOUS
10
-0.004167
20
0.103526
30
0.0
11
-0.004167
21
0.103849
31
0.0
0
LINE
8
0
6
CONTINUOUS
10
-0.004504
20
0.103849
30
0.0
11
-0.004504
21
0.103526
31
0.0
0
LINE
8
0
6
CONTINUOUS
10
-0.004302
20
0.101798
30
0.0
11
-0.003990
21
0.100224
31
0.0
0
LINE
8
0
6
CONTINUOUS
10
-0.003990
20
0.100224
30
0.0
11
-0.003639
21
0.098558
31
0.0
0
LINE
8
0
6
CONTINUOUS
10
-0.003639
20
0.098558
30
0.0
11
-0.003015
21
0.097117
31
0.0
0
LINE
8
0
6
CONTINUOUS
10
-0.003015
20
0.097117
30
0.0
11
-0.002154
21
0.096058
31
0.0
0
LINE
8
0
6
CONTINUOUS
10
-0.002154
20
0.096058
30
0.0
11
-0.001123
21
0.095343
31
0.0
0
LINE
8
0
6
CONTINUOUS
10
-0.001123
20
0.095343
30
0.0
11
-0.000060
21
0.095130
31
0.0
0
LINE
8
0
6
CONTINUOUS
10
-0.003968
20
0.101798
30
0.0
11
-0.003678
21
0.100224
31
0.0
0
LINE
8
0
6
CONTINUOUS
10
-0.003678
20
0.100224
30
0.0
11
-0.003362
21
0.098752
31
0.0
0
LINE
8
0
6
CONTINUOUS
10
-0.003362
20
0.098752
30
0.0
11
-0.002773
21
0.097448
31
0.0
0
LINE
8
0
6
CONTINUOUS
10
-0.002773
20
0.097448
30
0.0
11
-0.001986
21
0.096476
31
0.0
0
LINE
8
0
6
CONTINUOUS
10
-0.001986
20
0.096476
30
0.0
11
-0.001034
21
0.095850
31
0.0
0
LINE
8
0
6
CONTINUOUS
10
-0.018771
20
0.103849
30
0.0
11
-0.018771
21
0.103526
31
0.0
0
LINE
8
0
6
CONTINUOUS
10
-0.018771
20
0.103526
30
0.0
11
-0.018771
21
0.103360
31
0.0
0
LINE
8
0
6
CONTINUOUS
10
-0.004504
20
0.103526
30
0.0
11
-0.004553
21
0.103360
31
0.0
0
LINE
8
0
6
CONTINUOUS
10
-0.004172
20
0.103185
30
0.0
11
-0.004167
21
0.103526
31
0.0
0
LINE
8
0
6
CONTINUOUS
10
-0.004172
20
0.103185
30
0.0
11
-0.003968
21
0.101798
31
0.0
0
LINE
8
0
6
CONTINUOUS
10
-0.004489
20
0.103849
30
0.0
11
-0.004672
21
0.103849
31
0.0
0
LINE
8
0
6
CONTINUOUS
10
-0.003156
20
0.104078
30
0.0
11
-0.004188
21
0.104078
31
0.0
0
LINE
8
0
6
CONTINUOUS
10
-0.004183
20
0.104078
30
0.0
11
-0.003152
21
0.104078
31
0.0
0
LINE
8
0
6
CONTINUOUS
10
-0.007434
20
0.104078
30
0.0
11
-0.011235
21
0.104078
31
0.0
0
LINE
8
0
6
CONTINUOUS
10
-0.011372
20
0.103849
30
0.0
11
-0.007532
21
0.103849
31
0.0
0
LINE
8
0
6
CONTINUOUS
10
-0.016703
20
0.104078
30
0.0
11
-0.018110
21
0.104078
31
0.0
0
LINE
8
0
6
CONTINUOUS
10
-0.018324
20
0.103849
30
0.0
11
-0.016899
21
0.103849
31
0.0
0
LINE
8
0
6
CONTINUOUS
10
-0.007532
20
0.103849
30
0.0
11
-0.006405
21
0.103849
31
0.0
0
LINE
8
0
6
CONTINUOUS
10
-0.006260
20
0.104078
30
0.0
11
-0.007434
21
0.104078
31
0.0
0
LINE
8
0
6
CONTINUOUS
10
-0.004460
20
0.104078
30
0.0
11
-0.005170
21
0.104078
31
0.0
0
LINE
8
0
6
CONTINUOUS
10
-0.005356
20
0.103849
30
0.0
11
-0.004672
21
0.103849
31
0.0
0
LINE
8
0
6
CONTINUOUS
10
-0.005170
20
0.104078
30
0.0
11
-0.006260
21
0.104078
31
0.0
0
LINE
8
0
6
CONTINUOUS
10
-0.006405
20
0.103849
30
0.0
11
-0.005356
21
0.103849
31
0.0
0
LINE
8
0
6
CONTINUOUS
10
-0.004286
20
0.104078
30
0.0
11
-0.004504
21
0.103849
31
0.0
0
LINE
8
0
6
CONTINUOUS
10
-0.001389
20
0.104078
30
0.0
11
-0.002779
21
0.104077
31
0.0
0
LINE
8
0
6
CONTINUOUS
10
-0.002780
20
0.103849
30
0.0
11
-0.001390
21
0.103849
31
0.0
0
LINE
8
0
6
CONTINUOUS
10
-0.014070
20
0.104078
30
0.0
11
-0.016703
21
0.104078
31
0.0
0
LINE
8
0
6
CONTINUOUS
10
-0.016899
20
0.103849
30
0.0
11
-0.014238
21
0.103849
31
0.0
0
LINE
8
0
6
CONTINUOUS
10
-0.000060
20
0.104078
30
0.0
11
-0.001389
21
0.104078
31
0.0
0
LINE
8
0
6
CONTINUOUS
10
-0.001390
20
0.103849
30
0.0
11
-0.000060
21
0.103849
31
0.0
0
LINE
8
0
6
CONTINUOUS
10
-0.011235
20
0.104078
30
0.0
11
-0.014070
21
0.104078
31
0.0
0
LINE
8
0
6
CONTINUOUS
10
-0.014238
20
0.103849
30
0.0
11
-0.011372
21
0.103849
31
0.0
0
LINE
8
0
6
CONTINUOUS
10
-0.018552
20
0.104078
30
0.0
11
-0.018771
21
0.103849
31
0.0
0
LINE
8
0
6
CONTINUOUS
10
-0.018110
20
0.104078
30
0.0
11
-0.018552
21
0.104078
31
0.0
0
LINE
8
0
6
CONTINUOUS
10
-0.018771
20
0.103849
30
0.0
11
-0.018324
21
0.103849
31
0.0
0
LINE
8
0
6
CONTINUOUS
10
-0.004199
20
0.104078
30
0.0
11
-0.004274
21
0.104078
31
0.0
0
LINE
8
0
6
CONTINUOUS
10
-0.004492
20
0.103849
30
0.0
11
-0.004371
21
0.103849
31
0.0
0
LINE
8
0
6
CONTINUOUS
10
-0.004070
20
0.104078
30
0.0
11
-0.004199
21
0.104078
31
0.0
0
LINE
8
0
6
CONTINUOUS
10
-0.004371
20
0.103849
30
0.0
11
-0.004167
21
0.103849
31
0.0
0
LINE
8
0
6
CONTINUOUS
10
-0.004071
20
0.103849
30
0.0
11
-0.002780
21
0.103849
31
0.0
0
LINE
8
0
6
CONTINUOUS
10
-0.004030
20
0.104078
30
0.0
11
-0.004070
21
0.104078
31
0.0
0
LINE
8
0
6
CONTINUOUS
10
-0.004274
20
0.104078
30
0.0
11
-0.004180
21
0.104078
31
0.0
0
LINE
8
0
6
CONTINUOUS
10
-0.004176
20
0.104079
30
0.0
11
-0.004274
21
0.104079
31
0.0
0
LINE
8
0
6
CONTINUOUS
10
-0.003980
20
0.104077
30
0.0
11
-0.002779
21
0.104077
31
0.0
0
LINE
8
0
6
CONTINUOUS
10
-0.003980
20
0.104077
30
0.0
11
-0.004070
21
0.104078
31
0.0
0
LINE
8
0
6
CONTINUOUS
10
-0.004167
20
0.103849
30
0.0
11
-0.004071
21
0.103849
31
0.0
0
LINE
8
0
6
CONTINUOUS
10
-0.018771
20
0.093731
30
0.0
11
-0.018771
21
0.068887
31
0.0
0
LINE
8
0
6
CONTINUOUS
10
-0.003936
20
0.104079
30
0.0
11
-0.004176
21
0.104079
31
0.0
0
LINE
8
0
6
CONTINUOUS
10
-0.004121
20
0.104078
30
0.0
11
-0.004030
21
0.104078
31
0.0
0
LINE
8
0
6
CONTINUOUS
10
-0.010887
20
0.068179
30
0.0
11
-0.005430
21
0.068116
31
0.0
0
LINE
8
0
6
CONTINUOUS
10
-0.007532
20
0.068164
30
0.0
11
-0.005653
21
0.068112
31
0.0
0
LINE
8
0
6
CONTINUOUS
10
-0.014554
20
0.068158
30
0.0
11
-0.011323
21
0.068176
31
0.0
0
LINE
8
0
6
CONTINUOUS
10
-0.016899
20
0.068171
30
0.0
11
-0.014554
21
0.068158
31
0.0
0
LINE
8
0
6
CONTINUOUS
10
-0.018324
20
0.068208
30
0.0
11
-0.016899
21
0.068171
31
0.0
0
LINE
8
0
6
CONTINUOUS
10
-0.011323
20
0.068176
30
0.0
11
-0.007532
21
0.068164
31
0.0
0
LINE
8
0
6
CONTINUOUS
10
-0.001698
20
0.068110
30
0.0
11
-0.000060
21
0.068115
31
0.0
0
LINE
8
0
6
CONTINUOUS
10
-0.005653
20
0.068112
30
0.0
11
-0.003698
21
0.068108
31
0.0
0
LINE
8
0
6
CONTINUOUS
10
-0.003698
20
0.068108
30
0.0
11
-0.001698
21
0.068110
31
0.0
0
LINE
8
0
6
CONTINUOUS
10
-0.018771
20
0.068237
30
0.0
11
-0.018324
21
0.068208
31
0.0
0
LINE
8
0
6
CONTINUOUS
10
-0.018771
20
0.068887
30
0.0
11
-0.018771
21
0.068237
31
0.0
0
LINE
8
0
6
CONTINUOUS
10
0.018652
20
0.100589
30
0.0
11
0.018652
21
0.101980
31
0.0
0
LINE
8
0
6
CONTINUOUS
10
0.018652
20
0.093731
30
0.0
11
0.018652
21
0.100589
31
0.0
0
LINE
8
0
6
CONTINUOUS
10
0.004314
20
0.101775
30
0.0
11
0.004433
21
0.103360
31
0.0
0
LINE
8
0
6
CONTINUOUS
10
0.004108
20
0.100199
30
0.0
11
0.004314
21
0.101775
31
0.0
0
LINE
8
0
6
CONTINUOUS
10
0.004340
20
0.104078
30
0.0
11
0.004150
21
0.104078
31
0.0
0
LINE
8
0
6
CONTINUOUS
10
-0.000060
20
0.094350
30
0.0
11
-0.000060
21
0.094269
31
0.0
0
LINE
8
0
6
CONTINUOUS
10
0.002519
20
0.095825
30
0.0
11
0.003226
21
0.097217
31
0.0
0
LINE
8
0
6
CONTINUOUS
10
0.005231
20
0.100583
30
0.0
11
0.005389
21
0.096250
31
0.0
0
LINE
8
0
6
CONTINUOUS
10
0.018652
20
0.101980
30
0.0
11
0.018652
21
0.103360
31
0.0
0
LINE
8
0
6
CONTINUOUS
10
0.004047
20
0.103849
30
0.0
11
0.004047
21
0.103526
31
0.0
0
LINE
8
0
6
CONTINUOUS
10
0.004384
20
0.103526
30
0.0
11
0.004384
21
0.103849
31
0.0
0
LINE
8
0
6
CONTINUOUS
10
0.003870
20
0.100224
30
0.0
11
0.004182
21
0.101798
31
0.0
0
LINE
8
0
6
CONTINUOUS
10
0.003519
20
0.098558
30
0.0
11
0.003870
21
0.100224
31
0.0
0
LINE
8
0
6
CONTINUOUS
10
0.002895
20
0.097117
30
0.0
11
0.003519
21
0.098558
31
0.0
0
LINE
8
0
6
CONTINUOUS
10
0.002035
20
0.096058
30
0.0
11
0.002895
21
0.097117
31
0.0
0
LINE
8
0
6
CONTINUOUS
10
0.001004
20
0.095343
30
0.0
11
0.002035
21
0.096058
31
0.0
0
LINE
8
0
6
CONTINUOUS
10
-0.000060
20
0.095130
30
0.0
11
0.001004
21
0.095343
31
0.0
0
LINE
8
0
6
CONTINUOUS
10
0.003558
20
0.100224
30
0.0
11
0.003848
21
0.101798
31
0.0
0
LINE
8
0
6
CONTINUOUS
10
0.003243
20
0.098752
30
0.0
11
0.003558
21
0.100224
31
0.0
0
LINE
8
0
6
CONTINUOUS
10
0.002654
20
0.097448
30
0.0
11
0.003243
21
0.098752
31
0.0
0
LINE
8
0
6
CONTINUOUS
10
0.001867
20
0.096476
30
0.0
11
0.002654
21
0.097448
31
0.0
0
LINE
8
0
6
CONTINUOUS
10
0.000914
20
0.095850
30
0.0
11
0.001867
21
0.096476
31
0.0
0
LINE
8
0
6
CONTINUOUS
10
0.018652
20
0.103526
30
0.0
11
0.018652
21
0.103849
31
0.0
0
LINE
8
0
6
CONTINUOUS
10
0.018652
20
0.103360
30
0.0
11
0.018652
21
0.103526
31
0.0
0
LINE
8
0
6
CONTINUOUS
10
0.004433
20
0.103360
30
0.0
11
0.004384
21
0.103526
31
0.0
0
LINE
8
0
6
CONTINUOUS
10
0.004047
20
0.103526
30
0.0
11
0.004053
21
0.103185
31
0.0
0
LINE
8
0
6
CONTINUOUS
10
0.003848
20
0.101798
30
0.0
11
0.004053
21
0.103185
31
0.0
0
LINE
8
0
6
CONTINUOUS
10
0.004552
20
0.103849
30
0.0
11
0.004369
21
0.103849
31
0.0
0
LINE
8
0
6
CONTINUOUS
10
0.003033
20
0.104078
30
0.0
11
0.004064
21
0.104078
31
0.0
0
LINE
8
0
6
CONTINUOUS
10
0.004068
20
0.104078
30
0.0
11
0.003036
21
0.104078
31
0.0
0
LINE
8
0
6
CONTINUOUS
10
0.007412
20
0.103849
30
0.0
11
0.011253
21
0.103849
31
0.0
0
LINE
8
0
6
CONTINUOUS
10
0.011116
20
0.104078
30
0.0
11
0.007314
21
0.104078
31
0.0
0
LINE
8
0
6
CONTINUOUS
10
0.016779
20
0.103849
30
0.0
11
0.018205
21
0.103849
31
0.0
0
LINE
8
0
6
CONTINUOUS
10
0.017991
20
0.104078
30
0.0
11
0.016583
21
0.104078
31
0.0
0
LINE
8
0
6
CONTINUOUS
10
0.007314
20
0.104078
30
0.0
11
0.006140
21
0.104078
31
0.0
0
LINE
8
0
6
CONTINUOUS
10
0.006285
20
0.103849
30
0.0
11
0.007412
21
0.103849
31
0.0
0
LINE
8
0
6
CONTINUOUS
10
0.004552
20
0.103849
30
0.0
11
0.005236
21
0.103849
31
0.0
0
LINE
8
0
6
CONTINUOUS
10
0.005050
20
0.104078
30
0.0
11
0.004340
21
0.104078
31
0.0
0
LINE
8
0
6
CONTINUOUS
10
0.005236
20
0.103849
30
0.0
11
0.006285
21
0.103849
31
0.0
0
LINE
8
0
6
CONTINUOUS
10
0.006140
20
0.104078
30
0.0
11
0.005050
21
0.104078
31
0.0
0
LINE
8
0
6
CONTINUOUS
10
0.004384
20
0.103849
30
0.0
11
0.004166
21
0.104078
31
0.0
0
LINE
8
0
6
CONTINUOUS
10
0.001270
20
0.103849
30
0.0
11
0.002660
21
0.103849
31
0.0
0
LINE
8
0
6
CONTINUOUS
10
0.002659
20
0.104077
30
0.0
11
0.001269
21
0.104078
31
0.0
0
LINE
8
0
6
CONTINUOUS
10
0.014118
20
0.103849
30
0.0
11
0.016779
21
0.103849
31
0.0
0
LINE
8
0
6
CONTINUOUS
10
0.016583
20
0.104078
30
0.0
11
0.013950
21
0.104078
31
0.0
0
LINE
8
0
6
CONTINUOUS
10
-0.000060
20
0.103849
30
0.0
11
0.001270
21
0.103849
31
0.0
0
LINE
8
0
6
CONTINUOUS
10
0.001269
20
0.104078
30
0.0
11
-0.000060
21
0.104078
31
0.0
0
LINE
8
0
6
CONTINUOUS
10
0.011253
20
0.103849
30
0.0
11
0.014118
21
0.103849
31
0.0
0
LINE
8
0
6
CONTINUOUS
10
0.013950
20
0.104078
30
0.0
11
0.011116
21
0.104078
31
0.0
0
LINE
8
0
6
CONTINUOUS
10
0.018205
20
0.103849
30
0.0
11
0.018652
21
0.103849
31
0.0
0
LINE
8
0
6
CONTINUOUS
10
0.018432
20
0.104078
30
0.0
11
0.017991
21
0.104078
31
0.0
0
LINE
8
0
6
CONTINUOUS
10
0.018652
20
0.103849
30
0.0
11
0.018432
21
0.104078
31
0.0
0
LINE
8
0
6
CONTINUOUS
10
0.004251
20
0.103849
30
0.0
11
0.004372
21
0.103849
31
0.0
0
LINE
8
0
6
CONTINUOUS
10
0.004154
20
0.104078
30
0.0
11
0.004079
21
0.104078
31
0.0
0
LINE
8
0
6
CONTINUOUS
10
0.004047
20
0.103849
30
0.0
11
0.004251
21
0.103849
31
0.0
0
LINE
8
0
6
CONTINUOUS
10
0.004079
20
0.104078
30
0.0
11
0.003951
21
0.104078
31
0.0
0
LINE
8
0
6
CONTINUOUS
10
0.002660
20
0.103849
30
0.0
11
0.003951
21
0.103849
31
0.0
0
LINE
8
0
6
CONTINUOUS
10
0.003951
20
0.104078
30
0.0
11
0.003910
21
0.104078
31
0.0
0
LINE
8
0
6
CONTINUOUS
10
0.004154
20
0.104079
30
0.0
11
0.004056
21
0.104079
31
0.0
0
LINE
8
0
6
CONTINUOUS
10
0.004060
20
0.104078
30
0.0
11
0.004154
21
0.104078
31
0.0
0
LINE
8
0
6
CONTINUOUS
10
0.002659
20
0.104077
30
0.0
11
0.003860
21
0.104077
31
0.0
0
LINE
8
0
6
CONTINUOUS
10
0.003951
20
0.103849
30
0.0
11
0.004047
21
0.103849
31
0.0
0
LINE
8
0
6
CONTINUOUS
10
0.003951
20
0.104078
30
0.0
11
0.003860
21
0.104077
31
0.0
0
LINE
8
0
6
CONTINUOUS
10
0.018652
20
0.068887
30
0.0
11
0.018652
21
0.093731
31
0.0
0
LINE
8
0
6
CONTINUOUS
10
0.004056
20
0.104079
30
0.0
11
0.003817
21
0.104079
31
0.0
0
LINE
8
0
6
CONTINUOUS
10
0.003910
20
0.104078
30
0.0
11
0.004001
21
0.104078
31
0.0
0
LINE
8
0
6
CONTINUOUS
10
0.005310
20
0.068116
30
0.0
11
0.010768
21
0.068179
31
0.0
0
LINE
8
0
6
CONTINUOUS
10
0.005534
20
0.068112
30
0.0
11
0.007412
21
0.068164
31
0.0
0
LINE
8
0
6
CONTINUOUS
10
0.011203
20
0.068176
30
0.0
11
0.014434
21
0.068158
31
0.0
0
LINE
8
0
6
CONTINUOUS
10
0.014434
20
0.068158
30
0.0
11
0.016779
21
0.068171
31
0.0
0
LINE
8
0
6
CONTINUOUS
10
0.016779
20
0.068171
30
0.0
11
0.018205
21
0.068208
31
0.0
0
LINE
8
0
6
CONTINUOUS
10
0.007412
20
0.068164
30
0.0
11
0.011203
21
0.068176
31
0.0
0
LINE
8
0
6
CONTINUOUS
10
-0.000060
20
0.068115
30
0.0
11
0.001579
21
0.068110
31
0.0
0
LINE
8
0
6
CONTINUOUS
10
0.003578
20
0.068108
30
0.0
11
0.005534
21
0.068112
31
0.0
0
LINE
8
0
6
CONTINUOUS
10
0.001579
20
0.068110
30
0.0
11
0.003578
21
0.068108
31
0.0
0
LINE
8
0
6
CONTINUOUS
10
0.018652
20
0.068237
30
0.0
11
0.018652
21
0.068887
31
0.0
0
LINE
8
0
6
CONTINUOUS
10
0.018205
20
0.068208
30
0.0
11
0.018652
21
0.068237
31
0.0
0
LINE
8
0
6
CONTINUOUS
10
0.018861
20
-0.097079
30
0.0
11
0.018861
21
-0.096723
31
0.0
0
LINE
8
0
6
CONTINUOUS
10
-0.018861
20
-0.096723
30
0.0
11
-0.018861
21
-0.097079
31
0.0
0
LINE
8
0
6
CONTINUOUS
10
0.006313
20
-0.014816
30
0.0
11
0.007732
21
-0.013215
31
0.0
0
LINE
8
0
6
CONTINUOUS
10
0.002311
20
-0.016817
30
0.0
11
0.004464
21
-0.016045
31
0.0
0
LINE
8
0
6
CONTINUOUS
10
0.004464
20
-0.016045
30
0.0
11
0.006313
21
-0.014816
31
0.0
0
LINE
8
0
6
CONTINUOUS
10
-0.000000
20
-0.017080
30
0.0
11
0.002311
21
-0.016817
31
0.0
0
LINE
8
0
6
CONTINUOUS
10
0.008624
20
-0.011350
30
0.0
11
0.008928
21
-0.009349
31
0.0
0
LINE
8
0
6
CONTINUOUS
10
0.007732
20
-0.013215
30
0.0
11
0.008624
21
-0.011350
31
0.0
0
LINE
8
0
6
CONTINUOUS
10
-0.007732
20
-0.013215
30
0.0
11
-0.006313
21
-0.014816
31
0.0
0
LINE
8
0
6
CONTINUOUS
10
-0.004464
20
-0.016045
30
0.0
11
-0.002311
21
-0.016817
31
0.0
0
LINE
8
0
6
CONTINUOUS
10
-0.006313
20
-0.014816
30
0.0
11
-0.004464
21
-0.016045
31
0.0
0
LINE
8
0
6
CONTINUOUS
10
-0.002311
20
-0.016817
30
0.0
11
-0.000000
21
-0.017080
31
0.0
0
LINE
8
0
6
CONTINUOUS
10
-0.008928
20
-0.009349
30
0.0
11
-0.008624
21
-0.011350
31
0.0
0
LINE
8
0
6
CONTINUOUS
10
-0.008624
20
-0.011350
30
0.0
11
-0.007732
21
-0.013215
31
0.0
0
LINE
8
0
6
CONTINUOUS
10
-0.008928
20
-0.008764
30
0.0
11
-0.008928
21
-0.009206
31
0.0
0
LINE
8
0
6
CONTINUOUS
10
0.008928
20
-0.009206
30
0.0
11
0.008928
21
-0.008764
31
0.0
0
LINE
8
0
6
CONTINUOUS
10
-0.008928
20
-0.008667
30
0.0
11
-0.008928
21
-0.008764
31
0.0
0
LINE
8
0
6
CONTINUOUS
10
0.008928
20
-0.008764
30
0.0
11
0.008928
21
-0.008667
31
0.0
0
LINE
8
0
6
CONTINUOUS
10
0.003202
20
-0.000290
30
0.0
11
0.006187
21
-0.001362
31
0.0
0
LINE
8
0
6
CONTINUOUS
10
0.011953
20
-0.007869
30
0.0
11
0.012375
21
-0.010643
31
0.0
0
LINE
8
0
6
CONTINUOUS
10
-0.000000
20
0.000075
30
0.0
11
0.003202
21
-0.000290
31
0.0
0
LINE
8
0
6
CONTINUOUS
10
0.006187
20
-0.001362
30
0.0
11
0.008750
21
-0.003065
31
0.0
0
LINE
8
0
6
CONTINUOUS
10
0.010717
20
-0.005284
30
0.0
11
0.011953
21
-0.007869
31
0.0
0
LINE
8
0
6
CONTINUOUS
10
0.008750
20
-0.003065
30
0.0
11
0.010717
21
-0.005284
31
0.0
0
LINE
8
0
6
CONTINUOUS
10
-0.006188
20
-0.001362
30
0.0
11
-0.003203
21
-0.000290
31
0.0
0
LINE
8
0
6
CONTINUOUS
10
-0.012375
20
-0.010643
30
0.0
11
-0.011954
21
-0.007869
31
0.0
0
LINE
8
0
6
CONTINUOUS
10
-0.003203
20
-0.000290
30
0.0
11
-0.000000
21
0.000075
31
0.0
0
LINE
8
0
6
CONTINUOUS
10
-0.008751
20
-0.003065
30
0.0
11
-0.006188
21
-0.001362
31
0.0
0
LINE
8
0
6
CONTINUOUS
10
-0.011954
20
-0.007869
30
0.0
11
-0.010717
21
-0.005284
31
0.0
0
LINE
8
0
6
CONTINUOUS
10
-0.010717
20
-0.005284
30
0.0
11
-0.008751
21
-0.003065
31
0.0
0
LINE
8
0
6
CONTINUOUS
10
-0.007732
20
-0.004801
30
0.0
11
-0.006313
21
-0.003200
31
0.0
0
LINE
8
0
6
CONTINUOUS
10
-0.010717
20
-0.016002
30
0.0
11
-0.008751
21
-0.018221
31
0.0
0
LINE
8
0
6
CONTINUOUS
10
0.008750
20
-0.018221
30
0.0
11
0.010717
21
-0.016002
31
0.0
0
LINE
8
0
6
CONTINUOUS
10
-0.006187
20
-0.019924
30
0.0
11
-0.003203
21
-0.020994
31
0.0
0
LINE
8
0
6
CONTINUOUS
10
-0.012375
20
-0.010643
30
0.0
11
-0.011954
21
-0.013417
31
0.0
0
LINE
8
0
6
CONTINUOUS
10
0.011953
20
-0.013417
30
0.0
11
0.012375
21
-0.010643
31
0.0
0
LINE
8
0
6
CONTINUOUS
10
0.003203
20
-0.020994
30
0.0
11
0.006187
21
-0.019924
31
0.0
0
LINE
8
0
6
CONTINUOUS
10
-0.008751
20
-0.018221
30
0.0
11
-0.006187
21
-0.019924
31
0.0
0
LINE
8
0
6
CONTINUOUS
10
0.006187
20
-0.019924
30
0.0
11
0.008750
21
-0.018221
31
0.0
0
LINE
8
0
6
CONTINUOUS
10
-0.003203
20
-0.020994
30
0.0
11
-0.000000
21
-0.021360
31
0.0
0
LINE
8
0
6
CONTINUOUS
10
-0.000000
20
-0.021360
30
0.0
11
0.003203
21
-0.020994
31
0.0
0
LINE
8
0
6
CONTINUOUS
10
-0.011954
20
-0.013417
30
0.0
11
-0.010717
21
-0.016002
31
0.0
0
LINE
8
0
6
CONTINUOUS
10
0.010717
20
-0.016002
30
0.0
11
0.011953
21
-0.013417
31
0.0
0
LINE
8
0
6
CONTINUOUS
10
-0.008928
20
-0.009349
30
0.0
11
-0.008624
21
-0.007347
31
0.0
0
LINE
8
0
6
CONTINUOUS
10
-0.008928
20
-0.009206
30
0.0
11
-0.008928
21
-0.009349
31
0.0
0
LINE
8
0
6
CONTINUOUS
10
0.007732
20
-0.005483
30
0.0
11
0.008624
21
-0.007347
31
0.0
0
LINE
8
0
6
CONTINUOUS
10
-0.008624
20
-0.007347
30
0.0
11
-0.007732
21
-0.005483
31
0.0
0
LINE
8
0
6
CONTINUOUS
10
0.008928
20
-0.009349
30
0.0
11
0.008928
21
-0.009206
31
0.0
0
LINE
8
0
6
CONTINUOUS
10
0.008624
20
-0.007347
30
0.0
11
0.008928
21
-0.009349
31
0.0
0
LINE
8
0
6
CONTINUOUS
10
-0.002310
20
-0.001880
30
0.0
11
-0.000000
21
-0.001617
31
0.0
0
LINE
8
0
6
CONTINUOUS
10
-0.000000
20
-0.001617
30
0.0
11
0.002310
21
-0.001880
31
0.0
0
LINE
8
0
6
CONTINUOUS
10
-0.007732
20
-0.005483
30
0.0
11
-0.006313
21
-0.003882
31
0.0
0
LINE
8
0
6
CONTINUOUS
10
0.006313
20
-0.003882
30
0.0
11
0.007732
21
-0.005483
31
0.0
0
LINE
8
0
6
CONTINUOUS
10
0.004464
20
-0.002653
30
0.0
11
0.006313
21
-0.003882
31
0.0
0
LINE
8
0
6
CONTINUOUS
10
-0.006313
20
-0.003882
30
0.0
11
-0.004464
21
-0.002653
31
0.0
0
LINE
8
0
6
CONTINUOUS
10
-0.004464
20
-0.002653
30
0.0
11
-0.002310
21
-0.001880
31
0.0
0
LINE
8
0
6
CONTINUOUS
10
0.002310
20
-0.001198
30
0.0
11
0.004464
21
-0.001971
31
0.0
0
LINE
8
0
6
CONTINUOUS
10
0.008624
20
-0.006666
30
0.0
11
0.008928
21
-0.008667
31
0.0
0
LINE
8
0
6
CONTINUOUS
10
-0.000000
20
-0.000935
30
0.0
11
0.002310
21
-0.001198
31
0.0
0
LINE
8
0
6
CONTINUOUS
10
0.004464
20
-0.001971
30
0.0
11
0.006313
21
-0.003200
31
0.0
0
LINE
8
0
6
CONTINUOUS
10
0.007732
20
-0.004801
30
0.0
11
0.008624
21
-0.006666
31
0.0
0
LINE
8
0
6
CONTINUOUS
10
0.006313
20
-0.003200
30
0.0
11
0.007732
21
-0.004801
31
0.0
0
LINE
8
0
6
CONTINUOUS
10
-0.004464
20
-0.001971
30
0.0
11
-0.002310
21
-0.001198
31
0.0
0
LINE
8
0
6
CONTINUOUS
10
-0.008928
20
-0.008667
30
0.0
11
-0.008624
21
-0.006666
31
0.0
0
LINE
8
0
6
CONTINUOUS
10
-0.002310
20
-0.001198
30
0.0
11
-0.000000
21
-0.000935
31
0.0
0
LINE
8
0
6
CONTINUOUS
10
-0.006313
20
-0.003200
30
0.0
11
-0.004464
21
-0.001971
31
0.0
0
LINE
8
0
6
CONTINUOUS
10
-0.008624
20
-0.006666
30
0.0
11
-0.007732
21
-0.004801
31
0.0
0
LINE
8
0
6
CONTINUOUS
10
0.011953
20
-0.011441
30
0.0
11
0.010717
21
-0.014026
31
0.0
0
LINE
8
0
6
CONTINUOUS
10
-0.010717
20
-0.014026
30
0.0
11
-0.011954
21
-0.011441
31
0.0
0
LINE
8
0
6
CONTINUOUS
10
0.003203
20
-0.019019
30
0.0
11
-0.000000
21
-0.019384
31
0.0
0
LINE
8
0
6
CONTINUOUS
10
-0.000000
20
-0.019384
30
0.0
11
-0.003203
21
-0.019019
31
0.0
0
LINE
8
0
6
CONTINUOUS
10
0.008750
20
-0.016246
30
0.0
11
0.006187
21
-0.017948
31
0.0
0
LINE
8
0
6
CONTINUOUS
10
-0.006187
20
-0.017948
30
0.0
11
-0.008751
21
-0.016246
31
0.0
0
LINE
8
0
6
CONTINUOUS
10
0.006187
20
-0.017948
30
0.0
11
0.003203
21
-0.019019
31
0.0
0
LINE
8
0
6
CONTINUOUS
10
0.012375
20
-0.008667
30
0.0
11
0.011953
21
-0.011441
31
0.0
0
LINE
8
0
6
CONTINUOUS
10
-0.011954
20
-0.011441
30
0.0
11
-0.012375
21
-0.008667
31
0.0
0
LINE
8
0
6
CONTINUOUS
10
-0.003203
20
-0.019019
30
0.0
11
-0.006187
21
-0.017948
31
0.0
0
LINE
8
0
6
CONTINUOUS
10
0.010717
20
-0.014026
30
0.0
11
0.008750
21
-0.016246
31
0.0
0
LINE
8
0
6
CONTINUOUS
10
-0.008751
20
-0.016246
30
0.0
11
-0.010717
21
-0.014026
31
0.0
0
LINE
8
0
6
CONTINUOUS
10
0.002310
20
-0.001880
30
0.0
11
0.004464
21
-0.002653
31
0.0
0
LINE
8
0
6
CONTINUOUS
10
0.009899
20
-0.019216
30
0.0
11
0.012124
21
-0.016705
31
0.0
0
LINE
8
0
6
CONTINUOUS
10
0.003623
20
-0.022354
30
0.0
11
0.007000
21
-0.021143
31
0.0
0
LINE
8
0
6
CONTINUOUS
10
0.007000
20
-0.021143
30
0.0
11
0.009899
21
-0.019216
31
0.0
0
LINE
8
0
6
CONTINUOUS
10
-0.000000
20
-0.022767
30
0.0
11
0.003623
21
-0.022354
31
0.0
0
LINE
8
0
6
CONTINUOUS
10
0.013523
20
-0.013781
30
0.0
11
0.013999
21
-0.010643
31
0.0
0
LINE
8
0
6
CONTINUOUS
10
0.012124
20
-0.016705
30
0.0
11
0.013523
21
-0.013781
31
0.0
0
LINE
8
0
6
CONTINUOUS
10
-0.012124
20
-0.016705
30
0.0
11
-0.009899
21
-0.019216
31
0.0
0
LINE
8
0
6
CONTINUOUS
10
-0.007000
20
-0.021143
30
0.0
11
-0.003624
21
-0.022354
31
0.0
0
LINE
8
0
6
CONTINUOUS
10
-0.009899
20
-0.019216
30
0.0
11
-0.007000
21
-0.021143
31
0.0
0
LINE
8
0
6
CONTINUOUS
10
-0.003624
20
-0.022354
30
0.0
11
-0.000000
21
-0.022767
31
0.0
0
LINE
8
0
6
CONTINUOUS
10
-0.014000
20
-0.010643
30
0.0
11
-0.013523
21
-0.013781
31
0.0
0
LINE
8
0
6
CONTINUOUS
10
-0.013523
20
-0.013781
30
0.0
11
-0.012124
21
-0.016705
31
0.0
0
LINE
8
0
6
CONTINUOUS
10
0.013999
20
-0.010643
30
0.0
11
0.013999
21
-0.010059
31
0.0
0
LINE
8
0
6
CONTINUOUS
10
0.013523
20
-0.007505
30
0.0
11
0.013999
21
-0.010643
31
0.0
0
LINE
8
0
6
CONTINUOUS
10
-0.014000
20
-0.010643
30
0.0
11
-0.013523
21
-0.007505
31
0.0
0
LINE
8
0
6
CONTINUOUS
10
-0.014000
20
-0.010059
30
0.0
11
-0.014000
21
-0.010643
31
0.0
0
LINE
8
0
6
CONTINUOUS
10
0.013999
20
-0.010059
30
0.0
11
0.013997
21
0.042610
31
0.0
0
LINE
8
0
6
CONTINUOUS
10
0.018861
20
0.051759
30
0.0
11
0.018861
21
0.053243
31
0.0
0
LINE
8
0
6
CONTINUOUS
10
-0.018861
20
0.053243
30
0.0
11
-0.018861
21
0.051759
31
0.0
0
LINE
8
0
6
CONTINUOUS
10
0.018861
20
-0.096723
30
0.0
11
0.018861
21
0.025787
31
0.0
0
LINE
8
0
6
CONTINUOUS
10
-0.018861
20
0.025787
30
0.0
11
-0.018861
21
-0.096723
31
0.0
0
LINE
8
0
6
CONTINUOUS
10
0.008830
20
0.066671
30
0.0
11
0.005639
21
0.066671
31
0.0
0
LINE
8
0
6
CONTINUOUS
10
-0.013997
20
0.042610
30
0.0
11
-0.014000
21
-0.010059
31
0.0
0
LINE
8
0
6
CONTINUOUS
10
0.018861
20
0.053243
30
0.0
11
0.018861
21
0.065925
31
0.0
0
LINE
8
0
6
CONTINUOUS
10
-0.005639
20
0.066671
30
0.0
11
-0.008830
21
0.066671
31
0.0
0
LINE
8
0
6
CONTINUOUS
10
-0.018861
20
0.065925
30
0.0
11
-0.018861
21
0.053243
31
0.0
0
LINE
8
0
6
CONTINUOUS
10
0.018861
20
0.043338
30
0.0
11
0.018861
21
0.047548
31
0.0
0
LINE
8
0
6
CONTINUOUS
10
0.018861
20
0.037757
30
0.0
11
0.018861
21
0.043338
31
0.0
0
LINE
8
0
6
CONTINUOUS
10
0.018861
20
0.032424
30
0.0
11
0.018861
21
0.037757
31
0.0
0
LINE
8
0
6
CONTINUOUS
10
0.018861
20
0.028159
30
0.0
11
0.018861
21
0.032424
31
0.0
0
LINE
8
0
6
CONTINUOUS
10
0.018861
20
0.047548
30
0.0
11
0.018861
21
0.051759
31
0.0
0
LINE
8
0
6
CONTINUOUS
10
0.015637
20
0.066671
30
0.0
11
0.012599
21
0.066671
31
0.0
0
LINE
8
0
6
CONTINUOUS
10
0.018861
20
0.025787
30
0.0
11
0.018861
21
0.028159
31
0.0
0
LINE
8
0
6
CONTINUOUS
10
0.013997
20
0.042610
30
0.0
11
0.013996
21
0.043330
31
0.0
0
LINE
8
0
6
CONTINUOUS
10
0.003623
20
0.001069
30
0.0
11
0.007000
21
-0.000143
31
0.0
0
LINE
8
0
6
CONTINUOUS
10
0.005639
20
0.066671
30
0.0
11
0.002273
21
0.066671
31
0.0
0
LINE
8
0
6
CONTINUOUS
10
-0.000000
20
0.001482
30
0.0
11
0.003623
21
0.001069
31
0.0
0
LINE
8
0
6
CONTINUOUS
10
0.012124
20
-0.004581
30
0.0
11
0.013523
21
-0.007505
31
0.0
0
LINE
8
0
6
CONTINUOUS
10
0.002273
20
0.066671
30
0.0
11
-0.000000
21
0.066671
31
0.0
0
LINE
8
0
6
CONTINUOUS
10
0.012599
20
0.066671
30
0.0
11
0.008830
21
0.066671
31
0.0
0
LINE
8
0
6
CONTINUOUS
10
0.009899
20
-0.002069
30
0.0
11
0.012124
21
-0.004581
31
0.0
0
LINE
8
0
6
CONTINUOUS
10
0.017765
20
0.066671
30
0.0
11
0.015637
21
0.066671
31
0.0
0
LINE
8
0
6
CONTINUOUS
10
0.018861
20
0.066671
30
0.0
11
0.017765
21
0.066671
31
0.0
0
LINE
8
0
6
CONTINUOUS
10
0.018861
20
0.065925
30
0.0
11
0.018861
21
0.066671
31
0.0
0
LINE
8
0
6
CONTINUOUS
10
0.007000
20
-0.000143
30
0.0
11
0.009899
21
-0.002069
31
0.0
0
LINE
8
0
6
CONTINUOUS
10
-0.018861
20
0.047548
30
0.0
11
-0.018861
21
0.043338
31
0.0
0
LINE
8
0
6
CONTINUOUS
10
-0.018861
20
0.043338
30
0.0
11
-0.018861
21
0.037757
31
0.0
0
LINE
8
0
6
CONTINUOUS
10
-0.018861
20
0.037757
30
0.0
11
-0.018861
21
0.032424
31
0.0
0
LINE
8
0
6
CONTINUOUS
10
-0.018861
20
0.032424
30
0.0
11
-0.018861
21
0.028159
31
0.0
0
LINE
8
0
6
CONTINUOUS
10
-0.018861
20
0.051759
30
0.0
11
-0.018861
21
0.047548
31
0.0
0
LINE
8
0
6
CONTINUOUS
10
-0.012599
20
0.066671
30
0.0
11
-0.015637
21
0.066671
31
0.0
0
LINE
8
0
6
CONTINUOUS
10
-0.018861
20
0.028159
30
0.0
11
-0.018861
21
0.025787
31
0.0
0
LINE
8
0
6
CONTINUOUS
10
-0.013997
20
0.043330
30
0.0
11
-0.013997
21
0.042610
31
0.0
0
LINE
8
0
6
CONTINUOUS
10
-0.007000
20
-0.000143
30
0.0
11
-0.003623
21
0.001069
31
0.0
0
LINE
8
0
6
CONTINUOUS
10
-0.002273
20
0.066671
30
0.0
11
-0.005639
21
0.066671
31
0.0
0
LINE
8
0
6
CONTINUOUS
10
-0.003623
20
0.001069
30
0.0
11
-0.000000
21
0.001482
31
0.0
0
LINE
8
0
6
CONTINUOUS
10
-0.013523
20
-0.007505
30
0.0
11
-0.012124
21
-0.004581
31
0.0
0
LINE
8
0
6
CONTINUOUS
10
-0.000000
20
0.066671
30
0.0
11
-0.002273
21
0.066671
31
0.0
0
LINE
8
0
6
CONTINUOUS
10
-0.008830
20
0.066671
30
0.0
11
-0.012599
21
0.066671
31
0.0
0
LINE
8
0
6
CONTINUOUS
10
-0.012124
20
-0.004581
30
0.0
11
-0.009899
21
-0.002069
31
0.0
0
LINE
8
0
6
CONTINUOUS
10
-0.015637
20
0.066671
30
0.0
11
-0.017765
21
0.066671
31
0.0
0
LINE
8
0
6
CONTINUOUS
10
-0.018861
20
0.066671
30
0.0
11
-0.018861
21
0.065925
31
0.0
0
LINE
8
0
6
CONTINUOUS
10
-0.017765
20
0.066671
30
0.0
11
-0.018861
21
0.066671
31
0.0
0
LINE
8
0
6
CONTINUOUS
10
-0.009899
20
-0.002069
30
0.0
11
-0.007000
21
-0.000143
31
0.0
0
LINE
8
0
6
CONTINUOUS
10
0.022276
20
-0.100028
30
0.0
11
0.020350
21
-0.099677
31
0.0
0
LINE
8
0
6
CONTINUOUS
10
-0.020350
20
-0.099677
30
0.0
11
-0.022276
21
-0.100028
31
0.0
0
LINE
8
0
6
CONTINUOUS
10
0.022757
20
-0.103901
30
0.0
11
0.022757
21
-0.100512
31
0.0
0
LINE
8
0
6
CONTINUOUS
10
-0.022757
20
-0.100512
30
0.0
11
-0.022757
21
-0.103901
31
0.0
0
LINE
8
0
6
CONTINUOUS
10
0.022757
20
-0.100512
30
0.0
11
0.022757
21
-0.100116
31
0.0
0
LINE
8
0
6
CONTINUOUS
10
-0.022757
20
-0.100116
30
0.0
11
-0.022757
21
-0.100512
31
0.0
0
LINE
8
0
6
CONTINUOUS
10
-0.010654
20
-0.104079
30
0.0
11
-0.005486
21
-0.104079
31
0.0
0
LINE
8
0
6
CONTINUOUS
10
-0.015202
20
-0.104079
30
0.0
11
-0.010654
21
-0.104079
31
0.0
0
LINE
8
0
6
CONTINUOUS
10
0.015202
20
-0.104079
30
0.0
11
0.018866
21
-0.104079
31
0.0
0
LINE
8
0
6
CONTINUOUS
10
-0.018866
20
-0.104079
30
0.0
11
-0.015202
21
-0.104079
31
0.0
0
LINE
8
0
6
CONTINUOUS
10
-0.000000
20
-0.104079
30
0.0
11
0.005486
21
-0.104079
31
0.0
0
LINE
8
0
6
CONTINUOUS
10
0.022757
20
-0.104079
30
0.0
11
0.022757
21
-0.103901
31
0.0
0
LINE
8
0
6
CONTINUOUS
10
0.021435
20
-0.104079
30
0.0
11
0.022757
21
-0.104079
31
0.0
0
LINE
8
0
6
CONTINUOUS
10
-0.005486
20
-0.104079
30
0.0
11
-0.000000
21
-0.104079
31
0.0
0
LINE
8
0
6
CONTINUOUS
10
0.018866
20
-0.104079
30
0.0
11
0.021435
21
-0.104079
31
0.0
0
LINE
8
0
6
CONTINUOUS
10
-0.021435
20
-0.104079
30
0.0
11
-0.018866
21
-0.104079
31
0.0
0
LINE
8
0
6
CONTINUOUS
10
-0.022757
20
-0.104079
30
0.0
11
-0.021435
21
-0.104079
31
0.0
0
LINE
8
0
6
CONTINUOUS
10
-0.022757
20
-0.103901
30
0.0
11
-0.022757
21
-0.104079
31
0.0
0
LINE
8
0
6
CONTINUOUS
10
0.005486
20
-0.104079
30
0.0
11
0.010654
21
-0.104079
31
0.0
0
LINE
8
0
6
CONTINUOUS
10
-0.015202
20
-0.100116
30
0.0
11
-0.010654
21
-0.100116
31
0.0
0
LINE
8
0
6
CONTINUOUS
10
-0.010654
20
-0.100116
30
0.0
11
-0.005486
21
-0.100116
31
0.0
0
LINE
8
0
6
CONTINUOUS
10
0.015202
20
-0.100116
30
0.0
11
0.018866
21
-0.100116
31
0.0
0
LINE
8
0
6
CONTINUOUS
10
-0.018866
20
-0.100116
30
0.0
11
-0.015202
21
-0.100116
31
0.0
0
LINE
8
0
6
CONTINUOUS
10
-0.000000
20
-0.100116
30
0.0
11
0.005486
21
-0.100116
31
0.0
0
LINE
8
0
6
CONTINUOUS
10
-0.005486
20
-0.100116
30
0.0
11
-0.000000
21
-0.100116
31
0.0
0
LINE
8
0
6
CONTINUOUS
10
0.022757
20
-0.100116
30
0.0
11
0.022276
21
-0.100028
31
0.0
0
LINE
8
0
6
CONTINUOUS
10
0.021435
20
-0.100116
30
0.0
11
0.022757
21
-0.100116
31
0.0
0
LINE
8
0
6
CONTINUOUS
10
0.018866
20
-0.100116
30
0.0
11
0.021435
21
-0.100116
31
0.0
0
LINE
8
0
6
CONTINUOUS
10
-0.022757
20
-0.100116
30
0.0
11
-0.021435
21
-0.100116
31
0.0
0
LINE
8
0
6
CONTINUOUS
10
-0.022276
20
-0.100028
30
0.0
11
-0.022757
21
-0.100116
31
0.0
0
LINE
8
0
6
CONTINUOUS
10
-0.021435
20
-0.100116
30
0.0
11
-0.018866
21
-0.100116
31
0.0
0
LINE
8
0
6
CONTINUOUS
10
0.005486
20
-0.100116
30
0.0
11
0.010654
21
-0.100116
31
0.0
0
LINE
8
0
6
CONTINUOUS
10
0.010654
20
-0.104079
30
0.0
11
0.015202
21
-0.104079
31
0.0
0
LINE
8
0
6
CONTINUOUS
10
0.020350
20
-0.099677
30
0.0
11
0.019260
21
-0.098579
31
0.0
0
LINE
8
0
6
CONTINUOUS
10
-0.019260
20
-0.098579
30
0.0
11
-0.020350
21
-0.099677
31
0.0
0
LINE
8
0
6
CONTINUOUS
10
0.010654
20
-0.100116
30
0.0
11
0.015202
21
-0.100116
31
0.0
0
LINE
8
0
6
CONTINUOUS
10
-0.018861
20
-0.097079
30
0.0
11
-0.019260
21
-0.098579
31
0.0
0
ENDSEC
0
EOF
