999
Erzeugt mit innoplus bad 
0
SECTION
2
HEADER
9
$ACADVER
1
AC1009
9
$DWGCODEPAGE
3
ISO8859-1
0
ENDSEC
0
SECTION
2
TABLES
0
TABLE
2
LAYER
70
1
0
LAYER
2
0
70
0
62
7
6
CONTINUOUS
0
ENDTAB
0
ENDSEC
0
SECTION
2
ENTITIES
0
LINE
8
0
6
CONTINUOUS
10
-0.032753
20
0.045317
30
0.0
11
-0.032446
21
0.042589
31
0.0
0
LINE
8
0
6
CONTINUOUS
10
-0.033660
20
0.047907
30
0.0
11
-0.032753
21
0.045317
31
0.0
0
LINE
8
0
6
CONTINUOUS
10
-0.035120
20
0.050231
30
0.0
11
-0.033660
21
0.047907
31
0.0
0
LINE
8
0
6
CONTINUOUS
10
-0.037060
20
0.052172
30
0.0
11
-0.035120
21
0.050231
31
0.0
0
LINE
8
0
6
CONTINUOUS
10
-0.039384
20
0.053632
30
0.0
11
-0.037060
21
0.052172
31
0.0
0
LINE
8
0
6
CONTINUOUS
10
-0.041975
20
0.054539
30
0.0
11
-0.039384
21
0.053632
31
0.0
0
LINE
8
0
6
CONTINUOUS
10
-0.044702
20
0.054846
30
0.0
11
-0.041975
21
0.054539
31
0.0
0
LINE
8
0
6
CONTINUOUS
10
-0.047430
20
0.054539
30
0.0
11
-0.044702
21
0.054846
31
0.0
0
LINE
8
0
6
CONTINUOUS
10
-0.050020
20
0.053632
30
0.0
11
-0.047430
21
0.054539
31
0.0
0
LINE
8
0
6
CONTINUOUS
10
-0.052344
20
0.052172
30
0.0
11
-0.050020
21
0.053632
31
0.0
0
LINE
8
0
6
CONTINUOUS
10
-0.054285
20
0.050231
30
0.0
11
-0.052344
21
0.052172
31
0.0
0
LINE
8
0
6
CONTINUOUS
10
-0.055745
20
0.047907
30
0.0
11
-0.054285
21
0.050231
31
0.0
0
LINE
8
0
6
CONTINUOUS
10
-0.056652
20
0.045317
30
0.0
11
-0.055745
21
0.047907
31
0.0
0
LINE
8
0
6
CONTINUOUS
10
-0.056959
20
0.042589
30
0.0
11
-0.056652
21
0.045317
31
0.0
0
LINE
8
0
6
CONTINUOUS
10
-0.056652
20
0.039862
30
0.0
11
-0.056959
21
0.042589
31
0.0
0
LINE
8
0
6
CONTINUOUS
10
-0.055745
20
0.037271
30
0.0
11
-0.056652
21
0.039862
31
0.0
0
LINE
8
0
6
CONTINUOUS
10
-0.054285
20
0.034948
30
0.0
11
-0.055745
21
0.037271
31
0.0
0
LINE
8
0
6
CONTINUOUS
10
-0.052344
20
0.033007
30
0.0
11
-0.054285
21
0.034948
31
0.0
0
LINE
8
0
6
CONTINUOUS
10
-0.050020
20
0.031547
30
0.0
11
-0.052344
21
0.033007
31
0.0
0
LINE
8
0
6
CONTINUOUS
10
-0.047430
20
0.030640
30
0.0
11
-0.050020
21
0.031547
31
0.0
0
LINE
8
0
6
CONTINUOUS
10
-0.044702
20
0.030333
30
0.0
11
-0.047430
21
0.030640
31
0.0
0
LINE
8
0
6
CONTINUOUS
10
-0.041975
20
0.030640
30
0.0
11
-0.044702
21
0.030333
31
0.0
0
LINE
8
0
6
CONTINUOUS
10
-0.039384
20
0.031547
30
0.0
11
-0.041975
21
0.030640
31
0.0
0
LINE
8
0
6
CONTINUOUS
10
-0.037061
20
0.033007
30
0.0
11
-0.039384
21
0.031547
31
0.0
0
LINE
8
0
6
CONTINUOUS
10
-0.035120
20
0.034948
30
0.0
11
-0.037061
21
0.033007
31
0.0
0
LINE
8
0
6
CONTINUOUS
10
-0.033660
20
0.037271
30
0.0
11
-0.035120
21
0.034948
31
0.0
0
LINE
8
0
6
CONTINUOUS
10
-0.032753
20
0.039862
30
0.0
11
-0.033660
21
0.037271
31
0.0
0
LINE
8
0
6
CONTINUOUS
10
-0.032446
20
0.042589
30
0.0
11
-0.032753
21
0.039862
31
0.0
0
LINE
8
0
6
CONTINUOUS
10
-0.034474
20
0.042589
30
0.0
11
-0.034730
21
0.044865
31
0.0
0
LINE
8
0
6
CONTINUOUS
10
-0.034730
20
0.044865
30
0.0
11
-0.035487
21
0.047027
31
0.0
0
LINE
8
0
6
CONTINUOUS
10
-0.035487
20
0.047027
30
0.0
11
-0.036705
21
0.048967
31
0.0
0
LINE
8
0
6
CONTINUOUS
10
-0.036705
20
0.048967
30
0.0
11
-0.038325
21
0.050586
31
0.0
0
LINE
8
0
6
CONTINUOUS
10
-0.038325
20
0.050586
30
0.0
11
-0.040264
21
0.051805
31
0.0
0
LINE
8
0
6
CONTINUOUS
10
-0.040264
20
0.051805
30
0.0
11
-0.042426
21
0.052562
31
0.0
0
LINE
8
0
6
CONTINUOUS
10
-0.042426
20
0.052562
30
0.0
11
-0.044702
21
0.052818
31
0.0
0
LINE
8
0
6
CONTINUOUS
10
-0.044702
20
0.052818
30
0.0
11
-0.046978
21
0.052562
31
0.0
0
LINE
8
0
6
CONTINUOUS
10
-0.046978
20
0.052562
30
0.0
11
-0.049140
21
0.051805
31
0.0
0
LINE
8
0
6
CONTINUOUS
10
-0.049140
20
0.051805
30
0.0
11
-0.051080
21
0.050586
31
0.0
0
LINE
8
0
6
CONTINUOUS
10
-0.051080
20
0.050586
30
0.0
11
-0.052699
21
0.048967
31
0.0
0
LINE
8
0
6
CONTINUOUS
10
-0.052699
20
0.048967
30
0.0
11
-0.053918
21
0.047027
31
0.0
0
LINE
8
0
6
CONTINUOUS
10
-0.053918
20
0.047027
30
0.0
11
-0.054675
21
0.044866
31
0.0
0
LINE
8
0
6
CONTINUOUS
10
-0.054675
20
0.044866
30
0.0
11
-0.054931
21
0.042589
31
0.0
0
LINE
8
0
6
CONTINUOUS
10
-0.054931
20
0.042589
30
0.0
11
-0.054675
21
0.040313
31
0.0
0
LINE
8
0
6
CONTINUOUS
10
-0.054675
20
0.040313
30
0.0
11
-0.053918
21
0.038151
31
0.0
0
LINE
8
0
6
CONTINUOUS
10
-0.053918
20
0.038151
30
0.0
11
-0.052699
21
0.036212
31
0.0
0
LINE
8
0
6
CONTINUOUS
10
-0.052699
20
0.036212
30
0.0
11
-0.051080
21
0.034592
31
0.0
0
LINE
8
0
6
CONTINUOUS
10
-0.051080
20
0.034592
30
0.0
11
-0.049140
21
0.033374
31
0.0
0
LINE
8
0
6
CONTINUOUS
10
-0.049140
20
0.033374
30
0.0
11
-0.046978
21
0.032617
31
0.0
0
LINE
8
0
6
CONTINUOUS
10
-0.046978
20
0.032617
30
0.0
11
-0.044702
21
0.032361
31
0.0
0
LINE
8
0
6
CONTINUOUS
10
-0.044702
20
0.032361
30
0.0
11
-0.042426
21
0.032617
31
0.0
0
LINE
8
0
6
CONTINUOUS
10
-0.042426
20
0.032617
30
0.0
11
-0.040264
21
0.033374
31
0.0
0
LINE
8
0
6
CONTINUOUS
10
-0.040264
20
0.033374
30
0.0
11
-0.038325
21
0.034592
31
0.0
0
LINE
8
0
6
CONTINUOUS
10
-0.038325
20
0.034592
30
0.0
11
-0.036705
21
0.036212
31
0.0
0
LINE
8
0
6
CONTINUOUS
10
-0.036705
20
0.036212
30
0.0
11
-0.035487
21
0.038151
31
0.0
0
LINE
8
0
6
CONTINUOUS
10
-0.035487
20
0.038151
30
0.0
11
-0.034730
21
0.040313
31
0.0
0
LINE
8
0
6
CONTINUOUS
10
-0.034730
20
0.040313
30
0.0
11
-0.034474
21
0.042589
31
0.0
0
LINE
8
0
6
CONTINUOUS
10
-0.060997
20
0.046309
30
0.0
11
-0.061416
21
0.042589
31
0.0
0
LINE
8
0
6
CONTINUOUS
10
-0.051954
20
0.027531
30
0.0
11
-0.048422
21
0.026295
31
0.0
0
LINE
8
0
6
CONTINUOUS
10
-0.029644
20
0.049841
30
0.0
11
-0.031635
21
0.053010
31
0.0
0
LINE
8
0
6
CONTINUOUS
10
-0.034282
20
0.029522
30
0.0
11
-0.031635
21
0.032169
31
0.0
0
LINE
8
0
6
CONTINUOUS
10
-0.028408
20
0.046309
30
0.0
11
-0.029644
21
0.049841
31
0.0
0
LINE
8
0
6
CONTINUOUS
10
-0.044702
20
0.059303
30
0.0
11
-0.048421
21
0.058884
31
0.0
0
LINE
8
0
6
CONTINUOUS
10
-0.059761
20
0.049841
30
0.0
11
-0.060997
21
0.046309
31
0.0
0
LINE
8
0
6
CONTINUOUS
10
-0.055123
20
0.029522
30
0.0
11
-0.051954
21
0.027531
31
0.0
0
LINE
8
0
6
CONTINUOUS
10
-0.057770
20
0.032169
30
0.0
11
-0.055123
21
0.029522
31
0.0
0
LINE
8
0
6
CONTINUOUS
10
-0.037451
20
0.027531
30
0.0
11
-0.034282
21
0.029522
31
0.0
0
LINE
8
0
6
CONTINUOUS
10
-0.027989
20
0.042589
30
0.0
11
-0.028408
21
0.046309
31
0.0
0
LINE
8
0
6
CONTINUOUS
10
-0.040983
20
0.058884
30
0.0
11
-0.044702
21
0.059303
31
0.0
0
LINE
8
0
6
CONTINUOUS
10
-0.037451
20
0.057648
30
0.0
11
-0.040983
21
0.058884
31
0.0
0
LINE
8
0
6
CONTINUOUS
10
-0.057770
20
0.053010
30
0.0
11
-0.059761
21
0.049841
31
0.0
0
LINE
8
0
6
CONTINUOUS
10
-0.061416
20
0.042589
30
0.0
11
-0.060997
21
0.038870
31
0.0
0
LINE
8
0
6
CONTINUOUS
10
-0.048421
20
0.058884
30
0.0
11
-0.051954
21
0.057648
31
0.0
0
LINE
8
0
6
CONTINUOUS
10
-0.031635
20
0.032169
30
0.0
11
-0.029644
21
0.035338
31
0.0
0
LINE
8
0
6
CONTINUOUS
10
-0.031635
20
0.053010
30
0.0
11
-0.034282
21
0.055657
31
0.0
0
LINE
8
0
6
CONTINUOUS
10
-0.029644
20
0.035338
30
0.0
11
-0.028408
21
0.038870
31
0.0
0
LINE
8
0
6
CONTINUOUS
10
-0.048422
20
0.026295
30
0.0
11
-0.044702
21
0.025876
31
0.0
0
LINE
8
0
6
CONTINUOUS
10
-0.060997
20
0.038870
30
0.0
11
-0.059761
21
0.035338
31
0.0
0
LINE
8
0
6
CONTINUOUS
10
-0.051954
20
0.057648
30
0.0
11
-0.055123
21
0.055657
31
0.0
0
LINE
8
0
6
CONTINUOUS
10
-0.055123
20
0.055657
30
0.0
11
-0.057770
21
0.053010
31
0.0
0
LINE
8
0
6
CONTINUOUS
10
-0.028408
20
0.038870
30
0.0
11
-0.027989
21
0.042589
31
0.0
0
LINE
8
0
6
CONTINUOUS
10
-0.034282
20
0.055657
30
0.0
11
-0.037451
21
0.057648
31
0.0
0
LINE
8
0
6
CONTINUOUS
10
-0.044702
20
0.025876
30
0.0
11
-0.040983
21
0.026295
31
0.0
0
LINE
8
0
6
CONTINUOUS
10
-0.040983
20
0.026295
30
0.0
11
-0.037451
21
0.027531
31
0.0
0
LINE
8
0
6
CONTINUOUS
10
-0.059761
20
0.035338
30
0.0
11
-0.057770
21
0.032169
31
0.0
0
LINE
8
0
6
CONTINUOUS
10
-0.019587
20
0.042589
30
0.0
11
-0.020216
21
0.048178
31
0.0
0
LINE
8
0
6
CONTINUOUS
10
-0.020216
20
0.048178
30
0.0
11
-0.022074
21
0.053487
31
0.0
0
LINE
8
0
6
CONTINUOUS
10
-0.022074
20
0.053487
30
0.0
11
-0.025066
21
0.058249
31
0.0
0
LINE
8
0
6
CONTINUOUS
10
-0.025066
20
0.058249
30
0.0
11
-0.029043
21
0.062226
31
0.0
0
LINE
8
0
6
CONTINUOUS
10
-0.029043
20
0.062226
30
0.0
11
-0.033805
21
0.065218
31
0.0
0
LINE
8
0
6
CONTINUOUS
10
-0.033805
20
0.065218
30
0.0
11
-0.039114
21
0.067075
31
0.0
0
LINE
8
0
6
CONTINUOUS
10
-0.039114
20
0.067075
30
0.0
11
-0.044702
21
0.067705
31
0.0
0
LINE
8
0
6
CONTINUOUS
10
-0.044702
20
0.067705
30
0.0
11
-0.050291
21
0.067076
31
0.0
0
LINE
8
0
6
CONTINUOUS
10
-0.050291
20
0.067076
30
0.0
11
-0.055600
21
0.065218
31
0.0
0
LINE
8
0
6
CONTINUOUS
10
-0.055600
20
0.065218
30
0.0
11
-0.060362
21
0.062226
31
0.0
0
LINE
8
0
6
CONTINUOUS
10
-0.060362
20
0.062226
30
0.0
11
-0.064339
21
0.058249
31
0.0
0
LINE
8
0
6
CONTINUOUS
10
-0.064339
20
0.058249
30
0.0
11
-0.067331
21
0.053487
31
0.0
0
LINE
8
0
6
CONTINUOUS
10
-0.067331
20
0.053487
30
0.0
11
-0.069188
21
0.048178
31
0.0
0
LINE
8
0
6
CONTINUOUS
10
-0.069188
20
0.048178
30
0.0
11
-0.069818
21
0.042589
31
0.0
0
LINE
8
0
6
CONTINUOUS
10
-0.069818
20
0.042589
30
0.0
11
-0.069188
21
0.037001
31
0.0
0
LINE
8
0
6
CONTINUOUS
10
-0.069188
20
0.037001
30
0.0
11
-0.067331
21
0.031692
31
0.0
0
LINE
8
0
6
CONTINUOUS
10
-0.067331
20
0.031692
30
0.0
11
-0.064339
21
0.026930
31
0.0
0
LINE
8
0
6
CONTINUOUS
10
-0.064339
20
0.026930
30
0.0
11
-0.060362
21
0.022953
31
0.0
0
LINE
8
0
6
CONTINUOUS
10
-0.060362
20
0.022953
30
0.0
11
-0.055600
21
0.019961
31
0.0
0
LINE
8
0
6
CONTINUOUS
10
-0.055600
20
0.019961
30
0.0
11
-0.050291
21
0.018103
31
0.0
0
LINE
8
0
6
CONTINUOUS
10
-0.050291
20
0.018103
30
0.0
11
-0.044702
21
0.017474
31
0.0
0
LINE
8
0
6
CONTINUOUS
10
-0.044702
20
0.017474
30
0.0
11
-0.039114
21
0.018103
31
0.0
0
LINE
8
0
6
CONTINUOUS
10
-0.039114
20
0.018103
30
0.0
11
-0.033805
21
0.019961
31
0.0
0
LINE
8
0
6
CONTINUOUS
10
-0.033805
20
0.019961
30
0.0
11
-0.029043
21
0.022953
31
0.0
0
LINE
8
0
6
CONTINUOUS
10
-0.029043
20
0.022953
30
0.0
11
-0.025066
21
0.026930
31
0.0
0
LINE
8
0
6
CONTINUOUS
10
-0.025066
20
0.026930
30
0.0
11
-0.022074
21
0.031692
31
0.0
0
LINE
8
0
6
CONTINUOUS
10
-0.022074
20
0.031692
30
0.0
11
-0.020216
21
0.037001
31
0.0
0
LINE
8
0
6
CONTINUOUS
10
-0.020216
20
0.037001
30
0.0
11
-0.019587
21
0.042589
31
0.0
0
LINE
8
0
6
CONTINUOUS
10
0.060057
20
0.027867
30
0.0
11
0.060057
21
0.039899
31
0.0
0
LINE
8
0
6
CONTINUOUS
10
0.050539
20
0.039899
30
0.0
11
0.050539
21
0.027867
31
0.0
0
LINE
8
0
6
CONTINUOUS
10
0.055298
20
0.032507
30
0.0
11
0.053476
21
0.032151
31
0.0
0
LINE
8
0
6
CONTINUOUS
10
0.053476
20
0.032151
30
0.0
11
0.051932
21
0.031135
31
0.0
0
LINE
8
0
6
CONTINUOUS
10
0.051932
20
0.031135
30
0.0
11
0.050901
21
0.029615
31
0.0
0
LINE
8
0
6
CONTINUOUS
10
0.050901
20
0.029615
30
0.0
11
0.050539
21
0.027822
31
0.0
0
LINE
8
0
6
CONTINUOUS
10
0.050539
20
0.027822
30
0.0
11
0.050901
21
0.026029
31
0.0
0
LINE
8
0
6
CONTINUOUS
10
0.050901
20
0.026029
30
0.0
11
0.051932
21
0.024509
31
0.0
0
LINE
8
0
6
CONTINUOUS
10
0.051932
20
0.024509
30
0.0
11
0.053476
21
0.023494
31
0.0
0
LINE
8
0
6
CONTINUOUS
10
0.053476
20
0.023494
30
0.0
11
0.055298
21
0.023137
31
0.0
0
LINE
8
0
6
CONTINUOUS
10
0.055298
20
0.023137
30
0.0
11
0.057119
21
0.023494
31
0.0
0
LINE
8
0
6
CONTINUOUS
10
0.057119
20
0.023494
30
0.0
11
0.058663
21
0.024509
31
0.0
0
LINE
8
0
6
CONTINUOUS
10
0.058663
20
0.024509
30
0.0
11
0.059695
21
0.026029
31
0.0
0
LINE
8
0
6
CONTINUOUS
10
0.059695
20
0.026029
30
0.0
11
0.060057
21
0.027822
31
0.0
0
LINE
8
0
6
CONTINUOUS
10
0.060057
20
0.027822
30
0.0
11
0.059695
21
0.029615
31
0.0
0
LINE
8
0
6
CONTINUOUS
10
0.059695
20
0.029615
30
0.0
11
0.058663
21
0.031135
31
0.0
0
LINE
8
0
6
CONTINUOUS
10
0.058663
20
0.031135
30
0.0
11
0.057119
21
0.032151
31
0.0
0
LINE
8
0
6
CONTINUOUS
10
0.057119
20
0.032151
30
0.0
11
0.055298
21
0.032507
31
0.0
0
LINE
8
0
6
CONTINUOUS
10
0.070372
20
0.060621
30
0.0
11
0.065834
21
0.063526
31
0.0
0
LINE
8
0
6
CONTINUOUS
10
0.060763
20
0.065429
30
0.0
11
0.055298
21
0.066036
31
0.0
0
LINE
8
0
6
CONTINUOUS
10
0.060208
20
0.019579
30
0.0
11
0.065175
21
0.021288
31
0.0
0
LINE
8
0
6
CONTINUOUS
10
0.076785
20
0.052125
30
0.0
11
0.074068
21
0.056649
31
0.0
0
LINE
8
0
6
CONTINUOUS
10
0.074068
20
0.056649
30
0.0
11
0.070372
21
0.060621
31
0.0
0
LINE
8
0
6
CONTINUOUS
10
0.078362
20
0.046944
30
0.0
11
0.076785
21
0.052125
31
0.0
0
LINE
8
0
6
CONTINUOUS
10
0.076211
20
0.031775
30
0.0
11
0.077988
21
0.036498
31
0.0
0
LINE
8
0
6
CONTINUOUS
10
0.055298
20
0.019104
30
0.0
11
0.060208
21
0.019579
31
0.0
0
LINE
8
0
6
CONTINUOUS
10
0.078810
20
0.041792
30
0.0
11
0.078362
21
0.046944
31
0.0
0
LINE
8
0
6
CONTINUOUS
10
0.077988
20
0.036498
30
0.0
11
0.078810
21
0.041792
31
0.0
0
LINE
8
0
6
CONTINUOUS
10
0.065834
20
0.063526
30
0.0
11
0.060763
21
0.065429
31
0.0
0
LINE
8
0
6
CONTINUOUS
10
0.065175
20
0.021288
30
0.0
11
0.069549
21
0.023844
31
0.0
0
LINE
8
0
6
CONTINUOUS
10
0.044761
20
0.063526
30
0.0
11
0.040223
21
0.060621
31
0.0
0
LINE
8
0
6
CONTINUOUS
10
0.037378
20
0.027410
30
0.0
11
0.041046
21
0.023845
31
0.0
0
LINE
8
0
6
CONTINUOUS
10
0.045420
20
0.021288
30
0.0
11
0.050388
21
0.019579
31
0.0
0
LINE
8
0
6
CONTINUOUS
10
0.036527
20
0.056649
30
0.0
11
0.033810
21
0.052125
31
0.0
0
LINE
8
0
6
CONTINUOUS
10
0.040223
20
0.060621
30
0.0
11
0.036527
21
0.056649
31
0.0
0
LINE
8
0
6
CONTINUOUS
10
0.033810
20
0.052125
30
0.0
11
0.032233
21
0.046944
31
0.0
0
LINE
8
0
6
CONTINUOUS
10
0.034385
20
0.031775
30
0.0
11
0.037378
21
0.027410
31
0.0
0
LINE
8
0
6
CONTINUOUS
10
0.032608
20
0.036498
30
0.0
11
0.034385
21
0.031775
31
0.0
0
LINE
8
0
6
CONTINUOUS
10
0.050388
20
0.019579
30
0.0
11
0.055298
21
0.019104
31
0.0
0
LINE
8
0
6
CONTINUOUS
10
0.032233
20
0.046944
30
0.0
11
0.031785
21
0.041792
31
0.0
0
LINE
8
0
6
CONTINUOUS
10
0.031785
20
0.041792
30
0.0
11
0.032608
21
0.036498
31
0.0
0
LINE
8
0
6
CONTINUOUS
10
0.041046
20
0.023845
30
0.0
11
0.045420
21
0.021288
31
0.0
0
LINE
8
0
6
CONTINUOUS
10
0.065386
20
0.044285
30
0.0
11
0.065581
21
0.042037
31
0.0
0
LINE
8
0
6
CONTINUOUS
10
0.063134
20
0.035744
30
0.0
11
0.061531
21
0.034187
31
0.0
0
LINE
8
0
6
CONTINUOUS
10
0.046148
20
0.037660
30
0.0
11
0.045375
21
0.039715
31
0.0
0
LINE
8
0
6
CONTINUOUS
10
0.055298
20
0.052638
30
0.0
11
0.057687
21
0.052372
31
0.0
0
LINE
8
0
6
CONTINUOUS
10
0.061890
20
0.050270
30
0.0
11
0.063508
21
0.048532
31
0.0
0
LINE
8
0
6
CONTINUOUS
10
0.064447
20
0.037660
30
0.0
11
0.063134
21
0.035744
31
0.0
0
LINE
8
0
6
CONTINUOUS
10
0.045901
20
0.046556
30
0.0
11
0.047088
21
0.048532
31
0.0
0
LINE
8
0
6
CONTINUOUS
10
0.061531
20
0.034187
30
0.0
11
0.060057
21
0.033325
31
0.0
0
LINE
8
0
6
CONTINUOUS
10
0.047088
20
0.048532
30
0.0
11
0.048705
21
0.050270
31
0.0
0
LINE
8
0
6
CONTINUOUS
10
0.064695
20
0.046556
30
0.0
11
0.065386
21
0.044285
31
0.0
0
LINE
8
0
6
CONTINUOUS
10
0.050688
20
0.051539
30
0.0
11
0.052908
21
0.052372
31
0.0
0
LINE
8
0
6
CONTINUOUS
10
0.045375
20
0.039715
30
0.0
11
0.045014
21
0.042037
31
0.0
0
LINE
8
0
6
CONTINUOUS
10
0.048705
20
0.050270
30
0.0
11
0.050688
21
0.051539
31
0.0
0
LINE
8
0
6
CONTINUOUS
10
0.065220
20
0.039715
30
0.0
11
0.064447
21
0.037660
31
0.0
0
LINE
8
0
6
CONTINUOUS
10
0.049064
20
0.034187
30
0.0
11
0.047462
21
0.035744
31
0.0
0
LINE
8
0
6
CONTINUOUS
10
0.045014
20
0.042037
30
0.0
11
0.045210
21
0.044285
31
0.0
0
LINE
8
0
6
CONTINUOUS
10
0.047462
20
0.035744
30
0.0
11
0.046148
21
0.037660
31
0.0
0
LINE
8
0
6
CONTINUOUS
10
0.045210
20
0.044285
30
0.0
11
0.045901
21
0.046556
31
0.0
0
LINE
8
0
6
CONTINUOUS
10
0.050539
20
0.033325
30
0.0
11
0.049064
21
0.034187
31
0.0
0
LINE
8
0
6
CONTINUOUS
10
0.057687
20
0.052372
30
0.0
11
0.059907
21
0.051539
31
0.0
0
LINE
8
0
6
CONTINUOUS
10
0.065581
20
0.042037
30
0.0
11
0.065220
21
0.039715
31
0.0
0
LINE
8
0
6
CONTINUOUS
10
0.052908
20
0.052372
30
0.0
11
0.055298
21
0.052638
31
0.0
0
LINE
8
0
6
CONTINUOUS
10
0.059907
20
0.051539
30
0.0
11
0.061890
21
0.050270
31
0.0
0
LINE
8
0
6
CONTINUOUS
10
0.063508
20
0.048532
30
0.0
11
0.064695
21
0.046556
31
0.0
0
LINE
8
0
6
CONTINUOUS
10
0.061369
20
0.049632
30
0.0
11
0.062859
21
0.048031
31
0.0
0
LINE
8
0
6
CONTINUOUS
10
0.046643
20
0.046211
30
0.0
11
0.047736
21
0.048031
31
0.0
0
LINE
8
0
6
CONTINUOUS
10
0.062859
20
0.048031
30
0.0
11
0.063952
21
0.046211
31
0.0
0
LINE
8
0
6
CONTINUOUS
10
0.050539
20
0.034245
30
0.0
11
0.049557
21
0.034819
31
0.0
0
LINE
8
0
6
CONTINUOUS
10
0.064589
20
0.044119
30
0.0
11
0.064769
21
0.042049
31
0.0
0
LINE
8
0
6
CONTINUOUS
10
0.059543
20
0.050801
30
0.0
11
0.061369
21
0.049632
31
0.0
0
LINE
8
0
6
CONTINUOUS
10
0.048081
20
0.036254
30
0.0
11
0.046871
21
0.038018
31
0.0
0
LINE
8
0
6
CONTINUOUS
10
0.045827
20
0.042049
30
0.0
11
0.046007
21
0.044119
31
0.0
0
LINE
8
0
6
CONTINUOUS
10
0.046871
20
0.038018
30
0.0
11
0.046159
21
0.039911
31
0.0
0
LINE
8
0
6
CONTINUOUS
10
0.062514
20
0.036254
30
0.0
11
0.061039
21
0.034819
31
0.0
0
LINE
8
0
6
CONTINUOUS
10
0.046007
20
0.044119
30
0.0
11
0.046643
21
0.046211
31
0.0
0
LINE
8
0
6
CONTINUOUS
10
0.061039
20
0.034819
30
0.0
11
0.060057
21
0.034245
31
0.0
0
LINE
8
0
6
CONTINUOUS
10
0.057499
20
0.051568
30
0.0
11
0.059543
21
0.050801
31
0.0
0
LINE
8
0
6
CONTINUOUS
10
0.049557
20
0.034819
30
0.0
11
0.048081
21
0.036254
31
0.0
0
LINE
8
0
6
CONTINUOUS
10
0.063724
20
0.038018
30
0.0
11
0.062514
21
0.036254
31
0.0
0
LINE
8
0
6
CONTINUOUS
10
0.064436
20
0.039911
30
0.0
11
0.063724
21
0.038018
31
0.0
0
LINE
8
0
6
CONTINUOUS
10
0.064769
20
0.042049
30
0.0
11
0.064436
21
0.039911
31
0.0
0
LINE
8
0
6
CONTINUOUS
10
0.063952
20
0.046211
30
0.0
11
0.064589
21
0.044119
31
0.0
0
LINE
8
0
6
CONTINUOUS
10
0.049226
20
0.049632
30
0.0
11
0.051052
21
0.050801
31
0.0
0
LINE
8
0
6
CONTINUOUS
10
0.046159
20
0.039911
30
0.0
11
0.045827
21
0.042049
31
0.0
0
LINE
8
0
6
CONTINUOUS
10
0.047736
20
0.048031
30
0.0
11
0.049226
21
0.049632
31
0.0
0
LINE
8
0
6
CONTINUOUS
10
0.051052
20
0.050801
30
0.0
11
0.053097
21
0.051568
31
0.0
0
LINE
8
0
6
CONTINUOUS
10
0.055298
20
0.051812
30
0.0
11
0.057499
21
0.051568
31
0.0
0
LINE
8
0
6
CONTINUOUS
10
0.053097
20
0.051568
30
0.0
11
0.055298
21
0.051812
31
0.0
0
LINE
8
0
6
CONTINUOUS
10
0.076211
20
0.031775
30
0.0
11
0.073217
21
0.027410
31
0.0
0
LINE
8
0
6
CONTINUOUS
10
0.073217
20
0.027410
30
0.0
11
0.069549
21
0.023844
31
0.0
0
LINE
8
0
6
CONTINUOUS
10
0.049832
20
0.065429
30
0.0
11
0.055298
21
0.066036
31
0.0
0
LINE
8
0
6
CONTINUOUS
10
0.044761
20
0.063526
30
0.0
11
0.049832
21
0.065429
31
0.0
0
LINE
8
0
6
CONTINUOUS
10
-0.044002
20
0.060478
30
0.0
11
-0.039292
21
0.059685
31
0.0
0
LINE
8
0
6
CONTINUOUS
10
-0.026844
20
0.042007
30
0.0
11
-0.027534
21
0.037554
31
0.0
0
LINE
8
0
6
CONTINUOUS
10
-0.027252
20
0.046530
30
0.0
11
-0.026844
21
0.042007
31
0.0
0
LINE
8
0
6
CONTINUOUS
10
-0.039705
20
0.025421
30
0.0
11
-0.044139
21
0.024706
31
0.0
0
LINE
8
0
6
CONTINUOUS
10
-0.029268
20
0.033410
30
0.0
11
-0.032055
21
0.029884
31
0.0
0
LINE
8
0
6
CONTINUOUS
10
-0.048663
20
0.025074
30
0.0
11
-0.052996
21
0.026707
31
0.0
0
LINE
8
0
6
CONTINUOUS
10
-0.028780
20
0.050853
30
0.0
11
-0.027252
21
0.046530
31
0.0
0
LINE
8
0
6
CONTINUOUS
10
-0.035604
20
0.027186
30
0.0
11
-0.039705
21
0.025421
31
0.0
0
LINE
8
0
6
CONTINUOUS
10
-0.061883
20
0.037386
30
0.0
11
-0.062582
21
0.042173
31
0.0
0
LINE
8
0
6
CONTINUOUS
10
-0.056788
20
0.029407
30
0.0
11
-0.059819
21
0.033027
31
0.0
0
LINE
8
0
6
CONTINUOUS
10
-0.027534
20
0.037554
30
0.0
11
-0.029268
21
0.033410
31
0.0
0
LINE
8
0
6
CONTINUOUS
10
-0.044139
20
0.024706
30
0.0
11
-0.048663
21
0.025074
31
0.0
0
LINE
8
0
6
CONTINUOUS
10
-0.035052
20
0.057650
30
0.0
11
-0.031477
21
0.054656
31
0.0
0
LINE
8
0
6
CONTINUOUS
10
-0.045124
20
-0.063390
30
0.0
11
-0.044578
21
-0.050186
31
0.0
0
LINE
8
0
6
CONTINUOUS
10
-0.049605
20
-0.063587
30
0.0
11
-0.049524
21
-0.050075
31
0.0
0
LINE
8
0
6
CONTINUOUS
10
-0.009128
20
0.072983
30
0.0
11
-0.013040
21
0.078203
31
0.0
0
LINE
8
0
6
CONTINUOUS
10
-0.027613
20
0.032882
30
0.0
11
-0.025683
21
0.037709
31
0.0
0
LINE
8
0
6
CONTINUOUS
10
-0.018240
20
0.082489
30
0.0
11
-0.024612
21
0.085838
31
0.0
0
LINE
8
0
6
CONTINUOUS
10
-0.046120
20
-0.081213
30
0.0
11
-0.042328
21
-0.081574
31
0.0
0
LINE
8
0
6
CONTINUOUS
10
-0.035851
20
0.024780
30
0.0
11
-0.034136
21
0.026052
31
0.0
0
LINE
8
0
6
CONTINUOUS
10
-0.046243
20
-0.081118
30
0.0
11
-0.042717
21
-0.081306
31
0.0
0
LINE
8
0
6
CONTINUOUS
10
-0.054884
20
-0.082855
30
0.0
11
-0.055776
21
-0.083154
31
0.0
0
LINE
8
0
6
CONTINUOUS
10
-0.055776
20
-0.083154
30
0.0
11
-0.052953
21
-0.082349
31
0.0
0
LINE
8
0
6
CONTINUOUS
10
-0.054884
20
-0.082855
30
0.0
11
-0.052447
21
-0.082039
31
0.0
0
LINE
8
0
6
CONTINUOUS
10
-0.034136
20
0.026052
30
0.0
11
-0.030578
21
0.028956
31
0.0
0
LINE
8
0
6
CONTINUOUS
10
-0.064237
20
-0.088257
30
0.0
11
-0.063161
21
-0.087697
31
0.0
0
LINE
8
0
6
CONTINUOUS
10
-0.052424
20
0.079863
30
0.0
11
-0.053054
21
0.078576
31
0.0
0
LINE
8
0
6
CONTINUOUS
10
-0.066933
20
-0.087121
30
0.0
11
-0.065516
21
-0.088278
31
0.0
0
LINE
8
0
6
CONTINUOUS
10
-0.050451
20
0.076677
30
0.0
11
-0.049584
21
0.078169
31
0.0
0
LINE
8
0
6
CONTINUOUS
10
-0.050949
20
0.079343
30
0.0
11
-0.051985
21
0.077676
31
0.0
0
LINE
8
0
6
CONTINUOUS
10
-0.065516
20
-0.088278
30
0.0
11
-0.064237
21
-0.088257
31
0.0
0
LINE
8
0
6
CONTINUOUS
10
-0.066081
20
-0.087796
30
0.0
11
-0.065516
21
-0.088278
31
0.0
0
LINE
8
0
6
CONTINUOUS
10
-0.063823
20
-0.087170
30
0.0
11
-0.063161
21
-0.087697
31
0.0
0
LINE
8
0
6
CONTINUOUS
10
-0.053094
20
0.079256
30
0.0
11
-0.054039
21
0.078228
31
0.0
0
LINE
8
0
6
CONTINUOUS
10
-0.064139
20
0.066806
30
0.0
11
-0.068756
21
0.060474
31
0.0
0
LINE
8
0
6
CONTINUOUS
10
-0.058345
20
0.073618
30
0.0
11
-0.064139
21
0.066806
31
0.0
0
LINE
8
0
6
CONTINUOUS
10
-0.054039
20
0.078228
30
0.0
11
-0.058345
21
0.073618
31
0.0
0
LINE
8
0
6
CONTINUOUS
10
-0.073640
20
0.051284
30
0.0
11
-0.064139
21
0.066806
31
0.0
0
LINE
8
0
6
CONTINUOUS
10
-0.069384
20
0.058546
30
0.0
11
-0.073640
21
0.051284
31
0.0
0
LINE
8
0
6
CONTINUOUS
10
-0.064139
20
0.066806
30
0.0
11
-0.069384
21
0.058546
31
0.0
0
LINE
8
0
6
CONTINUOUS
10
-0.006636
20
0.064463
30
0.0
11
-0.006649
21
0.065453
31
0.0
0
LINE
8
0
6
CONTINUOUS
10
-0.009046
20
0.066356
30
0.0
11
-0.008706
21
0.064849
31
0.0
0
LINE
8
0
6
CONTINUOUS
10
-0.032419
20
-0.086058
30
0.0
11
-0.030618
21
-0.087356
31
0.0
0
LINE
8
0
6
CONTINUOUS
10
-0.029864
20
0.028782
30
0.0
11
-0.028513
21
0.030988
31
0.0
0
LINE
8
0
6
CONTINUOUS
10
-0.027613
20
0.032882
30
0.0
11
-0.032038
21
0.027231
31
0.0
0
LINE
8
0
6
CONTINUOUS
10
-0.028513
20
0.030988
30
0.0
11
-0.027613
21
0.032882
31
0.0
0
LINE
8
0
6
CONTINUOUS
10
-0.062582
20
0.042173
30
0.0
11
-0.062069
21
0.047015
31
0.0
0
LINE
8
0
6
CONTINUOUS
10
-0.025836
20
0.035944
30
0.0
11
-0.029864
21
0.028782
31
0.0
0
LINE
8
0
6
CONTINUOUS
10
-0.026303
20
0.033952
30
0.0
11
-0.025836
21
0.035944
31
0.0
0
LINE
8
0
6
CONTINUOUS
10
-0.024710
20
0.041799
30
0.0
11
-0.026303
21
0.033952
31
0.0
0
LINE
8
0
6
CONTINUOUS
10
-0.025683
20
0.037709
30
0.0
11
-0.028513
21
0.030988
31
0.0
0
LINE
8
0
6
CONTINUOUS
10
-0.028513
20
0.030988
30
0.0
11
-0.025836
21
0.035944
31
0.0
0
LINE
8
0
6
CONTINUOUS
10
-0.030578
20
0.028956
30
0.0
11
-0.035851
21
0.024780
31
0.0
0
LINE
8
0
6
CONTINUOUS
10
-0.032038
20
0.027231
30
0.0
11
-0.030578
21
0.028956
31
0.0
0
LINE
8
0
6
CONTINUOUS
10
-0.025836
20
0.035944
30
0.0
11
-0.024710
21
0.041799
31
0.0
0
LINE
8
0
6
CONTINUOUS
10
-0.007132
20
0.061579
30
0.0
11
-0.006778
21
0.063046
31
0.0
0
LINE
8
0
6
CONTINUOUS
10
-0.007996
20
0.060964
30
0.0
11
-0.007621
21
0.062735
31
0.0
0
LINE
8
0
6
CONTINUOUS
10
-0.047649
20
0.084693
30
0.0
11
-0.053094
21
0.079256
31
0.0
0
LINE
8
0
6
CONTINUOUS
10
-0.054886
20
0.076370
30
0.0
11
-0.053868
21
0.077271
31
0.0
0
LINE
8
0
6
CONTINUOUS
10
-0.052953
20
-0.082349
30
0.0
11
-0.050050
21
-0.081598
31
0.0
0
LINE
8
0
6
CONTINUOUS
10
-0.059435
20
-0.084772
30
0.0
11
-0.054884
21
-0.082855
31
0.0
0
LINE
8
0
6
CONTINUOUS
10
-0.058278
20
-0.084191
30
0.0
11
-0.059435
21
-0.084772
31
0.0
0
LINE
8
0
6
CONTINUOUS
10
-0.050050
20
-0.081598
30
0.0
11
-0.046120
21
-0.081213
31
0.0
0
LINE
8
0
6
CONTINUOUS
10
-0.039089
20
-0.082243
30
0.0
11
-0.039887
21
-0.082056
31
0.0
0
LINE
8
0
6
CONTINUOUS
10
-0.042328
20
-0.081574
30
0.0
11
-0.039089
21
-0.082243
31
0.0
0
LINE
8
0
6
CONTINUOUS
10
-0.030618
20
-0.087356
30
0.0
11
-0.029257
21
-0.088304
31
0.0
0
LINE
8
0
6
CONTINUOUS
10
-0.062544
20
-0.087262
30
0.0
11
-0.064237
21
-0.088257
31
0.0
0
LINE
8
0
6
CONTINUOUS
10
-0.063748
20
-0.088070
30
0.0
11
-0.062544
21
-0.087262
31
0.0
0
LINE
8
0
6
CONTINUOUS
10
-0.064237
20
-0.088257
30
0.0
11
-0.063748
21
-0.088070
31
0.0
0
LINE
8
0
6
CONTINUOUS
10
-0.067577
20
-0.084878
30
0.0
11
-0.067273
21
-0.086483
31
0.0
0
LINE
8
0
6
CONTINUOUS
10
-0.027271
20
-0.087837
30
0.0
11
-0.026686
21
-0.086920
31
0.0
0
LINE
8
0
6
CONTINUOUS
10
-0.026686
20
-0.086920
30
0.0
11
-0.026383
21
-0.086090
31
0.0
0
LINE
8
0
6
CONTINUOUS
10
-0.066771
20
-0.085081
30
0.0
11
-0.066367
21
-0.086587
31
0.0
0
LINE
8
0
6
CONTINUOUS
10
-0.027271
20
-0.087837
30
0.0
11
-0.026949
21
-0.086912
31
0.0
0
LINE
8
0
6
CONTINUOUS
10
-0.064447
20
-0.084537
30
0.0
11
-0.064175
21
-0.086051
31
0.0
0
LINE
8
0
6
CONTINUOUS
10
-0.029983
20
-0.087202
30
0.0
11
-0.029609
21
-0.086128
31
0.0
0
LINE
8
0
6
CONTINUOUS
10
-0.046259
20
-0.078647
30
0.0
11
-0.046257
21
-0.077156
31
0.0
0
LINE
8
0
6
CONTINUOUS
10
-0.067273
20
-0.086483
30
0.0
11
-0.066933
21
-0.087121
31
0.0
0
LINE
8
0
6
CONTINUOUS
10
-0.026383
20
-0.086090
30
0.0
11
-0.026094
21
-0.084662
31
0.0
0
LINE
8
0
6
CONTINUOUS
10
-0.009101
20
0.055691
30
0.0
11
-0.007132
21
0.061579
31
0.0
0
LINE
8
0
6
CONTINUOUS
10
-0.037512
20
0.088304
30
0.0
11
-0.043054
21
0.087138
31
0.0
0
LINE
8
0
6
CONTINUOUS
10
-0.069439
20
0.059226
30
0.0
11
-0.074187
21
0.050351
31
0.0
0
LINE
8
0
6
CONTINUOUS
10
-0.011268
20
0.049150
30
0.0
11
-0.009101
21
0.055691
31
0.0
0
LINE
8
0
6
CONTINUOUS
10
-0.013475
20
0.041559
30
0.0
11
-0.011268
21
0.049150
31
0.0
0
LINE
8
0
6
CONTINUOUS
10
-0.074187
20
0.050351
30
0.0
11
-0.077140
21
0.040611
31
0.0
0
LINE
8
0
6
CONTINUOUS
10
-0.077140
20
0.040611
30
0.0
11
-0.078437
21
0.030895
31
0.0
0
LINE
8
0
6
CONTINUOUS
10
-0.047649
20
0.084693
30
0.0
11
-0.052424
21
0.079863
31
0.0
0
LINE
8
0
6
CONTINUOUS
10
-0.043054
20
0.087138
30
0.0
11
-0.047649
21
0.084693
31
0.0
0
LINE
8
0
6
CONTINUOUS
10
-0.031100
20
0.087818
30
0.0
11
-0.037512
21
0.088304
31
0.0
0
LINE
8
0
6
CONTINUOUS
10
-0.078437
20
0.030895
30
0.0
11
-0.078810
21
0.020263
31
0.0
0
LINE
8
0
6
CONTINUOUS
10
-0.078810
20
0.020263
30
0.0
11
-0.078424
21
0.009485
31
0.0
0
LINE
8
0
6
CONTINUOUS
10
-0.078424
20
0.009485
30
0.0
11
-0.077535
21
-0.001479
31
0.0
0
LINE
8
0
6
CONTINUOUS
10
-0.077535
20
-0.001479
30
0.0
11
-0.076229
21
-0.013606
31
0.0
0
LINE
8
0
6
CONTINUOUS
10
-0.076229
20
-0.013606
30
0.0
11
-0.074657
21
-0.026616
31
0.0
0
LINE
8
0
6
CONTINUOUS
10
-0.017216
20
0.023100
30
0.0
11
-0.015465
21
0.032824
31
0.0
0
LINE
8
0
6
CONTINUOUS
10
-0.024612
20
0.085838
30
0.0
11
-0.031100
21
0.087818
31
0.0
0
LINE
8
0
6
CONTINUOUS
10
-0.013040
20
0.078203
30
0.0
11
-0.018240
21
0.082489
31
0.0
0
LINE
8
0
6
CONTINUOUS
10
-0.019968
20
0.001863
30
0.0
11
-0.018732
21
0.012694
31
0.0
0
LINE
8
0
6
CONTINUOUS
10
-0.021752
20
-0.020631
30
0.0
11
-0.020951
21
-0.009237
31
0.0
0
LINE
8
0
6
CONTINUOUS
10
-0.022534
20
-0.032576
30
0.0
11
-0.021752
21
-0.020631
31
0.0
0
LINE
8
0
6
CONTINUOUS
10
-0.051985
20
0.077676
30
0.0
11
-0.053054
21
0.078576
31
0.0
0
LINE
8
0
6
CONTINUOUS
10
-0.053054
20
0.078576
30
0.0
11
-0.053868
21
0.077271
31
0.0
0
LINE
8
0
6
CONTINUOUS
10
-0.074657
20
-0.026616
30
0.0
11
-0.072881
21
-0.041283
31
0.0
0
LINE
8
0
6
CONTINUOUS
10
-0.072881
20
-0.041283
30
0.0
11
-0.071042
21
-0.056486
31
0.0
0
LINE
8
0
6
CONTINUOUS
10
-0.069152
20
-0.072111
30
0.0
11
-0.067577
21
-0.084878
31
0.0
0
LINE
8
0
6
CONTINUOUS
10
-0.071042
20
-0.056486
30
0.0
11
-0.069152
21
-0.072111
31
0.0
0
LINE
8
0
6
CONTINUOUS
10
-0.006778
20
0.063046
30
0.0
11
-0.006636
21
0.064463
31
0.0
0
LINE
8
0
6
CONTINUOUS
10
-0.015465
20
0.032824
30
0.0
11
-0.013475
21
0.041559
31
0.0
0
LINE
8
0
6
CONTINUOUS
10
-0.018732
20
0.012694
30
0.0
11
-0.017216
21
0.023100
31
0.0
0
LINE
8
0
6
CONTINUOUS
10
-0.020951
20
-0.009237
30
0.0
11
-0.019968
21
0.001863
31
0.0
0
LINE
8
0
6
CONTINUOUS
10
-0.023380
20
-0.045220
30
0.0
11
-0.022534
21
-0.032576
31
0.0
0
LINE
8
0
6
CONTINUOUS
10
-0.024261
20
-0.058386
30
0.0
11
-0.023380
21
-0.045220
31
0.0
0
LINE
8
0
6
CONTINUOUS
10
-0.025169
20
-0.071615
30
0.0
11
-0.024261
21
-0.058386
31
0.0
0
LINE
8
0
6
CONTINUOUS
10
-0.026094
20
-0.084662
30
0.0
11
-0.025169
21
-0.071615
31
0.0
0
LINE
8
0
6
CONTINUOUS
10
-0.026949
20
-0.086912
30
0.0
11
-0.026734
21
-0.084979
31
0.0
0
LINE
8
0
6
CONTINUOUS
10
-0.055209
20
0.073968
30
0.0
11
-0.061436
21
0.066311
31
0.0
0
LINE
8
0
6
CONTINUOUS
10
-0.009924
20
0.055191
30
0.0
11
-0.007996
21
0.060964
31
0.0
0
LINE
8
0
6
CONTINUOUS
10
-0.061436
20
0.066311
30
0.0
11
-0.067494
21
0.057903
31
0.0
0
LINE
8
0
6
CONTINUOUS
10
-0.067494
20
0.057903
30
0.0
11
-0.071549
21
0.048889
31
0.0
0
LINE
8
0
6
CONTINUOUS
10
-0.012304
20
0.048718
30
0.0
11
-0.009924
21
0.055191
31
0.0
0
LINE
8
0
6
CONTINUOUS
10
-0.014719
20
0.041063
30
0.0
11
-0.012304
21
0.048718
31
0.0
0
LINE
8
0
6
CONTINUOUS
10
-0.071549
20
0.048889
30
0.0
11
-0.074644
21
0.039582
31
0.0
0
LINE
8
0
6
CONTINUOUS
10
-0.074644
20
0.039582
30
0.0
11
-0.076420
21
0.030096
31
0.0
0
LINE
8
0
6
CONTINUOUS
10
-0.049584
20
0.078169
30
0.0
11
-0.044805
21
0.082959
31
0.0
0
LINE
8
0
6
CONTINUOUS
10
-0.046035
20
0.084218
30
0.0
11
-0.050949
21
0.079343
31
0.0
0
LINE
8
0
6
CONTINUOUS
10
-0.076420
20
0.030096
30
0.0
11
-0.076993
21
0.019768
31
0.0
0
LINE
8
0
6
CONTINUOUS
10
-0.076993
20
0.019768
30
0.0
11
-0.076700
21
0.009285
31
0.0
0
LINE
8
0
6
CONTINUOUS
10
-0.076700
20
0.009285
30
0.0
11
-0.076015
21
-0.001637
31
0.0
0
LINE
8
0
6
CONTINUOUS
10
-0.076015
20
-0.001637
30
0.0
11
-0.074880
21
-0.013677
31
0.0
0
LINE
8
0
6
CONTINUOUS
10
-0.074880
20
-0.013677
30
0.0
11
-0.073337
21
-0.026686
31
0.0
0
LINE
8
0
6
CONTINUOUS
10
-0.018443
20
0.022749
30
0.0
11
-0.016705
21
0.032339
31
0.0
0
LINE
8
0
6
CONTINUOUS
10
-0.021005
20
0.001652
30
0.0
11
-0.019892
21
0.012394
31
0.0
0
LINE
8
0
6
CONTINUOUS
10
-0.022465
20
-0.020909
30
0.0
11
-0.021748
21
-0.009448
31
0.0
0
LINE
8
0
6
CONTINUOUS
10
-0.023289
20
-0.032834
30
0.0
11
-0.022465
21
-0.020909
31
0.0
0
LINE
8
0
6
CONTINUOUS
10
-0.051517
20
0.075416
30
0.0
11
-0.050451
21
0.076677
31
0.0
0
LINE
8
0
6
CONTINUOUS
10
-0.073337
20
-0.026686
30
0.0
11
-0.071624
21
-0.041353
31
0.0
0
LINE
8
0
6
CONTINUOUS
10
-0.071624
20
-0.041353
30
0.0
11
-0.069824
21
-0.056574
31
0.0
0
LINE
8
0
6
CONTINUOUS
10
-0.068058
20
-0.072192
30
0.0
11
-0.066771
21
-0.085081
31
0.0
0
LINE
8
0
6
CONTINUOUS
10
-0.069824
20
-0.056574
30
0.0
11
-0.068058
21
-0.072192
31
0.0
0
LINE
8
0
6
CONTINUOUS
10
-0.006649
20
0.065453
30
0.0
11
-0.009128
21
0.072983
31
0.0
0
LINE
8
0
6
CONTINUOUS
10
-0.029257
20
-0.088304
30
0.0
11
-0.027800
21
-0.088241
31
0.0
0
LINE
8
0
6
CONTINUOUS
10
-0.027800
20
-0.088241
30
0.0
11
-0.027271
21
-0.087837
31
0.0
0
LINE
8
0
6
CONTINUOUS
10
-0.007621
20
0.062735
30
0.0
11
-0.007403
21
0.064639
31
0.0
0
LINE
8
0
6
CONTINUOUS
10
-0.016705
20
0.032339
30
0.0
11
-0.014719
21
0.041063
31
0.0
0
LINE
8
0
6
CONTINUOUS
10
-0.019892
20
0.012394
30
0.0
11
-0.018443
21
0.022749
31
0.0
0
LINE
8
0
6
CONTINUOUS
10
-0.021748
20
-0.009448
30
0.0
11
-0.021005
21
0.001652
31
0.0
0
LINE
8
0
6
CONTINUOUS
10
-0.024137
20
-0.045460
30
0.0
11
-0.023289
21
-0.032834
31
0.0
0
LINE
8
0
6
CONTINUOUS
10
-0.025014
20
-0.058636
30
0.0
11
-0.024137
21
-0.045460
31
0.0
0
LINE
8
0
6
CONTINUOUS
10
-0.025899
20
-0.071888
30
0.0
11
-0.025014
21
-0.058636
31
0.0
0
LINE
8
0
6
CONTINUOUS
10
-0.026734
20
-0.084979
30
0.0
11
-0.025899
21
-0.071888
31
0.0
0
LINE
8
0
6
CONTINUOUS
10
-0.064175
20
-0.086051
30
0.0
11
-0.063823
21
-0.087170
31
0.0
0
LINE
8
0
6
CONTINUOUS
10
-0.029609
20
-0.086128
30
0.0
11
-0.029396
21
-0.084508
31
0.0
0
LINE
8
0
6
CONTINUOUS
10
-0.062544
20
-0.087262
30
0.0
11
-0.060834
21
-0.085764
31
0.0
0
LINE
8
0
6
CONTINUOUS
10
-0.060834
20
-0.085764
30
0.0
11
-0.058278
21
-0.084191
31
0.0
0
LINE
8
0
6
CONTINUOUS
10
-0.052447
20
-0.082039
30
0.0
11
-0.049788
21
-0.081520
31
0.0
0
LINE
8
0
6
CONTINUOUS
10
-0.058278
20
-0.084191
30
0.0
11
-0.054884
21
-0.082855
31
0.0
0
LINE
8
0
6
CONTINUOUS
10
-0.046243
20
-0.081118
30
0.0
11
-0.046262
21
-0.080139
31
0.0
0
LINE
8
0
6
CONTINUOUS
10
-0.049788
20
-0.081520
30
0.0
11
-0.046243
21
-0.081118
31
0.0
0
LINE
8
0
6
CONTINUOUS
10
-0.042717
20
-0.081306
30
0.0
11
-0.039887
21
-0.082056
31
0.0
0
LINE
8
0
6
CONTINUOUS
10
-0.039887
20
-0.082056
30
0.0
11
-0.035637
21
-0.083833
31
0.0
0
LINE
8
0
6
CONTINUOUS
10
-0.035637
20
-0.083833
30
0.0
11
-0.032419
21
-0.086058
31
0.0
0
LINE
8
0
6
CONTINUOUS
10
-0.007510
20
0.066392
30
0.0
11
-0.010265
21
0.073387
31
0.0
0
LINE
8
0
6
CONTINUOUS
10
-0.030618
20
-0.087356
30
0.0
11
-0.029983
21
-0.087202
31
0.0
0
LINE
8
0
6
CONTINUOUS
10
-0.063161
20
-0.087697
30
0.0
11
-0.062544
21
-0.087262
31
0.0
0
LINE
8
0
6
CONTINUOUS
10
-0.053320
20
0.058345
30
0.0
11
-0.048761
21
0.060014
31
0.0
0
LINE
8
0
6
CONTINUOUS
10
-0.062069
20
0.047015
30
0.0
11
-0.060195
21
0.051565
31
0.0
0
LINE
8
0
6
CONTINUOUS
10
-0.039292
20
0.059685
30
0.0
11
-0.035052
21
0.057650
31
0.0
0
LINE
8
0
6
CONTINUOUS
10
-0.060195
20
0.051565
30
0.0
11
-0.057180
21
0.055396
31
0.0
0
LINE
8
0
6
CONTINUOUS
10
-0.031477
20
0.054656
30
0.0
11
-0.028780
21
0.050853
31
0.0
0
LINE
8
0
6
CONTINUOUS
10
-0.052996
20
0.026707
30
0.0
11
-0.056788
21
0.029407
31
0.0
0
LINE
8
0
6
CONTINUOUS
10
-0.048761
20
0.060014
30
0.0
11
-0.044002
21
0.060478
31
0.0
0
LINE
8
0
6
CONTINUOUS
10
-0.030578
20
0.028956
30
0.0
11
-0.027613
21
0.032882
31
0.0
0
LINE
8
0
6
CONTINUOUS
10
-0.032055
20
0.029884
30
0.0
11
-0.035604
21
0.027186
31
0.0
0
LINE
8
0
6
CONTINUOUS
10
-0.057180
20
0.055396
30
0.0
11
-0.053320
21
0.058345
31
0.0
0
LINE
8
0
6
CONTINUOUS
10
-0.059819
20
0.033027
30
0.0
11
-0.061883
21
0.037386
31
0.0
0
LINE
8
0
6
CONTINUOUS
10
-0.048473
20
-0.014411
30
0.0
11
-0.048779
21
-0.025249
31
0.0
0
LINE
8
0
6
CONTINUOUS
10
-0.046262
20
-0.080139
30
0.0
11
-0.046259
21
-0.078647
31
0.0
0
LINE
8
0
6
CONTINUOUS
10
-0.056263
20
0.075074
30
0.0
11
-0.054886
21
0.076370
31
0.0
0
LINE
8
0
6
CONTINUOUS
10
-0.069439
20
0.059226
30
0.0
11
-0.062923
21
0.067516
31
0.0
0
LINE
8
0
6
CONTINUOUS
10
-0.068756
20
0.060474
30
0.0
11
-0.069439
21
0.059226
31
0.0
0
LINE
8
0
6
CONTINUOUS
10
-0.062923
20
0.067516
30
0.0
11
-0.056263
21
0.075074
31
0.0
0
LINE
8
0
6
CONTINUOUS
10
0.054910
20
0.044538
30
0.0
11
0.055298
21
0.044617
31
0.0
0
LINE
8
0
6
CONTINUOUS
10
0.054523
20
0.044461
30
0.0
11
0.054910
21
0.044538
31
0.0
0
LINE
8
0
6
CONTINUOUS
10
0.054103
20
0.044378
30
0.0
11
0.054523
21
0.044461
31
0.0
0
LINE
8
0
6
CONTINUOUS
10
0.053605
20
0.044282
30
0.0
11
0.054103
21
0.044378
31
0.0
0
LINE
8
0
6
CONTINUOUS
10
0.053477
20
0.044257
30
0.0
11
0.053605
21
0.044282
31
0.0
0
LINE
8
0
6
CONTINUOUS
10
0.059254
20
0.042338
30
0.0
11
0.059086
21
0.042589
31
0.0
0
LINE
8
0
6
CONTINUOUS
10
0.059086
20
0.042589
30
0.0
11
0.058663
21
0.043226
31
0.0
0
LINE
8
0
6
CONTINUOUS
10
0.059679
20
0.041718
30
0.0
11
0.059254
21
0.042338
31
0.0
0
LINE
8
0
6
CONTINUOUS
10
0.052634
20
0.043693
30
0.0
11
0.053140
21
0.044031
31
0.0
0
LINE
8
0
6
CONTINUOUS
10
0.051971
20
0.043251
30
0.0
11
0.052634
21
0.043693
31
0.0
0
LINE
8
0
6
CONTINUOUS
10
0.051933
20
0.043226
30
0.0
11
0.051971
21
0.043251
31
0.0
0
LINE
8
0
6
CONTINUOUS
10
0.050917
20
0.041718
30
0.0
11
0.051342
21
0.042338
31
0.0
0
LINE
8
0
6
CONTINUOUS
10
0.050539
20
0.039899
30
0.0
11
0.050698
21
0.040684
31
0.0
0
LINE
8
0
6
CONTINUOUS
10
0.059898
20
0.040684
30
0.0
11
0.059695
21
0.041695
31
0.0
0
LINE
8
0
6
CONTINUOUS
10
0.058625
20
0.043251
30
0.0
11
0.058663
21
0.043226
31
0.0
0
LINE
8
0
6
CONTINUOUS
10
0.057961
20
0.043693
30
0.0
11
0.058625
21
0.043251
31
0.0
0
LINE
8
0
6
CONTINUOUS
10
0.057455
20
0.044031
30
0.0
11
0.057961
21
0.043693
31
0.0
0
LINE
8
0
6
CONTINUOUS
10
0.057119
20
0.044257
30
0.0
11
0.057455
21
0.044031
31
0.0
0
LINE
8
0
6
CONTINUOUS
10
0.056493
20
0.044378
30
0.0
11
0.056990
21
0.044282
31
0.0
0
LINE
8
0
6
CONTINUOUS
10
0.056073
20
0.044461
30
0.0
11
0.056493
21
0.044378
31
0.0
0
LINE
8
0
6
CONTINUOUS
10
0.055685
20
0.044538
30
0.0
11
0.056073
21
0.044461
31
0.0
0
LINE
8
0
6
CONTINUOUS
10
0.055298
20
0.044617
30
0.0
11
0.055685
21
0.044538
31
0.0
0
ENDSEC
0
EOF
