999
Erzeugt mit innoplus bad 
0
SECTION
2
HEADER
9
$ACADVER
1
AC1009
9
$DWGCODEPAGE
3
ISO8859-1
0
ENDSEC
0
SECTION
2
TABLES
0
TABLE
2
LAYER
70
1
0
LAYER
2
0
70
0
62
7
6
CONTINUOUS
0
ENDTAB
0
ENDSEC
0
SECTION
2
ENTITIES
0
LINE
8
0
6
CONTINUOUS
10
-0.031122
20
-0.057970
30
0.0
11
-0.031122
21
-0.057633
31
0.0
0
LINE
8
0
6
CONTINUOUS
10
-0.054057
20
-0.057633
30
0.0
11
-0.054057
21
-0.057970
31
0.0
0
LINE
8
0
6
CONTINUOUS
10
-0.031122
20
-0.057633
30
0.0
11
-0.031122
21
-0.052159
31
0.0
0
LINE
8
0
6
CONTINUOUS
10
-0.054057
20
-0.052159
30
0.0
11
-0.054057
21
-0.057633
31
0.0
0
LINE
8
0
6
CONTINUOUS
10
-0.036887
20
-0.051934
30
0.0
11
-0.036891
21
-0.049474
31
0.0
0
LINE
8
0
6
CONTINUOUS
10
-0.037030
20
-0.051934
30
0.0
11
-0.036887
21
-0.051934
31
0.0
0
LINE
8
0
6
CONTINUOUS
10
-0.037452
20
-0.051934
30
0.0
11
-0.037030
21
-0.051934
31
0.0
0
LINE
8
0
6
CONTINUOUS
10
-0.038131
20
-0.051934
30
0.0
11
-0.037452
21
-0.051934
31
0.0
0
LINE
8
0
6
CONTINUOUS
10
-0.039034
20
-0.051934
30
0.0
11
-0.038131
21
-0.051934
31
0.0
0
LINE
8
0
6
CONTINUOUS
10
-0.040115
20
-0.051934
30
0.0
11
-0.039034
21
-0.051934
31
0.0
0
LINE
8
0
6
CONTINUOUS
10
-0.041321
20
-0.051934
30
0.0
11
-0.040115
21
-0.051934
31
0.0
0
LINE
8
0
6
CONTINUOUS
10
-0.042589
20
-0.051934
30
0.0
11
-0.041321
21
-0.051934
31
0.0
0
LINE
8
0
6
CONTINUOUS
10
-0.043858
20
-0.051934
30
0.0
11
-0.042589
21
-0.051934
31
0.0
0
LINE
8
0
6
CONTINUOUS
10
-0.045064
20
-0.051934
30
0.0
11
-0.043858
21
-0.051934
31
0.0
0
LINE
8
0
6
CONTINUOUS
10
-0.046145
20
-0.051934
30
0.0
11
-0.045064
21
-0.051934
31
0.0
0
LINE
8
0
6
CONTINUOUS
10
-0.047048
20
-0.051934
30
0.0
11
-0.046145
21
-0.051934
31
0.0
0
LINE
8
0
6
CONTINUOUS
10
-0.047727
20
-0.051934
30
0.0
11
-0.047048
21
-0.051934
31
0.0
0
LINE
8
0
6
CONTINUOUS
10
-0.048149
20
-0.051934
30
0.0
11
-0.047727
21
-0.051934
31
0.0
0
LINE
8
0
6
CONTINUOUS
10
-0.048292
20
-0.051934
30
0.0
11
-0.048149
21
-0.051934
31
0.0
0
LINE
8
0
6
CONTINUOUS
10
-0.048288
20
-0.049474
30
0.0
11
-0.048292
21
-0.051934
31
0.0
0
LINE
8
0
6
CONTINUOUS
10
-0.031235
20
-0.046209
30
0.0
11
-0.026470
21
-0.045221
31
0.0
0
LINE
8
0
6
CONTINUOUS
10
-0.058709
20
-0.045221
30
0.0
11
-0.053943
21
-0.046209
31
0.0
0
LINE
8
0
6
CONTINUOUS
10
-0.059303
20
-0.044421
30
0.0
11
-0.059303
21
-0.045098
31
0.0
0
LINE
8
0
6
CONTINUOUS
10
-0.025876
20
-0.045098
30
0.0
11
-0.025876
21
-0.044421
31
0.0
0
LINE
8
0
6
CONTINUOUS
10
-0.048967
20
-0.042595
30
0.0
11
-0.050586
21
-0.042595
31
0.0
0
LINE
8
0
6
CONTINUOUS
10
-0.036212
20
-0.042595
30
0.0
11
-0.038151
21
-0.042595
31
0.0
0
LINE
8
0
6
CONTINUOUS
10
-0.030640
20
-0.042595
30
0.0
11
-0.031547
21
-0.042595
31
0.0
0
LINE
8
0
6
CONTINUOUS
10
-0.038151
20
-0.042595
30
0.0
11
-0.040313
21
-0.042595
31
0.0
0
LINE
8
0
6
CONTINUOUS
10
-0.053632
20
-0.042595
30
0.0
11
-0.054539
21
-0.042595
31
0.0
0
LINE
8
0
6
CONTINUOUS
10
-0.050586
20
-0.042595
30
0.0
11
-0.051805
21
-0.042595
31
0.0
0
LINE
8
0
6
CONTINUOUS
10
-0.030333
20
-0.042595
30
0.0
11
-0.030640
21
-0.042595
31
0.0
0
LINE
8
0
6
CONTINUOUS
10
-0.040313
20
-0.042595
30
0.0
11
-0.042589
21
-0.042595
31
0.0
0
LINE
8
0
6
CONTINUOUS
10
-0.052172
20
-0.042595
30
0.0
11
-0.053632
21
-0.042595
31
0.0
0
LINE
8
0
6
CONTINUOUS
10
-0.032361
20
-0.042595
30
0.0
11
-0.032617
21
-0.042595
31
0.0
0
LINE
8
0
6
CONTINUOUS
10
-0.032617
20
-0.042595
30
0.0
11
-0.033374
21
-0.042595
31
0.0
0
LINE
8
0
6
CONTINUOUS
10
-0.054539
20
-0.042595
30
0.0
11
-0.054846
21
-0.042595
31
0.0
0
LINE
8
0
6
CONTINUOUS
10
-0.031547
20
-0.042595
30
0.0
11
-0.032369
21
-0.042595
31
0.0
0
LINE
8
0
6
CONTINUOUS
10
-0.034592
20
-0.042595
30
0.0
11
-0.036212
21
-0.042595
31
0.0
0
LINE
8
0
6
CONTINUOUS
10
-0.047027
20
-0.042595
30
0.0
11
-0.048967
21
-0.042595
31
0.0
0
LINE
8
0
6
CONTINUOUS
10
-0.044866
20
-0.042595
30
0.0
11
-0.047027
21
-0.042595
31
0.0
0
LINE
8
0
6
CONTINUOUS
10
-0.033374
20
-0.042595
30
0.0
11
-0.034592
21
-0.042595
31
0.0
0
LINE
8
0
6
CONTINUOUS
10
-0.042589
20
-0.042595
30
0.0
11
-0.044866
21
-0.042595
31
0.0
0
LINE
8
0
6
CONTINUOUS
10
-0.052562
20
-0.042595
30
0.0
11
-0.052818
21
-0.042595
31
0.0
0
LINE
8
0
6
CONTINUOUS
10
-0.051805
20
-0.042595
30
0.0
11
-0.052562
21
-0.042595
31
0.0
0
LINE
8
0
6
CONTINUOUS
10
-0.057223
20
-0.042595
30
0.0
11
-0.055288
21
-0.042595
31
0.0
0
LINE
8
0
6
CONTINUOUS
10
-0.053949
20
-0.042595
30
0.0
11
-0.057223
21
-0.042595
31
0.0
0
LINE
8
0
6
CONTINUOUS
10
-0.052447
20
-0.042595
30
0.0
11
-0.053949
21
-0.042595
31
0.0
0
LINE
8
0
6
CONTINUOUS
10
-0.055288
20
-0.042595
30
0.0
11
-0.052716
21
-0.042595
31
0.0
0
LINE
8
0
6
CONTINUOUS
10
-0.050450
20
-0.042595
30
0.0
11
-0.052447
21
-0.042595
31
0.0
0
LINE
8
0
6
CONTINUOUS
10
-0.052716
20
-0.042595
30
0.0
11
-0.049637
21
-0.042595
31
0.0
0
LINE
8
0
6
CONTINUOUS
10
-0.048060
20
-0.042595
30
0.0
11
-0.050450
21
-0.042595
31
0.0
0
LINE
8
0
6
CONTINUOUS
10
-0.049637
20
-0.042595
30
0.0
11
-0.046204
21
-0.042595
31
0.0
0
LINE
8
0
6
CONTINUOUS
10
-0.045395
20
-0.042595
30
0.0
11
-0.048060
21
-0.042595
31
0.0
0
LINE
8
0
6
CONTINUOUS
10
-0.046204
20
-0.042595
30
0.0
11
-0.042589
21
-0.042595
31
0.0
0
LINE
8
0
6
CONTINUOUS
10
-0.042589
20
-0.042595
30
0.0
11
-0.045395
21
-0.042595
31
0.0
0
LINE
8
0
6
CONTINUOUS
10
-0.042589
20
-0.042595
30
0.0
11
-0.038975
21
-0.042595
31
0.0
0
LINE
8
0
6
CONTINUOUS
10
-0.039784
20
-0.042595
30
0.0
11
-0.042589
21
-0.042595
31
0.0
0
LINE
8
0
6
CONTINUOUS
10
-0.038975
20
-0.042595
30
0.0
11
-0.035542
21
-0.042595
31
0.0
0
LINE
8
0
6
CONTINUOUS
10
-0.037119
20
-0.042595
30
0.0
11
-0.039784
21
-0.042595
31
0.0
0
LINE
8
0
6
CONTINUOUS
10
-0.035542
20
-0.042595
30
0.0
11
-0.032463
21
-0.042595
31
0.0
0
LINE
8
0
6
CONTINUOUS
10
-0.034728
20
-0.042595
30
0.0
11
-0.037119
21
-0.042595
31
0.0
0
LINE
8
0
6
CONTINUOUS
10
-0.032463
20
-0.042595
30
0.0
11
-0.029891
21
-0.042595
31
0.0
0
LINE
8
0
6
CONTINUOUS
10
-0.032732
20
-0.042595
30
0.0
11
-0.034728
21
-0.042595
31
0.0
0
LINE
8
0
6
CONTINUOUS
10
-0.027956
20
-0.042595
30
0.0
11
-0.031230
21
-0.042595
31
0.0
0
LINE
8
0
6
CONTINUOUS
10
-0.029891
20
-0.042595
30
0.0
11
-0.027956
21
-0.042595
31
0.0
0
LINE
8
0
6
CONTINUOUS
10
-0.031230
20
-0.042595
30
0.0
11
-0.032732
21
-0.042595
31
0.0
0
LINE
8
0
6
CONTINUOUS
10
-0.053010
20
-0.045098
30
0.0
11
-0.055657
21
-0.045098
31
0.0
0
LINE
8
0
6
CONTINUOUS
10
-0.038870
20
-0.045098
30
0.0
11
-0.042589
21
-0.045098
31
0.0
0
LINE
8
0
6
CONTINUOUS
10
-0.027531
20
-0.045098
30
0.0
11
-0.029522
21
-0.045098
31
0.0
0
LINE
8
0
6
CONTINUOUS
10
-0.055657
20
-0.045098
30
0.0
11
-0.057648
21
-0.045098
31
0.0
0
LINE
8
0
6
CONTINUOUS
10
-0.042589
20
-0.045098
30
0.0
11
-0.046309
21
-0.045098
31
0.0
0
LINE
8
0
6
CONTINUOUS
10
-0.029522
20
-0.045098
30
0.0
11
-0.032169
21
-0.045098
31
0.0
0
LINE
8
0
6
CONTINUOUS
10
-0.057648
20
-0.045098
30
0.0
11
-0.058884
21
-0.045098
31
0.0
0
LINE
8
0
6
CONTINUOUS
10
-0.032169
20
-0.045098
30
0.0
11
-0.035338
21
-0.045098
31
0.0
0
LINE
8
0
6
CONTINUOUS
10
-0.025876
20
-0.045098
30
0.0
11
-0.026295
21
-0.045098
31
0.0
0
LINE
8
0
6
CONTINUOUS
10
-0.026470
20
-0.045221
30
0.0
11
-0.025876
21
-0.045098
31
0.0
0
LINE
8
0
6
CONTINUOUS
10
-0.046309
20
-0.045098
30
0.0
11
-0.049841
21
-0.045098
31
0.0
0
LINE
8
0
6
CONTINUOUS
10
-0.059303
20
-0.045098
30
0.0
11
-0.058709
21
-0.045221
31
0.0
0
LINE
8
0
6
CONTINUOUS
10
-0.058884
20
-0.045098
30
0.0
11
-0.059303
21
-0.045098
31
0.0
0
LINE
8
0
6
CONTINUOUS
10
-0.049841
20
-0.045098
30
0.0
11
-0.053010
21
-0.045098
31
0.0
0
LINE
8
0
6
CONTINUOUS
10
-0.035338
20
-0.045098
30
0.0
11
-0.038870
21
-0.045098
31
0.0
0
LINE
8
0
6
CONTINUOUS
10
-0.026295
20
-0.045098
30
0.0
11
-0.027531
21
-0.045098
31
0.0
0
LINE
8
0
6
CONTINUOUS
10
-0.049739
20
-0.051934
30
0.0
11
-0.051555
21
-0.051934
31
0.0
0
LINE
8
0
6
CONTINUOUS
10
-0.067705
20
-0.108170
30
0.0
11
-0.067076
21
-0.108170
31
0.0
0
LINE
8
0
6
CONTINUOUS
10
-0.067705
20
-0.107286
30
0.0
11
-0.067705
21
-0.108170
31
0.0
0
LINE
8
0
6
CONTINUOUS
10
-0.067076
20
-0.108170
30
0.0
11
-0.065218
21
-0.108170
31
0.0
0
LINE
8
0
6
CONTINUOUS
10
-0.065218
20
-0.108170
30
0.0
11
-0.062226
21
-0.108170
31
0.0
0
LINE
8
0
6
CONTINUOUS
10
-0.062226
20
-0.108170
30
0.0
11
-0.058249
21
-0.108170
31
0.0
0
LINE
8
0
6
CONTINUOUS
10
-0.058249
20
-0.108170
30
0.0
11
-0.053487
21
-0.108170
31
0.0
0
LINE
8
0
6
CONTINUOUS
10
-0.053487
20
-0.108170
30
0.0
11
-0.048178
21
-0.108170
31
0.0
0
LINE
8
0
6
CONTINUOUS
10
-0.048178
20
-0.108170
30
0.0
11
-0.042589
21
-0.108170
31
0.0
0
LINE
8
0
6
CONTINUOUS
10
-0.042589
20
-0.108170
30
0.0
11
-0.037001
21
-0.108170
31
0.0
0
LINE
8
0
6
CONTINUOUS
10
-0.037001
20
-0.108170
30
0.0
11
-0.031692
21
-0.108170
31
0.0
0
LINE
8
0
6
CONTINUOUS
10
-0.031692
20
-0.108170
30
0.0
11
-0.026930
21
-0.108170
31
0.0
0
LINE
8
0
6
CONTINUOUS
10
-0.026930
20
-0.108170
30
0.0
11
-0.022953
21
-0.108170
31
0.0
0
LINE
8
0
6
CONTINUOUS
10
-0.022953
20
-0.108170
30
0.0
11
-0.019961
21
-0.108170
31
0.0
0
LINE
8
0
6
CONTINUOUS
10
-0.019961
20
-0.108170
30
0.0
11
-0.018103
21
-0.108170
31
0.0
0
LINE
8
0
6
CONTINUOUS
10
-0.018103
20
-0.108170
30
0.0
11
-0.017474
21
-0.108170
31
0.0
0
LINE
8
0
6
CONTINUOUS
10
-0.017474
20
-0.108170
30
0.0
11
-0.017474
21
-0.107286
31
0.0
0
LINE
8
0
6
CONTINUOUS
10
-0.040038
20
-0.051934
30
0.0
11
-0.042589
21
-0.051934
31
0.0
0
LINE
8
0
6
CONTINUOUS
10
-0.032258
20
-0.051934
30
0.0
11
-0.033624
21
-0.051934
31
0.0
0
LINE
8
0
6
CONTINUOUS
10
-0.047045
20
-0.049474
30
0.0
11
-0.046142
21
-0.049474
31
0.0
0
LINE
8
0
6
CONTINUOUS
10
-0.042589
20
-0.049474
30
0.0
11
-0.041321
21
-0.049474
31
0.0
0
LINE
8
0
6
CONTINUOUS
10
-0.043857
20
-0.049474
30
0.0
11
-0.042589
21
-0.049474
31
0.0
0
LINE
8
0
6
CONTINUOUS
10
-0.048145
20
-0.049474
30
0.0
11
-0.047723
21
-0.049474
31
0.0
0
LINE
8
0
6
CONTINUOUS
10
-0.037034
20
-0.049474
30
0.0
11
-0.036891
21
-0.049474
31
0.0
0
LINE
8
0
6
CONTINUOUS
10
-0.036891
20
-0.049474
30
0.0
11
-0.035072
21
-0.047841
31
0.0
0
LINE
8
0
6
CONTINUOUS
10
-0.045062
20
-0.049474
30
0.0
11
-0.043857
21
-0.049474
31
0.0
0
LINE
8
0
6
CONTINUOUS
10
-0.048288
20
-0.049474
30
0.0
11
-0.048145
21
-0.049474
31
0.0
0
LINE
8
0
6
CONTINUOUS
10
-0.050107
20
-0.047841
30
0.0
11
-0.048288
21
-0.049474
31
0.0
0
LINE
8
0
6
CONTINUOUS
10
-0.041321
20
-0.049474
30
0.0
11
-0.040117
21
-0.049474
31
0.0
0
LINE
8
0
6
CONTINUOUS
10
-0.051555
20
-0.051934
30
0.0
11
-0.052921
21
-0.051934
31
0.0
0
LINE
8
0
6
CONTINUOUS
10
-0.042589
20
-0.051934
30
0.0
11
-0.045141
21
-0.051934
31
0.0
0
LINE
8
0
6
CONTINUOUS
10
-0.033624
20
-0.051934
30
0.0
11
-0.035440
21
-0.051934
31
0.0
0
LINE
8
0
6
CONTINUOUS
10
-0.059303
20
-0.043054
30
0.0
11
-0.059303
21
-0.044421
31
0.0
0
LINE
8
0
6
CONTINUOUS
10
-0.025876
20
-0.044421
30
0.0
11
-0.025876
21
-0.043054
31
0.0
0
LINE
8
0
6
CONTINUOUS
10
-0.053943
20
-0.046209
30
0.0
11
-0.050107
21
-0.047841
31
0.0
0
LINE
8
0
6
CONTINUOUS
10
-0.035072
20
-0.047841
30
0.0
11
-0.031235
21
-0.046209
31
0.0
0
LINE
8
0
6
CONTINUOUS
10
-0.067705
20
-0.058964
30
0.0
11
-0.067705
21
-0.107286
31
0.0
0
LINE
8
0
6
CONTINUOUS
10
-0.017474
20
-0.107286
30
0.0
11
-0.017474
21
-0.058964
31
0.0
0
LINE
8
0
6
CONTINUOUS
10
-0.026295
20
-0.042595
30
0.0
11
-0.027531
21
-0.042595
31
0.0
0
LINE
8
0
6
CONTINUOUS
10
-0.035338
20
-0.042595
30
0.0
11
-0.038870
21
-0.042595
31
0.0
0
LINE
8
0
6
CONTINUOUS
10
-0.049841
20
-0.042595
30
0.0
11
-0.053010
21
-0.042595
31
0.0
0
LINE
8
0
6
CONTINUOUS
10
-0.059303
20
-0.042595
30
0.0
11
-0.059303
21
-0.043054
31
0.0
0
LINE
8
0
6
CONTINUOUS
10
-0.058884
20
-0.042595
30
0.0
11
-0.059303
21
-0.042595
31
0.0
0
LINE
8
0
6
CONTINUOUS
10
-0.025876
20
-0.042595
30
0.0
11
-0.026295
21
-0.042595
31
0.0
0
LINE
8
0
6
CONTINUOUS
10
-0.025876
20
-0.043054
30
0.0
11
-0.025876
21
-0.042595
31
0.0
0
LINE
8
0
6
CONTINUOUS
10
-0.032169
20
-0.042595
30
0.0
11
-0.035338
21
-0.042595
31
0.0
0
LINE
8
0
6
CONTINUOUS
10
-0.046309
20
-0.042595
30
0.0
11
-0.049841
21
-0.042595
31
0.0
0
LINE
8
0
6
CONTINUOUS
10
-0.057648
20
-0.042595
30
0.0
11
-0.058884
21
-0.042595
31
0.0
0
LINE
8
0
6
CONTINUOUS
10
-0.042589
20
-0.042595
30
0.0
11
-0.046309
21
-0.042595
31
0.0
0
LINE
8
0
6
CONTINUOUS
10
-0.029522
20
-0.042595
30
0.0
11
-0.032169
21
-0.042595
31
0.0
0
LINE
8
0
6
CONTINUOUS
10
-0.055657
20
-0.042595
30
0.0
11
-0.057648
21
-0.042595
31
0.0
0
LINE
8
0
6
CONTINUOUS
10
-0.027531
20
-0.042595
30
0.0
11
-0.029522
21
-0.042595
31
0.0
0
LINE
8
0
6
CONTINUOUS
10
-0.038870
20
-0.042595
30
0.0
11
-0.042589
21
-0.042595
31
0.0
0
LINE
8
0
6
CONTINUOUS
10
-0.053010
20
-0.042595
30
0.0
11
-0.055657
21
-0.042595
31
0.0
0
LINE
8
0
6
CONTINUOUS
10
-0.052921
20
-0.051934
30
0.0
11
-0.053769
21
-0.051934
31
0.0
0
LINE
8
0
6
CONTINUOUS
10
-0.035440
20
-0.051934
30
0.0
11
-0.037614
21
-0.051934
31
0.0
0
LINE
8
0
6
CONTINUOUS
10
-0.038134
20
-0.049474
30
0.0
11
-0.037455
21
-0.049474
31
0.0
0
LINE
8
0
6
CONTINUOUS
10
-0.031122
20
-0.051934
30
0.0
11
-0.031410
21
-0.051934
31
0.0
0
LINE
8
0
6
CONTINUOUS
10
-0.031122
20
-0.052159
30
0.0
11
-0.031122
21
-0.051934
31
0.0
0
LINE
8
0
6
CONTINUOUS
10
-0.047723
20
-0.049474
30
0.0
11
-0.047045
21
-0.049474
31
0.0
0
LINE
8
0
6
CONTINUOUS
10
-0.045141
20
-0.051934
30
0.0
11
-0.047565
21
-0.051934
31
0.0
0
LINE
8
0
6
CONTINUOUS
10
-0.039037
20
-0.049474
30
0.0
11
-0.038134
21
-0.049474
31
0.0
0
LINE
8
0
6
CONTINUOUS
10
-0.054057
20
-0.051934
30
0.0
11
-0.054057
21
-0.052159
31
0.0
0
LINE
8
0
6
CONTINUOUS
10
-0.053769
20
-0.051934
30
0.0
11
-0.054057
21
-0.051934
31
0.0
0
LINE
8
0
6
CONTINUOUS
10
-0.040117
20
-0.049474
30
0.0
11
-0.039037
21
-0.049474
31
0.0
0
LINE
8
0
6
CONTINUOUS
10
-0.047565
20
-0.051934
30
0.0
11
-0.049739
21
-0.051934
31
0.0
0
LINE
8
0
6
CONTINUOUS
10
-0.037614
20
-0.051934
30
0.0
11
-0.040038
21
-0.051934
31
0.0
0
LINE
8
0
6
CONTINUOUS
10
-0.031410
20
-0.051934
30
0.0
11
-0.032258
21
-0.051934
31
0.0
0
LINE
8
0
6
CONTINUOUS
10
-0.046142
20
-0.049474
30
0.0
11
-0.045062
21
-0.049474
31
0.0
0
LINE
8
0
6
CONTINUOUS
10
-0.037455
20
-0.049474
30
0.0
11
-0.037034
21
-0.049474
31
0.0
0
LINE
8
0
6
CONTINUOUS
10
-0.067705
20
-0.057970
30
0.0
11
-0.067705
21
-0.058964
31
0.0
0
LINE
8
0
6
CONTINUOUS
10
-0.067076
20
-0.057970
30
0.0
11
-0.067705
21
-0.057970
31
0.0
0
LINE
8
0
6
CONTINUOUS
10
-0.065218
20
-0.057970
30
0.0
11
-0.067076
21
-0.057970
31
0.0
0
LINE
8
0
6
CONTINUOUS
10
-0.062226
20
-0.057970
30
0.0
11
-0.065218
21
-0.057970
31
0.0
0
LINE
8
0
6
CONTINUOUS
10
-0.058249
20
-0.057970
30
0.0
11
-0.062226
21
-0.057970
31
0.0
0
LINE
8
0
6
CONTINUOUS
10
-0.053487
20
-0.057970
30
0.0
11
-0.058249
21
-0.057970
31
0.0
0
LINE
8
0
6
CONTINUOUS
10
-0.048178
20
-0.057970
30
0.0
11
-0.053487
21
-0.057970
31
0.0
0
LINE
8
0
6
CONTINUOUS
10
-0.042589
20
-0.057970
30
0.0
11
-0.048178
21
-0.057970
31
0.0
0
LINE
8
0
6
CONTINUOUS
10
-0.037001
20
-0.057970
30
0.0
11
-0.042589
21
-0.057970
31
0.0
0
LINE
8
0
6
CONTINUOUS
10
-0.031692
20
-0.057970
30
0.0
11
-0.037001
21
-0.057970
31
0.0
0
LINE
8
0
6
CONTINUOUS
10
-0.026930
20
-0.057970
30
0.0
11
-0.031692
21
-0.057970
31
0.0
0
LINE
8
0
6
CONTINUOUS
10
-0.022953
20
-0.057970
30
0.0
11
-0.026930
21
-0.057970
31
0.0
0
LINE
8
0
6
CONTINUOUS
10
-0.019961
20
-0.057970
30
0.0
11
-0.022953
21
-0.057970
31
0.0
0
LINE
8
0
6
CONTINUOUS
10
-0.018103
20
-0.057970
30
0.0
11
-0.019961
21
-0.057970
31
0.0
0
LINE
8
0
6
CONTINUOUS
10
-0.017474
20
-0.057970
30
0.0
11
-0.018103
21
-0.057970
31
0.0
0
LINE
8
0
6
CONTINUOUS
10
-0.017474
20
-0.058964
30
0.0
11
-0.017474
21
-0.057970
31
0.0
0
LINE
8
0
6
CONTINUOUS
10
-0.032507
20
0.011124
30
0.0
11
-0.032552
21
0.010871
31
0.0
0
LINE
8
0
6
CONTINUOUS
10
-0.032151
20
0.011060
30
0.0
11
-0.032507
21
0.011124
31
0.0
0
LINE
8
0
6
CONTINUOUS
10
-0.029615
20
0.010608
30
0.0
11
-0.031135
21
0.010879
31
0.0
0
LINE
8
0
6
CONTINUOUS
10
-0.027822
20
0.010287
30
0.0
11
-0.029615
21
0.010608
31
0.0
0
LINE
8
0
6
CONTINUOUS
10
-0.024509
20
0.009696
30
0.0
11
-0.026029
21
0.009967
31
0.0
0
LINE
8
0
6
CONTINUOUS
10
-0.034026
20
-0.051934
30
0.0
11
-0.033155
21
-0.047026
31
0.0
0
LINE
8
0
6
CONTINUOUS
10
-0.032369
20
-0.042595
30
0.0
11
-0.023182
21
0.009198
31
0.0
0
LINE
8
0
6
CONTINUOUS
10
-0.023137
20
0.009451
30
0.0
11
-0.023494
21
0.009515
31
0.0
0
LINE
8
0
6
CONTINUOUS
10
-0.023182
20
0.009198
30
0.0
11
-0.023137
21
0.009451
31
0.0
0
LINE
8
0
6
CONTINUOUS
10
-0.032552
20
0.010871
30
0.0
11
-0.042036
21
-0.042595
31
0.0
0
LINE
8
0
6
CONTINUOUS
10
-0.032151
20
0.011060
30
0.0
11
-0.031135
21
0.010879
31
0.0
0
LINE
8
0
6
CONTINUOUS
10
-0.027822
20
0.010287
30
0.0
11
-0.026029
21
0.009967
31
0.0
0
LINE
8
0
6
CONTINUOUS
10
-0.024509
20
0.009696
30
0.0
11
-0.023494
21
0.009515
31
0.0
0
LINE
8
0
6
CONTINUOUS
10
-0.021288
20
-0.057970
30
0.0
11
-0.021673
21
-0.057970
31
0.0
0
LINE
8
0
6
CONTINUOUS
10
-0.019579
20
-0.057970
30
0.0
11
-0.021288
21
-0.057970
31
0.0
0
LINE
8
0
6
CONTINUOUS
10
-0.021673
20
-0.057970
30
0.0
11
-0.032909
21
-0.057970
31
0.0
0
LINE
8
0
6
CONTINUOUS
10
-0.028619
20
-0.047693
30
0.0
11
-0.024706
21
-0.045210
31
0.0
0
LINE
8
0
6
CONTINUOUS
10
-0.060478
20
-0.045290
30
0.0
11
-0.056453
21
-0.047756
31
0.0
0
LINE
8
0
6
CONTINUOUS
10
-0.023426
20
-0.056774
30
0.0
11
-0.020457
21
-0.056774
31
0.0
0
LINE
8
0
6
CONTINUOUS
10
-0.020457
20
-0.056774
30
0.0
11
-0.018748
21
-0.056774
31
0.0
0
LINE
8
0
6
CONTINUOUS
10
-0.031122
20
-0.056774
30
0.0
11
-0.029551
21
-0.056774
31
0.0
0
LINE
8
0
6
CONTINUOUS
10
-0.058136
20
-0.056774
30
0.0
11
-0.054057
21
-0.056774
31
0.0
0
LINE
8
0
6
CONTINUOUS
10
-0.061981
20
-0.056774
30
0.0
11
-0.058136
21
-0.056774
31
0.0
0
LINE
8
0
6
CONTINUOUS
10
-0.064828
20
-0.056774
30
0.0
11
-0.061981
21
-0.056774
31
0.0
0
LINE
8
0
6
CONTINUOUS
10
-0.066308
20
-0.056774
30
0.0
11
-0.064828
21
-0.056774
31
0.0
0
LINE
8
0
6
CONTINUOUS
10
-0.066455
20
-0.056774
30
0.0
11
-0.066308
21
-0.056774
31
0.0
0
LINE
8
0
6
CONTINUOUS
10
-0.054118
20
-0.056687
30
0.0
11
-0.066455
21
-0.056774
31
0.0
0
LINE
8
0
6
CONTINUOUS
10
-0.018748
20
-0.056774
30
0.0
11
-0.030888
21
-0.056635
31
0.0
0
LINE
8
0
6
CONTINUOUS
10
-0.029551
20
-0.056774
30
0.0
11
-0.023426
21
-0.056774
31
0.0
0
LINE
8
0
6
CONTINUOUS
10
-0.017223
20
-0.054370
30
0.0
11
-0.016050
21
-0.015283
31
0.0
0
LINE
8
0
6
CONTINUOUS
10
-0.069210
20
-0.013750
30
0.0
11
-0.067966
21
-0.054281
31
0.0
0
LINE
8
0
6
CONTINUOUS
10
-0.060478
20
-0.045290
30
0.0
11
-0.059685
21
-0.045288
31
0.0
0
LINE
8
0
6
CONTINUOUS
10
-0.060640
20
-0.043203
30
0.0
11
-0.060478
21
-0.045290
31
0.0
0
LINE
8
0
6
CONTINUOUS
10
-0.025421
20
-0.045209
30
0.0
11
-0.024706
21
-0.045210
31
0.0
0
LINE
8
0
6
CONTINUOUS
10
-0.024706
20
-0.045210
30
0.0
11
-0.024540
21
-0.043536
31
0.0
0
LINE
8
0
6
CONTINUOUS
10
-0.027186
20
-0.045209
30
0.0
11
-0.025421
21
-0.045209
31
0.0
0
LINE
8
0
6
CONTINUOUS
10
-0.054097
20
-0.050810
30
0.0
11
-0.054118
21
-0.056687
31
0.0
0
LINE
8
0
6
CONTINUOUS
10
-0.030888
20
-0.056635
30
0.0
11
-0.030909
21
-0.050758
31
0.0
0
LINE
8
0
6
CONTINUOUS
10
-0.031353
20
-0.056635
30
0.0
11
-0.030888
21
-0.056635
31
0.0
0
LINE
8
0
6
CONTINUOUS
10
-0.032516
20
-0.050758
30
0.0
11
-0.031372
21
-0.050757
31
0.0
0
LINE
8
0
6
CONTINUOUS
10
-0.030909
20
-0.050758
30
0.0
11
-0.028619
21
-0.047693
31
0.0
0
LINE
8
0
6
CONTINUOUS
10
-0.031372
20
-0.050757
30
0.0
11
-0.030909
21
-0.050758
31
0.0
0
LINE
8
0
6
CONTINUOUS
10
-0.054097
20
-0.050810
30
0.0
11
-0.053583
21
-0.050809
31
0.0
0
LINE
8
0
6
CONTINUOUS
10
-0.056453
20
-0.047756
30
0.0
11
-0.054097
21
-0.050810
31
0.0
0
LINE
8
0
6
CONTINUOUS
10
-0.053583
20
-0.050809
30
0.0
11
-0.052264
21
-0.050802
31
0.0
0
LINE
8
0
6
CONTINUOUS
10
-0.034266
20
-0.050758
30
0.0
11
-0.032516
21
-0.050758
31
0.0
0
LINE
8
0
6
CONTINUOUS
10
-0.052264
20
-0.050802
30
0.0
11
-0.050323
21
-0.050792
31
0.0
0
LINE
8
0
6
CONTINUOUS
10
-0.050323
20
-0.050792
30
0.0
11
-0.047858
21
-0.050781
31
0.0
0
LINE
8
0
6
CONTINUOUS
10
-0.036551
20
-0.050757
30
0.0
11
-0.034266
21
-0.050758
31
0.0
0
LINE
8
0
6
CONTINUOUS
10
-0.001419
20
0.014513
30
0.0
11
0.008198
21
0.016904
31
0.0
0
LINE
8
0
6
CONTINUOUS
10
0.008308
20
0.017230
30
0.0
11
-0.001419
21
0.014513
31
0.0
0
LINE
8
0
6
CONTINUOUS
10
-0.001160
20
0.014518
30
0.0
11
0.008308
21
0.017230
31
0.0
0
LINE
8
0
6
CONTINUOUS
10
0.050186
20
0.013804
30
0.0
11
0.063390
21
0.008197
31
0.0
0
LINE
8
0
6
CONTINUOUS
10
0.063587
20
0.008989
30
0.0
11
0.050186
21
0.013804
31
0.0
0
LINE
8
0
6
CONTINUOUS
10
0.050075
20
0.013787
30
0.0
11
0.063587
21
0.008989
31
0.0
0
LINE
8
0
6
CONTINUOUS
10
-0.078609
20
0.088997
30
0.0
11
-0.077169
21
0.088985
31
0.0
0
LINE
8
0
6
CONTINUOUS
10
-0.077370
20
0.089313
30
0.0
11
-0.076415
21
0.089576
31
0.0
0
LINE
8
0
6
CONTINUOUS
10
-0.073120
20
0.091591
30
0.0
11
-0.077370
21
0.089313
31
0.0
0
LINE
8
0
6
CONTINUOUS
10
-0.062122
20
0.014382
30
0.0
11
-0.060640
21
-0.043203
31
0.0
0
LINE
8
0
6
CONTINUOUS
10
-0.078055
20
0.088898
30
0.0
11
-0.078976
21
0.089686
31
0.0
0
LINE
8
0
6
CONTINUOUS
10
-0.078976
20
0.089686
30
0.0
11
-0.072217
21
0.082138
31
0.0
0
LINE
8
0
6
CONTINUOUS
10
0.081118
20
0.000796
30
0.0
11
0.081213
21
-0.000451
31
0.0
0
LINE
8
0
6
CONTINUOUS
10
0.081213
20
-0.000451
30
0.0
11
0.081574
21
0.000984
31
0.0
0
LINE
8
0
6
CONTINUOUS
10
0.077156
20
0.002672
30
0.0
11
0.078647
21
0.002111
31
0.0
0
LINE
8
0
6
CONTINUOUS
10
0.081574
20
0.000984
30
0.0
11
0.080807
21
-0.001667
31
0.0
0
LINE
8
0
6
CONTINUOUS
10
0.080807
20
-0.001667
30
0.0
11
0.081318
21
-0.000062
31
0.0
0
LINE
8
0
6
CONTINUOUS
10
0.080139
20
0.001548
30
0.0
11
0.081118
21
0.000796
31
0.0
0
LINE
8
0
6
CONTINUOUS
10
0.081118
20
0.000796
30
0.0
11
0.081306
21
0.002004
31
0.0
0
LINE
8
0
6
CONTINUOUS
10
0.063390
20
0.008197
30
0.0
11
0.077156
21
0.002672
31
0.0
0
LINE
8
0
6
CONTINUOUS
10
-0.024540
20
-0.043536
30
0.0
11
-0.023020
21
0.010266
31
0.0
0
LINE
8
0
6
CONTINUOUS
10
0.078647
20
0.002111
30
0.0
11
0.080139
21
0.001548
31
0.0
0
LINE
8
0
6
CONTINUOUS
10
0.082349
20
0.003860
30
0.0
11
0.083154
21
0.006791
31
0.0
0
LINE
8
0
6
CONTINUOUS
10
0.082085
20
0.002801
30
0.0
11
0.082349
21
0.003860
31
0.0
0
LINE
8
0
6
CONTINUOUS
10
0.082852
20
0.005954
30
0.0
11
0.082085
21
0.002801
31
0.0
0
LINE
8
0
6
CONTINUOUS
10
-0.021074
20
-0.056774
30
0.0
11
-0.018624
21
-0.056774
31
0.0
0
LINE
8
0
6
CONTINUOUS
10
0.019425
20
0.015521
30
0.0
11
0.032387
21
0.011935
31
0.0
0
LINE
8
0
6
CONTINUOUS
10
-0.078576
20
0.107625
30
0.0
11
-0.079863
21
0.106145
31
0.0
0
LINE
8
0
6
CONTINUOUS
10
-0.079863
20
0.106145
30
0.0
11
-0.077676
21
0.107854
31
0.0
0
LINE
8
0
6
CONTINUOUS
10
-0.079343
20
0.106715
30
0.0
11
-0.079863
21
0.106145
31
0.0
0
LINE
8
0
6
CONTINUOUS
10
-0.077676
20
0.107854
30
0.0
11
-0.079343
21
0.106715
31
0.0
0
LINE
8
0
6
CONTINUOUS
10
0.088257
20
0.027247
30
0.0
11
0.087796
21
0.028927
31
0.0
0
LINE
8
0
6
CONTINUOUS
10
0.088278
20
0.026937
30
0.0
11
0.088257
21
0.027247
31
0.0
0
LINE
8
0
6
CONTINUOUS
10
0.087796
20
0.028927
30
0.0
11
0.088278
21
0.026937
31
0.0
0
LINE
8
0
6
CONTINUOUS
10
0.086480
20
0.019205
30
0.0
11
0.088304
21
0.026929
31
0.0
0
LINE
8
0
6
CONTINUOUS
10
-0.064849
20
0.096781
30
0.0
11
-0.066356
21
0.096422
31
0.0
0
LINE
8
0
6
CONTINUOUS
10
0.088304
20
0.026929
30
0.0
11
0.086291
21
0.018782
31
0.0
0
LINE
8
0
6
CONTINUOUS
10
0.088241
20
0.026654
30
0.0
11
0.088304
21
0.026929
31
0.0
0
LINE
8
0
6
CONTINUOUS
10
0.086291
20
0.018782
30
0.0
11
0.088241
21
0.026654
31
0.0
0
LINE
8
0
6
CONTINUOUS
10
0.086058
20
0.019713
30
0.0
11
0.087356
21
0.027168
31
0.0
0
LINE
8
0
6
CONTINUOUS
10
-0.063747
20
0.053831
30
0.0
11
-0.063345
21
0.044527
31
0.0
0
LINE
8
0
6
CONTINUOUS
10
-0.017258
20
0.023368
30
0.0
11
-0.011462
21
0.027749
31
0.0
0
LINE
8
0
6
CONTINUOUS
10
-0.021674
20
0.017595
30
0.0
11
-0.017258
21
0.023368
31
0.0
0
LINE
8
0
6
CONTINUOUS
10
-0.062945
20
0.034763
30
0.0
11
-0.062519
21
0.024671
31
0.0
0
LINE
8
0
6
CONTINUOUS
10
-0.061178
20
0.095923
30
0.0
11
-0.063030
21
0.096762
31
0.0
0
LINE
8
0
6
CONTINUOUS
10
-0.076298
20
0.108098
30
0.0
11
-0.077271
21
0.108170
31
0.0
0
LINE
8
0
6
CONTINUOUS
10
-0.075082
20
0.107972
30
0.0
11
-0.076298
21
0.108098
31
0.0
0
LINE
8
0
6
CONTINUOUS
10
-0.088304
20
0.089478
30
0.0
11
-0.087818
21
0.086346
31
0.0
0
LINE
8
0
6
CONTINUOUS
10
-0.087818
20
0.086346
30
0.0
11
-0.087003
21
0.085161
31
0.0
0
LINE
8
0
6
CONTINUOUS
10
-0.079863
20
0.106145
30
0.0
11
-0.084693
21
0.098357
31
0.0
0
LINE
8
0
6
CONTINUOUS
10
-0.087138
20
0.093574
30
0.0
11
-0.088304
21
0.089478
31
0.0
0
LINE
8
0
6
CONTINUOUS
10
-0.077271
20
0.108170
30
0.0
11
-0.078576
21
0.107625
31
0.0
0
LINE
8
0
6
CONTINUOUS
10
-0.076370
20
0.108035
30
0.0
11
-0.077271
21
0.108170
31
0.0
0
LINE
8
0
6
CONTINUOUS
10
0.087730
20
0.029023
30
0.0
11
0.086619
21
0.030518
31
0.0
0
LINE
8
0
6
CONTINUOUS
10
0.086619
20
0.030518
30
0.0
11
0.084706
21
0.031580
31
0.0
0
LINE
8
0
6
CONTINUOUS
10
-0.055501
20
0.091028
30
0.0
11
-0.061178
21
0.095923
31
0.0
0
LINE
8
0
6
CONTINUOUS
10
0.020787
20
0.051125
30
0.0
11
0.009269
21
0.054719
31
0.0
0
LINE
8
0
6
CONTINUOUS
10
0.032725
20
0.047475
30
0.0
11
0.020787
21
0.051125
31
0.0
0
LINE
8
0
6
CONTINUOUS
10
0.082243
20
0.003393
30
0.0
11
0.084131
21
0.010436
31
0.0
0
LINE
8
0
6
CONTINUOUS
10
0.084131
20
0.010436
30
0.0
11
0.086480
21
0.019205
31
0.0
0
LINE
8
0
6
CONTINUOUS
10
0.088304
20
0.026929
30
0.0
11
0.087730
21
0.029023
31
0.0
0
LINE
8
0
6
CONTINUOUS
10
-0.063030
20
0.096762
30
0.0
11
-0.064849
21
0.096781
31
0.0
0
LINE
8
0
6
CONTINUOUS
10
0.009269
20
0.054719
30
0.0
11
-0.001961
21
0.058815
31
0.0
0
LINE
8
0
6
CONTINUOUS
10
0.045365
20
0.043610
30
0.0
11
0.032725
21
0.047475
31
0.0
0
LINE
8
0
6
CONTINUOUS
10
0.058546
20
0.039579
30
0.0
11
0.045365
21
0.043610
31
0.0
0
LINE
8
0
6
CONTINUOUS
10
0.071772
20
0.035535
30
0.0
11
0.058546
21
0.039579
31
0.0
0
LINE
8
0
6
CONTINUOUS
10
0.084706
20
0.031580
30
0.0
11
0.071772
21
0.035535
31
0.0
0
LINE
8
0
6
CONTINUOUS
10
-0.066356
20
0.096422
30
0.0
11
-0.073120
21
0.091591
31
0.0
0
LINE
8
0
6
CONTINUOUS
10
0.086357
20
0.030687
30
0.0
11
0.085081
21
0.031403
31
0.0
0
LINE
8
0
6
CONTINUOUS
10
0.086587
20
0.030494
30
0.0
11
0.086357
21
0.030687
31
0.0
0
LINE
8
0
6
CONTINUOUS
10
0.085081
20
0.031403
30
0.0
11
0.086587
21
0.030494
31
0.0
0
LINE
8
0
6
CONTINUOUS
10
0.086619
20
0.030518
30
0.0
11
0.087837
21
0.028668
31
0.0
0
LINE
8
0
6
CONTINUOUS
10
0.086912
20
0.030084
30
0.0
11
0.086619
21
0.030518
31
0.0
0
LINE
8
0
6
CONTINUOUS
10
0.087837
20
0.028668
30
0.0
11
0.086912
21
0.030084
31
0.0
0
LINE
8
0
6
CONTINUOUS
10
0.087202
20
0.029144
30
0.0
11
0.086128
21
0.030473
31
0.0
0
LINE
8
0
6
CONTINUOUS
10
0.076500
20
-0.001284
30
0.0
11
0.078048
21
-0.001717
31
0.0
0
LINE
8
0
6
CONTINUOUS
10
-0.066311
20
0.100594
30
0.0
11
-0.073968
21
0.107426
31
0.0
0
LINE
8
0
6
CONTINUOUS
10
-0.057903
20
0.093079
30
0.0
11
-0.066311
21
0.100594
31
0.0
0
LINE
8
0
6
CONTINUOUS
10
-0.048889
20
0.085498
30
0.0
11
-0.057903
21
0.093079
31
0.0
0
LINE
8
0
6
CONTINUOUS
10
-0.073968
20
0.107426
30
0.0
11
-0.075082
21
0.107972
31
0.0
0
LINE
8
0
6
CONTINUOUS
10
0.087121
20
0.028311
30
0.0
11
0.086483
21
0.029585
31
0.0
0
LINE
8
0
6
CONTINUOUS
10
0.087277
20
0.026914
30
0.0
11
0.087121
21
0.028311
31
0.0
0
LINE
8
0
6
CONTINUOUS
10
-0.039582
20
0.078822
30
0.0
11
-0.048889
21
0.085498
31
0.0
0
LINE
8
0
6
CONTINUOUS
10
-0.050351
20
0.085248
30
0.0
11
-0.040611
21
0.078137
31
0.0
0
LINE
8
0
6
CONTINUOUS
10
-0.030096
20
0.072835
30
0.0
11
-0.039582
21
0.078822
31
0.0
0
LINE
8
0
6
CONTINUOUS
10
-0.084693
20
0.098357
30
0.0
11
-0.079343
21
0.106715
31
0.0
0
LINE
8
0
6
CONTINUOUS
10
-0.079343
20
0.106715
30
0.0
11
-0.084218
21
0.099437
31
0.0
0
LINE
8
0
6
CONTINUOUS
10
-0.084218
20
0.099437
30
0.0
11
-0.087138
21
0.093574
31
0.0
0
LINE
8
0
6
CONTINUOUS
10
-0.087138
20
0.093574
30
0.0
11
-0.084693
21
0.098357
31
0.0
0
LINE
8
0
6
CONTINUOUS
10
-0.019768
20
0.067050
30
0.0
11
-0.030096
21
0.072835
31
0.0
0
LINE
8
0
6
CONTINUOUS
10
-0.009285
20
0.061979
30
0.0
11
-0.019768
21
0.067050
31
0.0
0
LINE
8
0
6
CONTINUOUS
10
0.001637
20
0.057423
30
0.0
11
-0.009285
21
0.061979
31
0.0
0
LINE
8
0
6
CONTINUOUS
10
-0.009485
20
0.061030
30
0.0
11
0.001479
21
0.056451
31
0.0
0
LINE
8
0
6
CONTINUOUS
10
0.080982
20
0.002138
30
0.0
11
0.080107
21
-0.000745
31
0.0
0
LINE
8
0
6
CONTINUOUS
10
0.013677
20
0.053299
30
0.0
11
0.001637
21
0.057423
31
0.0
0
LINE
8
0
6
CONTINUOUS
10
0.001479
20
0.056451
30
0.0
11
0.013606
21
0.052320
31
0.0
0
LINE
8
0
6
CONTINUOUS
10
0.026686
20
0.049321
30
0.0
11
0.013677
21
0.053299
31
0.0
0
LINE
8
0
6
CONTINUOUS
10
0.013606
20
0.052320
30
0.0
11
0.026616
21
0.048325
31
0.0
0
LINE
8
0
6
CONTINUOUS
10
-0.078576
20
0.107625
30
0.0
11
-0.076298
21
0.108098
31
0.0
0
LINE
8
0
6
CONTINUOUS
10
-0.077676
20
0.107854
30
0.0
11
-0.078576
21
0.107625
31
0.0
0
LINE
8
0
6
CONTINUOUS
10
-0.076298
20
0.108098
30
0.0
11
-0.077676
21
0.107854
31
0.0
0
LINE
8
0
6
CONTINUOUS
10
0.041353
20
0.044836
30
0.0
11
0.026686
21
0.049321
31
0.0
0
LINE
8
0
6
CONTINUOUS
10
0.056574
20
0.040182
30
0.0
11
0.041353
21
0.044836
31
0.0
0
LINE
8
0
6
CONTINUOUS
10
0.072192
20
0.035406
30
0.0
11
0.056574
21
0.040182
31
0.0
0
LINE
8
0
6
CONTINUOUS
10
0.056486
20
0.039215
30
0.0
11
0.072111
21
0.034437
31
0.0
0
LINE
8
0
6
CONTINUOUS
10
0.079597
20
-0.002147
30
0.0
11
0.080807
21
-0.001667
31
0.0
0
LINE
8
0
6
CONTINUOUS
10
0.087626
20
0.029233
30
0.0
11
0.086587
21
0.030494
31
0.0
0
LINE
8
0
6
CONTINUOUS
10
0.087796
20
0.028927
30
0.0
11
0.087626
21
0.029233
31
0.0
0
LINE
8
0
6
CONTINUOUS
10
0.084706
20
0.031580
30
0.0
11
0.086912
21
0.030084
31
0.0
0
LINE
8
0
6
CONTINUOUS
10
0.084979
20
0.031416
30
0.0
11
0.084706
21
0.031580
31
0.0
0
LINE
8
0
6
CONTINUOUS
10
0.086912
20
0.030084
30
0.0
11
0.084979
21
0.031416
31
0.0
0
LINE
8
0
6
CONTINUOUS
10
-0.048718
20
0.085481
30
0.0
11
-0.055501
21
0.091028
31
0.0
0
LINE
8
0
6
CONTINUOUS
10
-0.041063
20
0.079873
30
0.0
11
-0.048718
21
0.085481
31
0.0
0
LINE
8
0
6
CONTINUOUS
10
0.086573
20
0.019550
30
0.0
11
0.088070
21
0.025138
31
0.0
0
LINE
8
0
6
CONTINUOUS
10
0.087910
20
0.024827
30
0.0
11
0.086277
21
0.018833
31
0.0
0
LINE
8
0
6
CONTINUOUS
10
0.084772
20
0.012830
30
0.0
11
0.086573
21
0.019550
31
0.0
0
LINE
8
0
6
CONTINUOUS
10
0.086277
20
0.018833
30
0.0
11
0.084482
21
0.012206
31
0.0
0
LINE
8
0
6
CONTINUOUS
10
0.081598
20
0.000982
30
0.0
11
0.082085
21
0.002801
31
0.0
0
LINE
8
0
6
CONTINUOUS
10
0.082085
20
0.002801
30
0.0
11
0.081198
21
-0.000231
31
0.0
0
LINE
8
0
6
CONTINUOUS
10
-0.022749
20
0.068643
30
0.0
11
-0.032339
21
0.074190
31
0.0
0
LINE
8
0
6
CONTINUOUS
10
-0.001652
20
0.058713
30
0.0
11
-0.012394
21
0.063415
31
0.0
0
LINE
8
0
6
CONTINUOUS
10
0.084881
20
0.031513
30
0.0
11
0.072192
21
0.035406
31
0.0
0
LINE
8
0
6
CONTINUOUS
10
0.085081
20
0.031403
30
0.0
11
0.084881
21
0.031513
31
0.0
0
LINE
8
0
6
CONTINUOUS
10
0.072192
20
0.035406
30
0.0
11
0.085081
21
0.031403
31
0.0
0
LINE
8
0
6
CONTINUOUS
10
0.083154
20
0.006791
30
0.0
11
0.084772
21
0.012830
31
0.0
0
LINE
8
0
6
CONTINUOUS
10
0.084482
20
0.012206
30
0.0
11
0.082852
21
0.005954
31
0.0
0
LINE
8
0
6
CONTINUOUS
10
0.081213
20
-0.000451
30
0.0
11
0.081598
21
0.000982
31
0.0
0
LINE
8
0
6
CONTINUOUS
10
0.080807
20
-0.001667
30
0.0
11
0.081213
21
-0.000451
31
0.0
0
LINE
8
0
6
CONTINUOUS
10
0.081198
20
-0.000231
30
0.0
11
0.080807
21
-0.001667
31
0.0
0
LINE
8
0
6
CONTINUOUS
10
0.081318
20
-0.000062
30
0.0
11
0.082243
21
0.003393
31
0.0
0
LINE
8
0
6
CONTINUOUS
10
0.087730
20
0.029023
30
0.0
11
0.088241
21
0.026654
31
0.0
0
LINE
8
0
6
CONTINUOUS
10
0.087837
20
0.028668
30
0.0
11
0.087730
21
0.029023
31
0.0
0
LINE
8
0
6
CONTINUOUS
10
0.088241
20
0.026654
30
0.0
11
0.087837
21
0.028668
31
0.0
0
LINE
8
0
6
CONTINUOUS
10
-0.032339
20
0.074190
30
0.0
11
-0.041063
21
0.079873
31
0.0
0
LINE
8
0
6
CONTINUOUS
10
-0.012394
20
0.063415
30
0.0
11
-0.022749
21
0.068643
31
0.0
0
LINE
8
0
6
CONTINUOUS
10
-0.001961
20
0.058815
30
0.0
11
0.009448
21
0.054598
31
0.0
0
LINE
8
0
6
CONTINUOUS
10
0.009448
20
0.054598
30
0.0
11
-0.001652
21
0.058713
31
0.0
0
LINE
8
0
6
CONTINUOUS
10
0.004295
20
0.030171
30
0.0
11
-0.004108
21
0.030778
31
0.0
0
LINE
8
0
6
CONTINUOUS
10
-0.004642
20
0.030747
30
0.0
11
0.004295
21
0.030171
31
0.0
0
LINE
8
0
6
CONTINUOUS
10
-0.004108
20
0.030778
30
0.0
11
-0.004642
21
0.030747
31
0.0
0
LINE
8
0
6
CONTINUOUS
10
-0.004108
20
0.030778
30
0.0
11
0.004807
21
0.029865
31
0.0
0
LINE
8
0
6
CONTINUOUS
10
-0.023020
20
0.010266
30
0.0
11
-0.021674
21
0.017595
31
0.0
0
LINE
8
0
6
CONTINUOUS
10
0.086128
20
0.030473
30
0.0
11
0.084508
21
0.031360
31
0.0
0
LINE
8
0
6
CONTINUOUS
10
0.088070
20
0.025138
30
0.0
11
0.088278
21
0.026937
31
0.0
0
LINE
8
0
6
CONTINUOUS
10
0.088278
20
0.026937
30
0.0
11
0.087910
21
0.024827
31
0.0
0
LINE
8
0
6
CONTINUOUS
10
-0.079936
20
0.088714
30
0.0
11
-0.078609
21
0.088997
31
0.0
0
LINE
8
0
6
CONTINUOUS
10
-0.076415
20
0.089576
30
0.0
11
-0.079936
21
0.088714
31
0.0
0
LINE
8
0
6
CONTINUOUS
10
0.081306
20
0.002004
30
0.0
11
0.082056
21
0.004361
31
0.0
0
LINE
8
0
6
CONTINUOUS
10
0.082056
20
0.004361
30
0.0
11
0.083833
21
0.011097
31
0.0
0
LINE
8
0
6
CONTINUOUS
10
0.083833
20
0.011097
30
0.0
11
0.086058
21
0.019713
31
0.0
0
LINE
8
0
6
CONTINUOUS
10
0.087356
20
0.027168
30
0.0
11
0.087202
21
0.029144
31
0.0
0
LINE
8
0
6
CONTINUOUS
10
-0.077169
20
0.088985
30
0.0
11
-0.079549
21
0.089252
31
0.0
0
LINE
8
0
6
CONTINUOUS
10
-0.079549
20
0.089252
30
0.0
11
-0.078055
21
0.088898
31
0.0
0
LINE
8
0
6
CONTINUOUS
10
-0.059685
20
-0.045288
30
0.0
11
-0.057650
21
-0.045277
31
0.0
0
LINE
8
0
6
CONTINUOUS
10
-0.072217
20
0.082138
30
0.0
11
-0.072921
21
0.083207
31
0.0
0
LINE
8
0
6
CONTINUOUS
10
-0.072921
20
0.083207
30
0.0
11
-0.067824
21
0.073855
31
0.0
0
LINE
8
0
6
CONTINUOUS
10
-0.067824
20
0.073855
30
0.0
11
-0.064670
21
0.062610
31
0.0
0
LINE
8
0
6
CONTINUOUS
10
-0.064670
20
0.062610
30
0.0
11
-0.063747
21
0.053831
31
0.0
0
LINE
8
0
6
CONTINUOUS
10
-0.062519
20
0.024671
30
0.0
11
-0.062122
21
0.014382
31
0.0
0
LINE
8
0
6
CONTINUOUS
10
-0.063345
20
0.044527
30
0.0
11
-0.062945
21
0.034763
31
0.0
0
LINE
8
0
6
CONTINUOUS
10
-0.011462
20
0.027749
30
0.0
11
-0.004108
21
0.030778
31
0.0
0
LINE
8
0
6
CONTINUOUS
10
0.004807
20
0.029865
30
0.0
11
0.014411
21
0.026520
31
0.0
0
LINE
8
0
6
CONTINUOUS
10
0.014411
20
0.026520
30
0.0
11
0.025249
21
0.022673
31
0.0
0
LINE
8
0
6
CONTINUOUS
10
0.025249
20
0.022673
30
0.0
11
0.037219
21
0.018381
31
0.0
0
LINE
8
0
6
CONTINUOUS
10
0.037219
20
0.018381
30
0.0
11
0.050075
21
0.013787
31
0.0
0
LINE
8
0
6
CONTINUOUS
10
0.063295
20
0.002543
30
0.0
11
0.076500
21
-0.001284
31
0.0
0
LINE
8
0
6
CONTINUOUS
10
-0.087003
20
0.085161
30
0.0
11
-0.086184
21
0.083977
31
0.0
0
LINE
8
0
6
CONTINUOUS
10
0.084878
20
0.030485
30
0.0
11
0.072111
21
0.034437
31
0.0
0
LINE
8
0
6
CONTINUOUS
10
-0.057739
20
-0.056774
30
0.0
11
-0.049554
21
-0.056774
31
0.0
0
LINE
8
0
6
CONTINUOUS
10
-0.018624
20
-0.056774
30
0.0
11
-0.017372
21
-0.056774
31
0.0
0
LINE
8
0
6
CONTINUOUS
10
-0.063908
20
-0.056774
30
0.0
11
-0.057739
21
-0.056774
31
0.0
0
LINE
8
0
6
CONTINUOUS
10
-0.066667
20
-0.056774
30
0.0
11
-0.063908
21
-0.056774
31
0.0
0
LINE
8
0
6
CONTINUOUS
10
-0.025421
20
-0.056774
30
0.0
11
-0.021074
21
-0.056774
31
0.0
0
LINE
8
0
6
CONTINUOUS
10
-0.040456
20
-0.056774
30
0.0
11
-0.031659
21
-0.056774
31
0.0
0
LINE
8
0
6
CONTINUOUS
10
-0.049554
20
-0.056774
30
0.0
11
-0.040456
21
-0.056774
31
0.0
0
LINE
8
0
6
CONTINUOUS
10
-0.031659
20
-0.056774
30
0.0
11
-0.025421
21
-0.056774
31
0.0
0
LINE
8
0
6
CONTINUOUS
10
-0.017295
20
-0.056774
30
0.0
11
-0.017223
21
-0.054370
31
0.0
0
LINE
8
0
6
CONTINUOUS
10
-0.017372
20
-0.056774
30
0.0
11
-0.017295
21
-0.056774
31
0.0
0
LINE
8
0
6
CONTINUOUS
10
-0.067890
20
-0.056774
30
0.0
11
-0.066667
21
-0.056774
31
0.0
0
LINE
8
0
6
CONTINUOUS
10
-0.067966
20
-0.054281
30
0.0
11
-0.067890
21
-0.056774
31
0.0
0
LINE
8
0
6
CONTINUOUS
10
-0.077386
20
0.069898
30
0.0
11
-0.078079
21
0.071276
31
0.0
0
LINE
8
0
6
CONTINUOUS
10
-0.082204
20
0.078429
30
0.0
11
-0.077386
21
0.069898
31
0.0
0
LINE
8
0
6
CONTINUOUS
10
-0.086184
20
0.083977
30
0.0
11
-0.082204
21
0.078429
31
0.0
0
LINE
8
0
6
CONTINUOUS
10
-0.075074
20
0.107031
30
0.0
11
-0.076370
21
0.108035
31
0.0
0
LINE
8
0
6
CONTINUOUS
10
-0.059226
20
0.093204
30
0.0
11
-0.067516
21
0.100621
31
0.0
0
LINE
8
0
6
CONTINUOUS
10
-0.067516
20
0.100621
30
0.0
11
-0.075074
21
0.107031
31
0.0
0
LINE
8
0
6
CONTINUOUS
10
-0.050351
20
0.085248
30
0.0
11
-0.059226
21
0.093204
31
0.0
0
LINE
8
0
6
CONTINUOUS
10
-0.030895
20
0.071748
30
0.0
11
-0.040611
21
0.078137
31
0.0
0
LINE
8
0
6
CONTINUOUS
10
-0.020263
20
0.066005
30
0.0
11
-0.030895
21
0.071748
31
0.0
0
LINE
8
0
6
CONTINUOUS
10
-0.009485
20
0.061030
30
0.0
11
-0.020263
21
0.066005
31
0.0
0
LINE
8
0
6
CONTINUOUS
10
0.086483
20
0.029585
30
0.0
11
0.084878
21
0.030485
31
0.0
0
LINE
8
0
6
CONTINUOUS
10
0.056486
20
0.039215
30
0.0
11
0.041283
21
0.043863
31
0.0
0
LINE
8
0
6
CONTINUOUS
10
0.041283
20
0.043863
30
0.0
11
0.026616
21
0.048325
31
0.0
0
LINE
8
0
6
CONTINUOUS
10
-0.078079
20
0.071276
30
0.0
11
-0.074751
21
0.060819
31
0.0
0
LINE
8
0
6
CONTINUOUS
10
-0.074751
20
0.060819
30
0.0
11
-0.072255
21
0.049054
31
0.0
0
LINE
8
0
6
CONTINUOUS
10
-0.072255
20
0.049054
30
0.0
11
-0.071059
21
0.036297
31
0.0
0
LINE
8
0
6
CONTINUOUS
10
-0.071059
20
0.036297
30
0.0
11
-0.070549
21
0.023370
31
0.0
0
LINE
8
0
6
CONTINUOUS
10
-0.070549
20
0.023370
30
0.0
11
-0.070095
21
0.010726
31
0.0
0
LINE
8
0
6
CONTINUOUS
10
-0.070095
20
0.010726
30
0.0
11
-0.069653
21
-0.001609
31
0.0
0
LINE
8
0
6
CONTINUOUS
10
-0.069653
20
-0.001609
30
0.0
11
-0.069210
21
-0.013750
31
0.0
0
LINE
8
0
6
CONTINUOUS
10
0.080982
20
0.002138
30
0.0
11
0.081718
21
0.005689
31
0.0
0
LINE
8
0
6
CONTINUOUS
10
0.008198
20
0.016904
30
0.0
11
0.019425
21
0.015521
31
0.0
0
LINE
8
0
6
CONTINUOUS
10
-0.016050
20
-0.015283
30
0.0
11
-0.015645
21
-0.006199
31
0.0
0
LINE
8
0
6
CONTINUOUS
10
-0.013232
20
0.002149
30
0.0
11
-0.008534
21
0.008896
31
0.0
0
LINE
8
0
6
CONTINUOUS
10
-0.015645
20
-0.006199
30
0.0
11
-0.013232
21
0.002149
31
0.0
0
LINE
8
0
6
CONTINUOUS
10
-0.008534
20
0.008896
30
0.0
11
-0.001160
21
0.014518
31
0.0
0
LINE
8
0
6
CONTINUOUS
10
0.032387
20
0.011935
30
0.0
11
0.019512
21
0.015562
31
0.0
0
LINE
8
0
6
CONTINUOUS
10
0.019512
20
0.015562
30
0.0
11
0.032394
21
0.011644
31
0.0
0
LINE
8
0
6
CONTINUOUS
10
0.047145
20
0.007262
30
0.0
11
0.063295
21
0.002543
31
0.0
0
LINE
8
0
6
CONTINUOUS
10
0.079597
20
-0.002147
30
0.0
11
0.080107
21
-0.000745
31
0.0
0
LINE
8
0
6
CONTINUOUS
10
0.078048
20
-0.001717
30
0.0
11
0.079597
21
-0.002147
31
0.0
0
LINE
8
0
6
CONTINUOUS
10
0.032394
20
0.011644
30
0.0
11
0.047145
21
0.007262
31
0.0
0
ENDSEC
0
EOF
