999
Erzeugt mit innoplus bad 
0
SECTION
2
HEADER
9
$ACADVER
1
AC1009
9
$DWGCODEPAGE
3
ISO8859-1
0
ENDSEC
0
SECTION
2
TABLES
0
TABLE
2
LAYER
70
1
0
LAYER
2
0
70
0
62
7
6
CONTINUOUS
0
ENDTAB
0
ENDSEC
0
SECTION
2
ENTITIES
0
LINE
8
0
6
CONTINUOUS
10
-0.056170
20
-0.057633
30
0.0
11
-0.056170
21
-0.057970
31
0.0
0
LINE
8
0
6
CONTINUOUS
10
-0.033235
20
-0.057970
30
0.0
11
-0.033235
21
-0.057633
31
0.0
0
LINE
8
0
6
CONTINUOUS
10
-0.056170
20
-0.052159
30
0.0
11
-0.056170
21
-0.056679
31
0.0
0
LINE
8
0
6
CONTINUOUS
10
-0.056170
20
-0.056682
30
0.0
11
-0.056170
21
-0.057633
31
0.0
0
LINE
8
0
6
CONTINUOUS
10
-0.033235
20
-0.057633
30
0.0
11
-0.033235
21
-0.052159
31
0.0
0
LINE
8
0
6
CONTINUOUS
10
-0.039000
20
-0.051934
30
0.0
11
-0.039004
21
-0.049474
31
0.0
0
LINE
8
0
6
CONTINUOUS
10
-0.039143
20
-0.051934
30
0.0
11
-0.039000
21
-0.051934
31
0.0
0
LINE
8
0
6
CONTINUOUS
10
-0.039565
20
-0.051934
30
0.0
11
-0.039143
21
-0.051934
31
0.0
0
LINE
8
0
6
CONTINUOUS
10
-0.040244
20
-0.051934
30
0.0
11
-0.039565
21
-0.051934
31
0.0
0
LINE
8
0
6
CONTINUOUS
10
-0.041147
20
-0.051934
30
0.0
11
-0.040244
21
-0.051934
31
0.0
0
LINE
8
0
6
CONTINUOUS
10
-0.042228
20
-0.051934
30
0.0
11
-0.041147
21
-0.051934
31
0.0
0
LINE
8
0
6
CONTINUOUS
10
-0.043434
20
-0.051934
30
0.0
11
-0.042228
21
-0.051934
31
0.0
0
LINE
8
0
6
CONTINUOUS
10
-0.044702
20
-0.051934
30
0.0
11
-0.043434
21
-0.051934
31
0.0
0
LINE
8
0
6
CONTINUOUS
10
-0.045971
20
-0.051934
30
0.0
11
-0.044702
21
-0.051934
31
0.0
0
LINE
8
0
6
CONTINUOUS
10
-0.047176
20
-0.051934
30
0.0
11
-0.045971
21
-0.051934
31
0.0
0
LINE
8
0
6
CONTINUOUS
10
-0.048258
20
-0.051934
30
0.0
11
-0.047176
21
-0.051934
31
0.0
0
LINE
8
0
6
CONTINUOUS
10
-0.049161
20
-0.051934
30
0.0
11
-0.048258
21
-0.051934
31
0.0
0
LINE
8
0
6
CONTINUOUS
10
-0.049840
20
-0.051934
30
0.0
11
-0.049161
21
-0.051934
31
0.0
0
LINE
8
0
6
CONTINUOUS
10
-0.050262
20
-0.051934
30
0.0
11
-0.049840
21
-0.051934
31
0.0
0
LINE
8
0
6
CONTINUOUS
10
-0.050405
20
-0.051934
30
0.0
11
-0.050262
21
-0.051934
31
0.0
0
LINE
8
0
6
CONTINUOUS
10
-0.050401
20
-0.049474
30
0.0
11
-0.050405
21
-0.051934
31
0.0
0
LINE
8
0
6
CONTINUOUS
10
-0.060822
20
-0.045221
30
0.0
11
-0.056056
21
-0.046209
31
0.0
0
LINE
8
0
6
CONTINUOUS
10
-0.033348
20
-0.046209
30
0.0
11
-0.028583
21
-0.045221
31
0.0
0
LINE
8
0
6
CONTINUOUS
10
-0.027989
20
-0.045098
30
0.0
11
-0.027989
21
-0.044421
31
0.0
0
LINE
8
0
6
CONTINUOUS
10
-0.061416
20
-0.044421
30
0.0
11
-0.061416
21
-0.045098
31
0.0
0
LINE
8
0
6
CONTINUOUS
10
-0.040264
20
-0.042595
30
0.0
11
-0.042426
21
-0.042595
31
0.0
0
LINE
8
0
6
CONTINUOUS
10
-0.055745
20
-0.042595
30
0.0
11
-0.056652
21
-0.042595
31
0.0
0
LINE
8
0
6
CONTINUOUS
10
-0.054285
20
-0.042595
30
0.0
11
-0.055745
21
-0.042595
31
0.0
0
LINE
8
0
6
CONTINUOUS
10
-0.034474
20
-0.042595
30
0.0
11
-0.034730
21
-0.042595
31
0.0
0
LINE
8
0
6
CONTINUOUS
10
-0.032446
20
-0.042595
30
0.0
11
-0.032753
21
-0.042595
31
0.0
0
LINE
8
0
6
CONTINUOUS
10
-0.052699
20
-0.042595
30
0.0
11
-0.053918
21
-0.042595
31
0.0
0
LINE
8
0
6
CONTINUOUS
10
-0.053918
20
-0.042595
30
0.0
11
-0.054675
21
-0.042595
31
0.0
0
LINE
8
0
6
CONTINUOUS
10
-0.042426
20
-0.042595
30
0.0
11
-0.044702
21
-0.042595
31
0.0
0
LINE
8
0
6
CONTINUOUS
10
-0.034730
20
-0.042595
30
0.0
11
-0.035487
21
-0.042595
31
0.0
0
LINE
8
0
6
CONTINUOUS
10
-0.054675
20
-0.042595
30
0.0
11
-0.054931
21
-0.042595
31
0.0
0
LINE
8
0
6
CONTINUOUS
10
-0.044702
20
-0.042595
30
0.0
11
-0.046978
21
-0.042595
31
0.0
0
LINE
8
0
6
CONTINUOUS
10
-0.046978
20
-0.042595
30
0.0
11
-0.049140
21
-0.042595
31
0.0
0
LINE
8
0
6
CONTINUOUS
10
-0.051080
20
-0.042595
30
0.0
11
-0.052699
21
-0.042595
31
0.0
0
LINE
8
0
6
CONTINUOUS
10
-0.032753
20
-0.042595
30
0.0
11
-0.033660
21
-0.042595
31
0.0
0
LINE
8
0
6
CONTINUOUS
10
-0.038325
20
-0.042595
30
0.0
11
-0.040264
21
-0.042595
31
0.0
0
LINE
8
0
6
CONTINUOUS
10
-0.056652
20
-0.042595
30
0.0
11
-0.056959
21
-0.042595
31
0.0
0
LINE
8
0
6
CONTINUOUS
10
-0.036705
20
-0.042595
30
0.0
11
-0.038325
21
-0.042595
31
0.0
0
LINE
8
0
6
CONTINUOUS
10
-0.049140
20
-0.042595
30
0.0
11
-0.051080
21
-0.042595
31
0.0
0
LINE
8
0
6
CONTINUOUS
10
-0.033660
20
-0.042595
30
0.0
11
-0.035120
21
-0.042595
31
0.0
0
LINE
8
0
6
CONTINUOUS
10
-0.035487
20
-0.042595
30
0.0
11
-0.036705
21
-0.042595
31
0.0
0
LINE
8
0
6
CONTINUOUS
10
-0.059336
20
-0.042595
30
0.0
11
-0.057401
21
-0.042595
31
0.0
0
LINE
8
0
6
CONTINUOUS
10
-0.056062
20
-0.042595
30
0.0
11
-0.059336
21
-0.042595
31
0.0
0
LINE
8
0
6
CONTINUOUS
10
-0.054560
20
-0.042595
30
0.0
11
-0.056062
21
-0.042595
31
0.0
0
LINE
8
0
6
CONTINUOUS
10
-0.057401
20
-0.042595
30
0.0
11
-0.054829
21
-0.042595
31
0.0
0
LINE
8
0
6
CONTINUOUS
10
-0.052563
20
-0.042595
30
0.0
11
-0.054560
21
-0.042595
31
0.0
0
LINE
8
0
6
CONTINUOUS
10
-0.054829
20
-0.042595
30
0.0
11
-0.051750
21
-0.042595
31
0.0
0
LINE
8
0
6
CONTINUOUS
10
-0.050173
20
-0.042595
30
0.0
11
-0.052563
21
-0.042595
31
0.0
0
LINE
8
0
6
CONTINUOUS
10
-0.051750
20
-0.042595
30
0.0
11
-0.048317
21
-0.042595
31
0.0
0
LINE
8
0
6
CONTINUOUS
10
-0.047508
20
-0.042595
30
0.0
11
-0.050173
21
-0.042595
31
0.0
0
LINE
8
0
6
CONTINUOUS
10
-0.048317
20
-0.042595
30
0.0
11
-0.044702
21
-0.042595
31
0.0
0
LINE
8
0
6
CONTINUOUS
10
-0.044702
20
-0.042595
30
0.0
11
-0.047508
21
-0.042595
31
0.0
0
LINE
8
0
6
CONTINUOUS
10
-0.044702
20
-0.042595
30
0.0
11
-0.041088
21
-0.042595
31
0.0
0
LINE
8
0
6
CONTINUOUS
10
-0.041897
20
-0.042595
30
0.0
11
-0.044702
21
-0.042595
31
0.0
0
LINE
8
0
6
CONTINUOUS
10
-0.041088
20
-0.042595
30
0.0
11
-0.037655
21
-0.042595
31
0.0
0
LINE
8
0
6
CONTINUOUS
10
-0.039232
20
-0.042595
30
0.0
11
-0.041897
21
-0.042595
31
0.0
0
LINE
8
0
6
CONTINUOUS
10
-0.037655
20
-0.042595
30
0.0
11
-0.034576
21
-0.042595
31
0.0
0
LINE
8
0
6
CONTINUOUS
10
-0.036841
20
-0.042595
30
0.0
11
-0.039232
21
-0.042595
31
0.0
0
LINE
8
0
6
CONTINUOUS
10
-0.034576
20
-0.042595
30
0.0
11
-0.032004
21
-0.042595
31
0.0
0
LINE
8
0
6
CONTINUOUS
10
-0.034845
20
-0.042595
30
0.0
11
-0.036841
21
-0.042595
31
0.0
0
LINE
8
0
6
CONTINUOUS
10
-0.030069
20
-0.042595
30
0.0
11
-0.033343
21
-0.042595
31
0.0
0
LINE
8
0
6
CONTINUOUS
10
-0.032004
20
-0.042595
30
0.0
11
-0.030069
21
-0.042595
31
0.0
0
LINE
8
0
6
CONTINUOUS
10
-0.033343
20
-0.042595
30
0.0
11
-0.034845
21
-0.042595
31
0.0
0
LINE
8
0
6
CONTINUOUS
10
-0.028408
20
-0.045098
30
0.0
11
-0.029644
21
-0.045098
31
0.0
0
LINE
8
0
6
CONTINUOUS
10
-0.061416
20
-0.045098
30
0.0
11
-0.060822
21
-0.045221
31
0.0
0
LINE
8
0
6
CONTINUOUS
10
-0.060997
20
-0.045098
30
0.0
11
-0.061416
21
-0.045098
31
0.0
0
LINE
8
0
6
CONTINUOUS
10
-0.051954
20
-0.045098
30
0.0
11
-0.055123
21
-0.045098
31
0.0
0
LINE
8
0
6
CONTINUOUS
10
-0.037451
20
-0.045098
30
0.0
11
-0.040983
21
-0.045098
31
0.0
0
LINE
8
0
6
CONTINUOUS
10
-0.040983
20
-0.045098
30
0.0
11
-0.044702
21
-0.045098
31
0.0
0
LINE
8
0
6
CONTINUOUS
10
-0.029644
20
-0.045098
30
0.0
11
-0.031635
21
-0.045098
31
0.0
0
LINE
8
0
6
CONTINUOUS
10
-0.055123
20
-0.045098
30
0.0
11
-0.057770
21
-0.045098
31
0.0
0
LINE
8
0
6
CONTINUOUS
10
-0.057770
20
-0.045098
30
0.0
11
-0.059761
21
-0.045098
31
0.0
0
LINE
8
0
6
CONTINUOUS
10
-0.044702
20
-0.045098
30
0.0
11
-0.048422
21
-0.045098
31
0.0
0
LINE
8
0
6
CONTINUOUS
10
-0.031635
20
-0.045098
30
0.0
11
-0.034282
21
-0.045098
31
0.0
0
LINE
8
0
6
CONTINUOUS
10
-0.059761
20
-0.045098
30
0.0
11
-0.060997
21
-0.045098
31
0.0
0
LINE
8
0
6
CONTINUOUS
10
-0.048422
20
-0.045098
30
0.0
11
-0.051954
21
-0.045098
31
0.0
0
LINE
8
0
6
CONTINUOUS
10
-0.069818
20
-0.108170
30
0.0
11
-0.069188
21
-0.108170
31
0.0
0
LINE
8
0
6
CONTINUOUS
10
-0.069818
20
-0.107286
30
0.0
11
-0.069818
21
-0.108170
31
0.0
0
LINE
8
0
6
CONTINUOUS
10
-0.069188
20
-0.108170
30
0.0
11
-0.067331
21
-0.108170
31
0.0
0
LINE
8
0
6
CONTINUOUS
10
-0.067331
20
-0.108170
30
0.0
11
-0.064339
21
-0.108170
31
0.0
0
LINE
8
0
6
CONTINUOUS
10
-0.064339
20
-0.108170
30
0.0
11
-0.060362
21
-0.108170
31
0.0
0
LINE
8
0
6
CONTINUOUS
10
-0.060362
20
-0.108170
30
0.0
11
-0.055600
21
-0.108170
31
0.0
0
LINE
8
0
6
CONTINUOUS
10
-0.055600
20
-0.108170
30
0.0
11
-0.050291
21
-0.108170
31
0.0
0
LINE
8
0
6
CONTINUOUS
10
-0.050291
20
-0.108170
30
0.0
11
-0.044702
21
-0.108170
31
0.0
0
LINE
8
0
6
CONTINUOUS
10
-0.044702
20
-0.108170
30
0.0
11
-0.039114
21
-0.108170
31
0.0
0
LINE
8
0
6
CONTINUOUS
10
-0.039114
20
-0.108170
30
0.0
11
-0.033805
21
-0.108170
31
0.0
0
LINE
8
0
6
CONTINUOUS
10
-0.033805
20
-0.108170
30
0.0
11
-0.029043
21
-0.108170
31
0.0
0
LINE
8
0
6
CONTINUOUS
10
-0.029043
20
-0.108170
30
0.0
11
-0.025066
21
-0.108170
31
0.0
0
LINE
8
0
6
CONTINUOUS
10
-0.025066
20
-0.108170
30
0.0
11
-0.022074
21
-0.108170
31
0.0
0
LINE
8
0
6
CONTINUOUS
10
-0.022074
20
-0.108170
30
0.0
11
-0.020216
21
-0.108170
31
0.0
0
LINE
8
0
6
CONTINUOUS
10
-0.020216
20
-0.108170
30
0.0
11
-0.019587
21
-0.108170
31
0.0
0
LINE
8
0
6
CONTINUOUS
10
-0.019587
20
-0.108170
30
0.0
11
-0.019587
21
-0.107286
31
0.0
0
LINE
8
0
6
CONTINUOUS
10
-0.033523
20
-0.051934
30
0.0
11
-0.034371
21
-0.051934
31
0.0
0
LINE
8
0
6
CONTINUOUS
10
-0.056170
20
-0.051934
30
0.0
11
-0.056170
21
-0.052159
31
0.0
0
LINE
8
0
6
CONTINUOUS
10
-0.055882
20
-0.051934
30
0.0
11
-0.056170
21
-0.051934
31
0.0
0
LINE
8
0
6
CONTINUOUS
10
-0.049678
20
-0.051934
30
0.0
11
-0.051852
21
-0.051934
31
0.0
0
LINE
8
0
6
CONTINUOUS
10
-0.039727
20
-0.051934
30
0.0
11
-0.042151
21
-0.051934
31
0.0
0
LINE
8
0
6
CONTINUOUS
10
-0.050401
20
-0.049474
30
0.0
11
-0.050258
21
-0.049474
31
0.0
0
LINE
8
0
6
CONTINUOUS
10
-0.052220
20
-0.047841
30
0.0
11
-0.050401
21
-0.049474
31
0.0
0
LINE
8
0
6
CONTINUOUS
10
-0.043434
20
-0.049474
30
0.0
11
-0.042230
21
-0.049474
31
0.0
0
LINE
8
0
6
CONTINUOUS
10
-0.044702
20
-0.049474
30
0.0
11
-0.043434
21
-0.049474
31
0.0
0
LINE
8
0
6
CONTINUOUS
10
-0.045970
20
-0.049474
30
0.0
11
-0.044702
21
-0.049474
31
0.0
0
LINE
8
0
6
CONTINUOUS
10
-0.050258
20
-0.049474
30
0.0
11
-0.049836
21
-0.049474
31
0.0
0
LINE
8
0
6
CONTINUOUS
10
-0.042230
20
-0.049474
30
0.0
11
-0.041150
21
-0.049474
31
0.0
0
LINE
8
0
6
CONTINUOUS
10
-0.042151
20
-0.051934
30
0.0
11
-0.044702
21
-0.051934
31
0.0
0
LINE
8
0
6
CONTINUOUS
10
-0.034371
20
-0.051934
30
0.0
11
-0.035737
21
-0.051934
31
0.0
0
LINE
8
0
6
CONTINUOUS
10
-0.034282
20
-0.045098
30
0.0
11
-0.037451
21
-0.045098
31
0.0
0
LINE
8
0
6
CONTINUOUS
10
-0.051852
20
-0.051934
30
0.0
11
-0.053668
21
-0.051934
31
0.0
0
LINE
8
0
6
CONTINUOUS
10
-0.027989
20
-0.044421
30
0.0
11
-0.027989
21
-0.043054
31
0.0
0
LINE
8
0
6
CONTINUOUS
10
-0.061416
20
-0.043054
30
0.0
11
-0.061416
21
-0.044421
31
0.0
0
LINE
8
0
6
CONTINUOUS
10
-0.056056
20
-0.046209
30
0.0
11
-0.052220
21
-0.047841
31
0.0
0
LINE
8
0
6
CONTINUOUS
10
-0.039147
20
-0.049474
30
0.0
11
-0.039004
21
-0.049474
31
0.0
0
LINE
8
0
6
CONTINUOUS
10
-0.039004
20
-0.049474
30
0.0
11
-0.037185
21
-0.047841
31
0.0
0
LINE
8
0
6
CONTINUOUS
10
-0.027989
20
-0.045098
30
0.0
11
-0.028408
21
-0.045098
31
0.0
0
LINE
8
0
6
CONTINUOUS
10
-0.028583
20
-0.045221
30
0.0
11
-0.027989
21
-0.045098
31
0.0
0
LINE
8
0
6
CONTINUOUS
10
-0.069818
20
-0.058964
30
0.0
11
-0.069818
21
-0.107286
31
0.0
0
LINE
8
0
6
CONTINUOUS
10
-0.019587
20
-0.107286
30
0.0
11
-0.019587
21
-0.058964
31
0.0
0
LINE
8
0
6
CONTINUOUS
10
-0.034282
20
-0.042595
30
0.0
11
-0.037451
21
-0.042595
31
0.0
0
LINE
8
0
6
CONTINUOUS
10
-0.048422
20
-0.042595
30
0.0
11
-0.051954
21
-0.042595
31
0.0
0
LINE
8
0
6
CONTINUOUS
10
-0.059761
20
-0.042595
30
0.0
11
-0.060997
21
-0.042595
31
0.0
0
LINE
8
0
6
CONTINUOUS
10
-0.027989
20
-0.042595
30
0.0
11
-0.028408
21
-0.042595
31
0.0
0
LINE
8
0
6
CONTINUOUS
10
-0.027989
20
-0.043054
30
0.0
11
-0.027989
21
-0.042595
31
0.0
0
LINE
8
0
6
CONTINUOUS
10
-0.031635
20
-0.042595
30
0.0
11
-0.034282
21
-0.042595
31
0.0
0
LINE
8
0
6
CONTINUOUS
10
-0.044702
20
-0.042595
30
0.0
11
-0.048422
21
-0.042595
31
0.0
0
LINE
8
0
6
CONTINUOUS
10
-0.057770
20
-0.042595
30
0.0
11
-0.059761
21
-0.042595
31
0.0
0
LINE
8
0
6
CONTINUOUS
10
-0.029644
20
-0.042595
30
0.0
11
-0.031635
21
-0.042595
31
0.0
0
LINE
8
0
6
CONTINUOUS
10
-0.040983
20
-0.042595
30
0.0
11
-0.044702
21
-0.042595
31
0.0
0
LINE
8
0
6
CONTINUOUS
10
-0.055123
20
-0.042595
30
0.0
11
-0.057770
21
-0.042595
31
0.0
0
LINE
8
0
6
CONTINUOUS
10
-0.051954
20
-0.042595
30
0.0
11
-0.055123
21
-0.042595
31
0.0
0
LINE
8
0
6
CONTINUOUS
10
-0.061416
20
-0.042595
30
0.0
11
-0.061416
21
-0.043054
31
0.0
0
LINE
8
0
6
CONTINUOUS
10
-0.060997
20
-0.042595
30
0.0
11
-0.061416
21
-0.042595
31
0.0
0
LINE
8
0
6
CONTINUOUS
10
-0.028408
20
-0.042595
30
0.0
11
-0.029644
21
-0.042595
31
0.0
0
LINE
8
0
6
CONTINUOUS
10
-0.037451
20
-0.042595
30
0.0
11
-0.040983
21
-0.042595
31
0.0
0
LINE
8
0
6
CONTINUOUS
10
-0.039568
20
-0.049474
30
0.0
11
-0.039147
21
-0.049474
31
0.0
0
LINE
8
0
6
CONTINUOUS
10
-0.053668
20
-0.051934
30
0.0
11
-0.055034
21
-0.051934
31
0.0
0
LINE
8
0
6
CONTINUOUS
10
-0.048255
20
-0.049474
30
0.0
11
-0.047175
21
-0.049474
31
0.0
0
LINE
8
0
6
CONTINUOUS
10
-0.044702
20
-0.051934
30
0.0
11
-0.047254
21
-0.051934
31
0.0
0
LINE
8
0
6
CONTINUOUS
10
-0.035737
20
-0.051934
30
0.0
11
-0.037553
21
-0.051934
31
0.0
0
LINE
8
0
6
CONTINUOUS
10
-0.040247
20
-0.049474
30
0.0
11
-0.039568
21
-0.049474
31
0.0
0
LINE
8
0
6
CONTINUOUS
10
-0.033235
20
-0.051934
30
0.0
11
-0.033523
21
-0.051934
31
0.0
0
LINE
8
0
6
CONTINUOUS
10
-0.033235
20
-0.052159
30
0.0
11
-0.033235
21
-0.051934
31
0.0
0
LINE
8
0
6
CONTINUOUS
10
-0.049157
20
-0.049474
30
0.0
11
-0.048255
21
-0.049474
31
0.0
0
LINE
8
0
6
CONTINUOUS
10
-0.049836
20
-0.049474
30
0.0
11
-0.049157
21
-0.049474
31
0.0
0
LINE
8
0
6
CONTINUOUS
10
-0.041150
20
-0.049474
30
0.0
11
-0.040247
21
-0.049474
31
0.0
0
LINE
8
0
6
CONTINUOUS
10
-0.055034
20
-0.051934
30
0.0
11
-0.055882
21
-0.051934
31
0.0
0
LINE
8
0
6
CONTINUOUS
10
-0.047254
20
-0.051934
30
0.0
11
-0.049678
21
-0.051934
31
0.0
0
LINE
8
0
6
CONTINUOUS
10
-0.037553
20
-0.051934
30
0.0
11
-0.039727
21
-0.051934
31
0.0
0
LINE
8
0
6
CONTINUOUS
10
-0.047175
20
-0.049474
30
0.0
11
-0.045970
21
-0.049474
31
0.0
0
LINE
8
0
6
CONTINUOUS
10
-0.037185
20
-0.047841
30
0.0
11
-0.033348
21
-0.046209
31
0.0
0
LINE
8
0
6
CONTINUOUS
10
-0.069818
20
-0.057970
30
0.0
11
-0.069818
21
-0.058964
31
0.0
0
LINE
8
0
6
CONTINUOUS
10
-0.069188
20
-0.057970
30
0.0
11
-0.069818
21
-0.057970
31
0.0
0
LINE
8
0
6
CONTINUOUS
10
-0.067331
20
-0.057970
30
0.0
11
-0.069188
21
-0.057970
31
0.0
0
LINE
8
0
6
CONTINUOUS
10
-0.064339
20
-0.057970
30
0.0
11
-0.067331
21
-0.057970
31
0.0
0
LINE
8
0
6
CONTINUOUS
10
-0.060362
20
-0.057970
30
0.0
11
-0.064339
21
-0.057970
31
0.0
0
LINE
8
0
6
CONTINUOUS
10
-0.055600
20
-0.057970
30
0.0
11
-0.060362
21
-0.057970
31
0.0
0
LINE
8
0
6
CONTINUOUS
10
-0.050291
20
-0.057970
30
0.0
11
-0.055600
21
-0.057970
31
0.0
0
LINE
8
0
6
CONTINUOUS
10
-0.044702
20
-0.057970
30
0.0
11
-0.050291
21
-0.057970
31
0.0
0
LINE
8
0
6
CONTINUOUS
10
-0.039114
20
-0.057970
30
0.0
11
-0.044702
21
-0.057970
31
0.0
0
LINE
8
0
6
CONTINUOUS
10
-0.033805
20
-0.057970
30
0.0
11
-0.039114
21
-0.057970
31
0.0
0
LINE
8
0
6
CONTINUOUS
10
-0.029043
20
-0.057970
30
0.0
11
-0.033805
21
-0.057970
31
0.0
0
LINE
8
0
6
CONTINUOUS
10
-0.025066
20
-0.057970
30
0.0
11
-0.029043
21
-0.057970
31
0.0
0
LINE
8
0
6
CONTINUOUS
10
-0.022074
20
-0.057970
30
0.0
11
-0.025066
21
-0.057970
31
0.0
0
LINE
8
0
6
CONTINUOUS
10
-0.020216
20
-0.057970
30
0.0
11
-0.022074
21
-0.057970
31
0.0
0
LINE
8
0
6
CONTINUOUS
10
-0.019587
20
-0.057970
30
0.0
11
-0.020216
21
-0.057970
31
0.0
0
LINE
8
0
6
CONTINUOUS
10
-0.019587
20
-0.058964
30
0.0
11
-0.019587
21
-0.057970
31
0.0
0
LINE
8
0
6
CONTINUOUS
10
0.060057
20
-0.057796
30
0.0
11
0.060057
21
0.010035
31
0.0
0
LINE
8
0
6
CONTINUOUS
10
0.050539
20
0.010287
30
0.0
11
0.050539
21
0.010035
31
0.0
0
LINE
8
0
6
CONTINUOUS
10
0.050539
20
0.010035
30
0.0
11
0.050539
21
-0.057796
31
0.0
0
LINE
8
0
6
CONTINUOUS
10
0.060057
20
0.010035
30
0.0
11
0.060057
21
0.010287
31
0.0
0
LINE
8
0
6
CONTINUOUS
10
0.055298
20
0.011124
30
0.0
11
0.053476
21
0.011060
31
0.0
0
LINE
8
0
6
CONTINUOUS
10
0.053476
20
0.011060
30
0.0
11
0.051932
21
0.010879
31
0.0
0
LINE
8
0
6
CONTINUOUS
10
0.051932
20
0.010879
30
0.0
11
0.050901
21
0.010608
31
0.0
0
LINE
8
0
6
CONTINUOUS
10
0.050901
20
0.010608
30
0.0
11
0.050539
21
0.010287
31
0.0
0
LINE
8
0
6
CONTINUOUS
10
0.050539
20
0.010287
30
0.0
11
0.050901
21
0.009967
31
0.0
0
LINE
8
0
6
CONTINUOUS
10
0.050901
20
0.009967
30
0.0
11
0.051932
21
0.009696
31
0.0
0
LINE
8
0
6
CONTINUOUS
10
0.051932
20
0.009696
30
0.0
11
0.053476
21
0.009515
31
0.0
0
LINE
8
0
6
CONTINUOUS
10
0.053476
20
0.009515
30
0.0
11
0.055298
21
0.009451
31
0.0
0
LINE
8
0
6
CONTINUOUS
10
0.055298
20
0.009451
30
0.0
11
0.057119
21
0.009515
31
0.0
0
LINE
8
0
6
CONTINUOUS
10
0.057119
20
0.009515
30
0.0
11
0.058663
21
0.009696
31
0.0
0
LINE
8
0
6
CONTINUOUS
10
0.058663
20
0.009696
30
0.0
11
0.059695
21
0.009967
31
0.0
0
LINE
8
0
6
CONTINUOUS
10
0.059695
20
0.009967
30
0.0
11
0.060057
21
0.010287
31
0.0
0
LINE
8
0
6
CONTINUOUS
10
0.060057
20
0.010287
30
0.0
11
0.059695
21
0.010608
31
0.0
0
LINE
8
0
6
CONTINUOUS
10
0.059695
20
0.010608
30
0.0
11
0.058663
21
0.010879
31
0.0
0
LINE
8
0
6
CONTINUOUS
10
0.058663
20
0.010879
30
0.0
11
0.057119
21
0.011060
31
0.0
0
LINE
8
0
6
CONTINUOUS
10
0.057119
20
0.011060
30
0.0
11
0.055298
21
0.011124
31
0.0
0
LINE
8
0
6
CONTINUOUS
10
0.076211
20
-0.108170
30
0.0
11
0.077988
21
-0.108170
31
0.0
0
LINE
8
0
6
CONTINUOUS
10
0.078810
20
-0.108170
30
0.0
11
0.078810
21
-0.107538
31
0.0
0
LINE
8
0
6
CONTINUOUS
10
0.073217
20
-0.108170
30
0.0
11
0.076211
21
-0.108170
31
0.0
0
LINE
8
0
6
CONTINUOUS
10
0.032608
20
-0.108170
30
0.0
11
0.034385
21
-0.108170
31
0.0
0
LINE
8
0
6
CONTINUOUS
10
0.065175
20
-0.108170
30
0.0
11
0.069549
21
-0.108170
31
0.0
0
LINE
8
0
6
CONTINUOUS
10
0.031785
20
-0.108170
30
0.0
11
0.032608
21
-0.108170
31
0.0
0
LINE
8
0
6
CONTINUOUS
10
0.031785
20
-0.107538
30
0.0
11
0.031785
21
-0.108170
31
0.0
0
LINE
8
0
6
CONTINUOUS
10
0.045420
20
-0.108170
30
0.0
11
0.050388
21
-0.108170
31
0.0
0
LINE
8
0
6
CONTINUOUS
10
0.037378
20
-0.108170
30
0.0
11
0.041046
21
-0.108170
31
0.0
0
LINE
8
0
6
CONTINUOUS
10
0.060208
20
-0.108170
30
0.0
11
0.065175
21
-0.108170
31
0.0
0
LINE
8
0
6
CONTINUOUS
10
0.069549
20
-0.108170
30
0.0
11
0.073217
21
-0.108170
31
0.0
0
LINE
8
0
6
CONTINUOUS
10
0.045420
20
-0.108170
30
0.0
11
0.041046
21
-0.108170
31
0.0
0
LINE
8
0
6
CONTINUOUS
10
0.055298
20
-0.108170
30
0.0
11
0.050388
21
-0.108170
31
0.0
0
LINE
8
0
6
CONTINUOUS
10
0.037378
20
-0.108170
30
0.0
11
0.034385
21
-0.108170
31
0.0
0
LINE
8
0
6
CONTINUOUS
10
0.078810
20
-0.108170
30
0.0
11
0.077988
21
-0.108170
31
0.0
0
LINE
8
0
6
CONTINUOUS
10
0.060208
20
-0.108170
30
0.0
11
0.055298
21
-0.108170
31
0.0
0
LINE
8
0
6
CONTINUOUS
10
0.055298
20
-0.057970
30
0.0
11
0.050388
21
-0.057970
31
0.0
0
LINE
8
0
6
CONTINUOUS
10
0.077988
20
-0.057970
30
0.0
11
0.076211
21
-0.057970
31
0.0
0
LINE
8
0
6
CONTINUOUS
10
0.078810
20
-0.058602
30
0.0
11
0.078810
21
-0.057970
31
0.0
0
LINE
8
0
6
CONTINUOUS
10
0.078810
20
-0.057970
30
0.0
11
0.077988
21
-0.057970
31
0.0
0
LINE
8
0
6
CONTINUOUS
10
0.078810
20
-0.107538
30
0.0
11
0.078810
21
-0.058602
31
0.0
0
LINE
8
0
6
CONTINUOUS
10
0.076211
20
-0.057970
30
0.0
11
0.073217
21
-0.057970
31
0.0
0
LINE
8
0
6
CONTINUOUS
10
0.034385
20
-0.057970
30
0.0
11
0.032608
21
-0.057970
31
0.0
0
LINE
8
0
6
CONTINUOUS
10
0.069549
20
-0.057970
30
0.0
11
0.065175
21
-0.057970
31
0.0
0
LINE
8
0
6
CONTINUOUS
10
0.031785
20
-0.057970
30
0.0
11
0.031785
21
-0.058602
31
0.0
0
LINE
8
0
6
CONTINUOUS
10
0.032608
20
-0.057970
30
0.0
11
0.031785
21
-0.057970
31
0.0
0
LINE
8
0
6
CONTINUOUS
10
0.031785
20
-0.058602
30
0.0
11
0.031785
21
-0.107538
31
0.0
0
LINE
8
0
6
CONTINUOUS
10
0.050388
20
-0.057970
30
0.0
11
0.045420
21
-0.057970
31
0.0
0
LINE
8
0
6
CONTINUOUS
10
0.037378
20
-0.057970
30
0.0
11
0.034385
21
-0.057970
31
0.0
0
LINE
8
0
6
CONTINUOUS
10
0.041046
20
-0.057970
30
0.0
11
0.037378
21
-0.057970
31
0.0
0
LINE
8
0
6
CONTINUOUS
10
0.065175
20
-0.057970
30
0.0
11
0.060208
21
-0.057970
31
0.0
0
LINE
8
0
6
CONTINUOUS
10
0.073217
20
-0.057970
30
0.0
11
0.069549
21
-0.057970
31
0.0
0
LINE
8
0
6
CONTINUOUS
10
0.060208
20
-0.057970
30
0.0
11
0.055298
21
-0.057970
31
0.0
0
LINE
8
0
6
CONTINUOUS
10
0.045420
20
-0.057970
30
0.0
11
0.041046
21
-0.057970
31
0.0
0
LINE
8
0
6
CONTINUOUS
10
-0.030737
20
-0.047695
30
0.0
11
-0.026844
21
-0.045212
31
0.0
0
LINE
8
0
6
CONTINUOUS
10
-0.062582
20
-0.045281
30
0.0
11
-0.058544
21
-0.047749
31
0.0
0
LINE
8
0
6
CONTINUOUS
10
-0.068556
20
-0.056774
30
0.0
11
-0.067719
21
-0.056774
31
0.0
0
LINE
8
0
6
CONTINUOUS
10
-0.020865
20
-0.056774
30
0.0
11
-0.032995
21
-0.056637
31
0.0
0
LINE
8
0
6
CONTINUOUS
10
-0.023222
20
-0.056774
30
0.0
11
-0.020865
21
-0.056774
31
0.0
0
LINE
8
0
6
CONTINUOUS
10
-0.026400
20
-0.056774
30
0.0
11
-0.023222
21
-0.056774
31
0.0
0
LINE
8
0
6
CONTINUOUS
10
-0.030608
20
-0.056774
30
0.0
11
-0.026400
21
-0.056774
31
0.0
0
LINE
8
0
6
CONTINUOUS
10
-0.033235
20
-0.056774
30
0.0
11
-0.030608
21
-0.056774
31
0.0
0
LINE
8
0
6
CONTINUOUS
10
-0.057712
20
-0.056774
30
0.0
11
-0.056170
21
-0.056774
31
0.0
0
LINE
8
0
6
CONTINUOUS
10
-0.063911
20
-0.056774
30
0.0
11
-0.057712
21
-0.056774
31
0.0
0
LINE
8
0
6
CONTINUOUS
10
-0.067719
20
-0.056774
30
0.0
11
-0.063911
21
-0.056774
31
0.0
0
LINE
8
0
6
CONTINUOUS
10
-0.055748
20
-0.056676
30
0.0
11
-0.068556
21
-0.056774
31
0.0
0
LINE
8
0
6
CONTINUOUS
10
-0.056202
20
-0.056682
30
0.0
11
-0.055883
21
-0.056677
31
0.0
0
LINE
8
0
6
CONTINUOUS
10
-0.055882
20
-0.056677
30
0.0
11
-0.055748
21
-0.056676
31
0.0
0
LINE
8
0
6
CONTINUOUS
10
-0.071326
20
-0.013904
30
0.0
11
-0.070097
21
-0.054290
31
0.0
0
LINE
8
0
6
CONTINUOUS
10
-0.019370
20
-0.054354
30
0.0
11
-0.018170
21
-0.014994
31
0.0
0
LINE
8
0
6
CONTINUOUS
10
-0.027252
20
-0.045225
30
0.0
11
-0.026844
21
-0.045212
31
0.0
0
LINE
8
0
6
CONTINUOUS
10
-0.026844
20
-0.045212
30
0.0
11
-0.026730
21
-0.043337
31
0.0
0
LINE
8
0
6
CONTINUOUS
10
-0.064366
20
0.013375
30
0.0
11
-0.062758
21
-0.043295
31
0.0
0
LINE
8
0
6
CONTINUOUS
10
-0.028780
20
-0.045245
30
0.0
11
-0.027252
21
-0.045225
31
0.0
0
LINE
8
0
6
CONTINUOUS
10
-0.056181
20
-0.050804
30
0.0
11
-0.056202
21
-0.056679
31
0.0
0
LINE
8
0
6
CONTINUOUS
10
-0.032995
20
-0.056637
30
0.0
11
-0.033015
21
-0.050760
31
0.0
0
LINE
8
0
6
CONTINUOUS
10
-0.033260
20
-0.056646
30
0.0
11
-0.032995
21
-0.056637
31
0.0
0
LINE
8
0
6
CONTINUOUS
10
-0.033015
20
-0.050760
30
0.0
11
-0.030737
21
-0.047695
31
0.0
0
LINE
8
0
6
CONTINUOUS
10
-0.033280
20
-0.050768
30
0.0
11
-0.033015
21
-0.050760
31
0.0
0
LINE
8
0
6
CONTINUOUS
10
-0.056181
20
-0.050804
30
0.0
11
-0.055848
21
-0.050809
31
0.0
0
LINE
8
0
6
CONTINUOUS
10
-0.058544
20
-0.047749
30
0.0
11
-0.056181
21
-0.050804
31
0.0
0
LINE
8
0
6
CONTINUOUS
10
-0.055848
20
-0.050809
30
0.0
11
-0.054634
21
-0.050809
31
0.0
0
LINE
8
0
6
CONTINUOUS
10
-0.054634
20
-0.050809
30
0.0
11
-0.052679
21
-0.050808
31
0.0
0
LINE
8
0
6
CONTINUOUS
10
-0.052679
20
-0.050808
30
0.0
11
-0.050177
21
-0.050810
31
0.0
0
LINE
8
0
6
CONTINUOUS
10
-0.038336
20
-0.050802
30
0.0
11
-0.036019
21
-0.050792
31
0.0
0
LINE
8
0
6
CONTINUOUS
10
-0.036019
20
-0.050792
30
0.0
11
-0.034270
21
-0.050781
31
0.0
0
LINE
8
0
6
CONTINUOUS
10
-0.034270
20
-0.050781
30
0.0
11
-0.033280
21
-0.050768
31
0.0
0
LINE
8
0
6
CONTINUOUS
10
-0.066995
20
0.029612
30
0.0
11
-0.071440
21
0.037787
31
0.0
0
LINE
8
0
6
CONTINUOUS
10
-0.061759
20
0.022644
30
0.0
11
-0.066995
21
0.029612
31
0.0
0
LINE
8
0
6
CONTINUOUS
10
-0.057272
20
0.018900
30
0.0
11
-0.061759
21
0.022644
31
0.0
0
LINE
8
0
6
CONTINUOUS
10
-0.051743
20
0.016904
30
0.0
11
-0.057272
21
0.018900
31
0.0
0
LINE
8
0
6
CONTINUOUS
10
-0.045893
20
0.017230
30
0.0
11
-0.051743
21
0.016904
31
0.0
0
LINE
8
0
6
CONTINUOUS
10
-0.040633
20
0.019872
30
0.0
11
-0.045893
21
0.017230
31
0.0
0
LINE
8
0
6
CONTINUOUS
10
-0.036210
20
0.023618
30
0.0
11
-0.040633
21
0.019872
31
0.0
0
LINE
8
0
6
CONTINUOUS
10
-0.030155
20
0.031072
30
0.0
11
-0.036210
21
0.023618
31
0.0
0
LINE
8
0
6
CONTINUOUS
10
-0.045124
20
0.008197
30
0.0
11
-0.044578
21
0.013804
31
0.0
0
LINE
8
0
6
CONTINUOUS
10
-0.049605
20
0.008989
30
0.0
11
-0.049524
21
0.013787
31
0.0
0
LINE
8
0
6
CONTINUOUS
10
-0.024458
20
0.032224
30
0.0
11
-0.024245
21
0.043298
31
0.0
0
LINE
8
0
6
CONTINUOUS
10
-0.021898
20
0.088997
30
0.0
11
-0.018844
21
0.089472
31
0.0
0
LINE
8
0
6
CONTINUOUS
10
-0.017995
20
0.089613
30
0.0
11
-0.021898
21
0.088997
31
0.0
0
LINE
8
0
6
CONTINUOUS
10
-0.018844
20
0.089472
30
0.0
11
-0.017995
21
0.089613
31
0.0
0
LINE
8
0
6
CONTINUOUS
10
-0.018844
20
0.089472
30
0.0
11
-0.022642
21
0.088985
31
0.0
0
LINE
8
0
6
CONTINUOUS
10
-0.024245
20
0.043298
30
0.0
11
-0.023841
21
0.053801
31
0.0
0
LINE
8
0
6
CONTINUOUS
10
-0.023841
20
0.053801
30
0.0
11
-0.023073
21
0.066289
31
0.0
0
LINE
8
0
6
CONTINUOUS
10
-0.026518
20
0.089265
30
0.0
11
-0.031318
21
0.090478
31
0.0
0
LINE
8
0
6
CONTINUOUS
10
-0.026730
20
-0.043337
30
0.0
11
-0.025086
21
0.012792
31
0.0
0
LINE
8
0
6
CONTINUOUS
10
-0.045983
20
-0.002147
30
0.0
11
-0.041313
21
-0.000807
31
0.0
0
LINE
8
0
6
CONTINUOUS
10
-0.046004
20
-0.001667
30
0.0
11
-0.041850
21
-0.000062
31
0.0
0
LINE
8
0
6
CONTINUOUS
10
-0.042468
20
0.033970
30
0.0
11
-0.045339
21
0.031941
31
0.0
0
LINE
8
0
6
CONTINUOUS
10
-0.046243
20
0.000796
30
0.0
11
-0.042717
21
0.002004
31
0.0
0
LINE
8
0
6
CONTINUOUS
10
-0.042187
20
-0.056774
30
0.0
11
-0.034997
21
-0.056774
31
0.0
0
LINE
8
0
6
CONTINUOUS
10
-0.057423
20
0.005689
30
0.0
11
-0.054301
21
0.002138
31
0.0
0
LINE
8
0
6
CONTINUOUS
10
-0.056806
20
0.005954
30
0.0
11
-0.053627
21
0.002801
31
0.0
0
LINE
8
0
6
CONTINUOUS
10
-0.051407
20
0.030747
30
0.0
11
-0.055110
21
0.032467
31
0.0
0
LINE
8
0
6
CONTINUOUS
10
-0.054884
20
0.007669
30
0.0
11
-0.052447
21
0.004888
31
0.0
0
LINE
8
0
6
CONTINUOUS
10
-0.058325
20
-0.056774
30
0.0
11
-0.053252
21
-0.056774
31
0.0
0
LINE
8
0
6
CONTINUOUS
10
-0.049584
20
0.106668
30
0.0
11
-0.050451
21
0.107212
31
0.0
0
LINE
8
0
6
CONTINUOUS
10
-0.066081
20
0.028927
30
0.0
11
-0.065516
21
0.026937
31
0.0
0
LINE
8
0
6
CONTINUOUS
10
-0.063823
20
0.029384
30
0.0
11
-0.063161
21
0.027480
31
0.0
0
LINE
8
0
6
CONTINUOUS
10
-0.063662
20
0.030648
30
0.0
11
-0.062906
21
0.027935
31
0.0
0
LINE
8
0
6
CONTINUOUS
10
-0.062906
20
0.027935
30
0.0
11
-0.063421
21
0.029797
31
0.0
0
LINE
8
0
6
CONTINUOUS
10
-0.077535
20
0.056451
30
0.0
11
-0.077144
21
0.054556
31
0.0
0
LINE
8
0
6
CONTINUOUS
10
-0.006649
20
0.094642
30
0.0
11
-0.006636
21
0.095546
31
0.0
0
LINE
8
0
6
CONTINUOUS
10
-0.006939
20
0.093918
30
0.0
11
-0.006649
21
0.094642
31
0.0
0
LINE
8
0
6
CONTINUOUS
10
-0.026094
20
0.030147
30
0.0
11
-0.026880
21
0.027062
31
0.0
0
LINE
8
0
6
CONTINUOUS
10
-0.029257
20
0.026929
30
0.0
11
-0.031293
21
0.019205
31
0.0
0
LINE
8
0
6
CONTINUOUS
10
-0.030013
20
0.018782
30
0.0
11
-0.027800
21
0.026654
31
0.0
0
LINE
8
0
6
CONTINUOUS
10
-0.032419
20
0.019713
30
0.0
11
-0.030618
21
0.027168
31
0.0
0
LINE
8
0
6
CONTINUOUS
10
-0.015566
20
0.090918
30
0.0
11
-0.012754
21
0.094126
31
0.0
0
LINE
8
0
6
CONTINUOUS
10
-0.012323
20
0.094662
30
0.0
11
-0.015566
21
0.090918
31
0.0
0
LINE
8
0
6
CONTINUOUS
10
-0.022878
20
0.044680
30
0.0
11
-0.022091
21
0.048233
31
0.0
0
LINE
8
0
6
CONTINUOUS
10
-0.012754
20
0.094126
30
0.0
11
-0.016309
21
0.090612
31
0.0
0
LINE
8
0
6
CONTINUOUS
10
-0.022048
20
0.070743
30
0.0
11
-0.023073
21
0.066289
31
0.0
0
LINE
8
0
6
CONTINUOUS
10
-0.024174
20
0.061307
30
0.0
11
-0.022048
21
0.070743
31
0.0
0
LINE
8
0
6
CONTINUOUS
10
-0.023073
20
0.066289
30
0.0
11
-0.024174
21
0.061307
31
0.0
0
LINE
8
0
6
CONTINUOUS
10
-0.026760
20
0.057396
30
0.0
11
-0.025402
21
0.060525
31
0.0
0
LINE
8
0
6
CONTINUOUS
10
-0.023924
20
0.065356
30
0.0
11
-0.026760
21
0.057396
31
0.0
0
LINE
8
0
6
CONTINUOUS
10
-0.025402
20
0.060525
30
0.0
11
-0.028715
21
0.054126
31
0.0
0
LINE
8
0
6
CONTINUOUS
10
-0.028715
20
0.054126
30
0.0
11
-0.030160
21
0.051355
31
0.0
0
LINE
8
0
6
CONTINUOUS
10
-0.023073
20
0.066289
30
0.0
11
-0.020031
21
0.076562
31
0.0
0
LINE
8
0
6
CONTINUOUS
10
-0.026490
20
0.028335
30
0.0
11
-0.025515
21
0.032456
31
0.0
0
LINE
8
0
6
CONTINUOUS
10
-0.022091
20
0.048233
30
0.0
11
-0.021312
21
0.051885
31
0.0
0
LINE
8
0
6
CONTINUOUS
10
-0.021312
20
0.051885
30
0.0
11
-0.020303
21
0.055880
31
0.0
0
LINE
8
0
6
CONTINUOUS
10
-0.026383
20
0.028897
30
0.0
11
-0.027122
21
0.026382
31
0.0
0
LINE
8
0
6
CONTINUOUS
10
-0.026880
20
0.027062
30
0.0
11
-0.026383
21
0.028897
31
0.0
0
LINE
8
0
6
CONTINUOUS
10
-0.025515
20
0.032456
30
0.0
11
-0.024624
21
0.036726
31
0.0
0
LINE
8
0
6
CONTINUOUS
10
-0.024624
20
0.036726
30
0.0
11
-0.023718
21
0.040857
31
0.0
0
LINE
8
0
6
CONTINUOUS
10
-0.023718
20
0.040857
30
0.0
11
-0.022878
21
0.044680
31
0.0
0
LINE
8
0
6
CONTINUOUS
10
-0.065974
20
0.050909
30
0.0
11
-0.065354
21
0.043547
31
0.0
0
LINE
8
0
6
CONTINUOUS
10
-0.062582
20
-0.045281
30
0.0
11
-0.062069
21
-0.045289
31
0.0
0
LINE
8
0
6
CONTINUOUS
10
-0.062758
20
-0.043295
30
0.0
11
-0.062582
21
-0.045281
31
0.0
0
LINE
8
0
6
CONTINUOUS
10
-0.065354
20
0.043547
30
0.0
11
-0.064889
21
0.033589
31
0.0
0
LINE
8
0
6
CONTINUOUS
10
-0.024710
20
0.022527
30
0.0
11
-0.024458
21
0.032224
31
0.0
0
LINE
8
0
6
CONTINUOUS
10
-0.064387
20
0.023694
30
0.0
11
-0.064660
21
0.032180
31
0.0
0
LINE
8
0
6
CONTINUOUS
10
-0.064660
20
0.032180
30
0.0
11
-0.064579
21
0.022800
31
0.0
0
LINE
8
0
6
CONTINUOUS
10
-0.064889
20
0.033589
30
0.0
11
-0.064387
21
0.023694
31
0.0
0
LINE
8
0
6
CONTINUOUS
10
-0.025086
20
0.012792
30
0.0
11
-0.024710
21
0.022527
31
0.0
0
LINE
8
0
6
CONTINUOUS
10
-0.052713
20
0.108098
30
0.0
11
-0.053868
21
0.108170
31
0.0
0
LINE
8
0
6
CONTINUOUS
10
-0.053868
20
0.108170
30
0.0
11
-0.054886
21
0.108035
31
0.0
0
LINE
8
0
6
CONTINUOUS
10
-0.007132
20
0.094527
30
0.0
11
-0.006778
21
0.095247
31
0.0
0
LINE
8
0
6
CONTINUOUS
10
-0.007996
20
0.095690
30
0.0
11
-0.007621
21
0.096353
31
0.0
0
LINE
8
0
6
CONTINUOUS
10
-0.031318
20
0.090478
30
0.0
11
-0.036146
21
0.092553
31
0.0
0
LINE
8
0
6
CONTINUOUS
10
-0.021898
20
0.088997
30
0.0
11
-0.026518
21
0.089265
31
0.0
0
LINE
8
0
6
CONTINUOUS
10
-0.022642
20
0.088985
30
0.0
11
-0.021898
21
0.088997
31
0.0
0
LINE
8
0
6
CONTINUOUS
10
-0.049049
20
0.105578
30
0.0
11
-0.044805
21
0.099765
31
0.0
0
LINE
8
0
6
CONTINUOUS
10
-0.044805
20
0.099765
30
0.0
11
-0.049584
21
0.106668
31
0.0
0
LINE
8
0
6
CONTINUOUS
10
-0.009103
20
0.096762
30
0.0
11
-0.010423
21
0.096510
31
0.0
0
LINE
8
0
6
CONTINUOUS
10
-0.010423
20
0.096510
30
0.0
11
-0.010492
21
0.096462
31
0.0
0
LINE
8
0
6
CONTINUOUS
10
-0.026686
20
0.027857
30
0.0
11
-0.026383
21
0.028897
31
0.0
0
LINE
8
0
6
CONTINUOUS
10
-0.066771
20
0.031403
30
0.0
11
-0.066367
21
0.030494
31
0.0
0
LINE
8
0
6
CONTINUOUS
10
-0.027271
20
0.028668
30
0.0
11
-0.026949
21
0.030084
31
0.0
0
LINE
8
0
6
CONTINUOUS
10
-0.063421
20
0.029797
30
0.0
11
-0.063662
21
0.030648
31
0.0
0
LINE
8
0
6
CONTINUOUS
10
-0.064447
20
0.031419
30
0.0
11
-0.064175
21
0.030639
31
0.0
0
LINE
8
0
6
CONTINUOUS
10
-0.029983
20
0.029144
30
0.0
11
-0.029609
21
0.030473
31
0.0
0
LINE
8
0
6
CONTINUOUS
10
-0.046259
20
0.002111
30
0.0
11
-0.046257
21
0.002672
31
0.0
0
LINE
8
0
6
CONTINUOUS
10
-0.061777
20
0.013030
30
0.0
11
-0.064330
21
0.019023
31
0.0
0
LINE
8
0
6
CONTINUOUS
10
-0.064510
20
0.019340
30
0.0
11
-0.061777
21
0.013030
31
0.0
0
LINE
8
0
6
CONTINUOUS
10
-0.026383
20
0.028897
30
0.0
11
-0.026094
21
0.030147
31
0.0
0
LINE
8
0
6
CONTINUOUS
10
-0.056263
20
0.107031
30
0.0
11
-0.062923
21
0.100621
31
0.0
0
LINE
8
0
6
CONTINUOUS
10
-0.009101
20
0.089684
30
0.0
11
-0.007132
21
0.094527
31
0.0
0
LINE
8
0
6
CONTINUOUS
10
-0.062923
20
0.100621
30
0.0
11
-0.069439
21
0.093204
31
0.0
0
LINE
8
0
6
CONTINUOUS
10
-0.069439
20
0.093204
30
0.0
11
-0.074187
21
0.085248
31
0.0
0
LINE
8
0
6
CONTINUOUS
10
-0.011268
20
0.084443
30
0.0
11
-0.009101
21
0.089684
31
0.0
0
LINE
8
0
6
CONTINUOUS
10
-0.013475
20
0.078767
30
0.0
11
-0.011268
21
0.084443
31
0.0
0
LINE
8
0
6
CONTINUOUS
10
-0.054886
20
0.108035
30
0.0
11
-0.056263
21
0.107031
31
0.0
0
LINE
8
0
6
CONTINUOUS
10
-0.066933
20
0.028311
30
0.0
11
-0.067273
21
0.029585
31
0.0
0
LINE
8
0
6
CONTINUOUS
10
-0.066517
20
0.026914
30
0.0
11
-0.066933
21
0.028311
31
0.0
0
LINE
8
0
6
CONTINUOUS
10
-0.074187
20
0.085248
30
0.0
11
-0.077140
21
0.078137
31
0.0
0
LINE
8
0
6
CONTINUOUS
10
-0.077140
20
0.078137
30
0.0
11
-0.078437
21
0.071748
31
0.0
0
LINE
8
0
6
CONTINUOUS
10
-0.078437
20
0.071748
30
0.0
11
-0.078810
21
0.066005
31
0.0
0
LINE
8
0
6
CONTINUOUS
10
-0.078810
20
0.066005
30
0.0
11
-0.078424
21
0.061030
31
0.0
0
LINE
8
0
6
CONTINUOUS
10
-0.078424
20
0.061030
30
0.0
11
-0.077535
21
0.056451
31
0.0
0
LINE
8
0
6
CONTINUOUS
10
-0.064150
20
0.018706
30
0.0
11
-0.061438
21
0.012210
31
0.0
0
LINE
8
0
6
CONTINUOUS
10
-0.054301
20
0.002138
30
0.0
11
-0.050553
21
-0.000745
31
0.0
0
LINE
8
0
6
CONTINUOUS
10
-0.077535
20
0.056451
30
0.0
11
-0.076229
21
0.052320
31
0.0
0
LINE
8
0
6
CONTINUOUS
10
-0.076229
20
0.052320
30
0.0
11
-0.074657
21
0.048325
31
0.0
0
LINE
8
0
6
CONTINUOUS
10
-0.017216
20
0.067381
30
0.0
11
-0.015465
21
0.072965
31
0.0
0
LINE
8
0
6
CONTINUOUS
10
-0.019968
20
0.057553
30
0.0
11
-0.018732
21
0.062180
31
0.0
0
LINE
8
0
6
CONTINUOUS
10
-0.021752
20
0.049864
30
0.0
11
-0.020951
21
0.053534
31
0.0
0
LINE
8
0
6
CONTINUOUS
10
-0.022534
20
0.046306
30
0.0
11
-0.021752
21
0.049864
31
0.0
0
LINE
8
0
6
CONTINUOUS
10
-0.071042
20
0.039215
30
0.0
11
-0.069152
21
0.034437
31
0.0
0
LINE
8
0
6
CONTINUOUS
10
-0.061438
20
0.012210
30
0.0
11
-0.057423
21
0.005689
31
0.0
0
LINE
8
0
6
CONTINUOUS
10
-0.050553
20
-0.000745
30
0.0
11
-0.045983
21
-0.002147
31
0.0
0
LINE
8
0
6
CONTINUOUS
10
-0.041313
20
-0.000807
30
0.0
11
-0.037735
21
0.002211
31
0.0
0
LINE
8
0
6
CONTINUOUS
10
-0.037735
20
0.002211
30
0.0
11
-0.032731
21
0.009793
31
0.0
0
LINE
8
0
6
CONTINUOUS
10
-0.032731
20
0.009793
30
0.0
11
-0.029248
21
0.018760
31
0.0
0
LINE
8
0
6
CONTINUOUS
10
-0.029091
20
0.019373
30
0.0
11
-0.026490
21
0.028335
31
0.0
0
LINE
8
0
6
CONTINUOUS
10
-0.026880
20
0.027062
30
0.0
11
-0.029091
21
0.019373
31
0.0
0
LINE
8
0
6
CONTINUOUS
10
-0.027122
20
0.026382
30
0.0
11
-0.026686
21
0.027857
31
0.0
0
LINE
8
0
6
CONTINUOUS
10
-0.006636
20
0.095546
30
0.0
11
-0.007403
21
0.096364
31
0.0
0
LINE
8
0
6
CONTINUOUS
10
-0.006778
20
0.095247
30
0.0
11
-0.006636
21
0.095546
31
0.0
0
LINE
8
0
6
CONTINUOUS
10
-0.015465
20
0.072965
30
0.0
11
-0.013475
21
0.078767
31
0.0
0
LINE
8
0
6
CONTINUOUS
10
-0.018732
20
0.062180
30
0.0
11
-0.017216
21
0.067381
31
0.0
0
LINE
8
0
6
CONTINUOUS
10
-0.020951
20
0.053534
30
0.0
11
-0.019968
21
0.057553
31
0.0
0
LINE
8
0
6
CONTINUOUS
10
-0.023380
20
0.042524
30
0.0
11
-0.022534
21
0.046306
31
0.0
0
LINE
8
0
6
CONTINUOUS
10
-0.024261
20
0.038475
30
0.0
11
-0.023380
21
0.042524
31
0.0
0
LINE
8
0
6
CONTINUOUS
10
-0.025169
20
0.034301
30
0.0
11
-0.024261
21
0.038475
31
0.0
0
LINE
8
0
6
CONTINUOUS
10
-0.026094
20
0.030147
30
0.0
11
-0.025169
21
0.034301
31
0.0
0
LINE
8
0
6
CONTINUOUS
10
-0.026949
20
0.030084
30
0.0
11
-0.026734
21
0.031416
31
0.0
0
LINE
8
0
6
CONTINUOUS
10
-0.055209
20
0.107426
30
0.0
11
-0.061436
21
0.100594
31
0.0
0
LINE
8
0
6
CONTINUOUS
10
-0.009924
20
0.090710
30
0.0
11
-0.007996
21
0.095690
31
0.0
0
LINE
8
0
6
CONTINUOUS
10
-0.061436
20
0.100594
30
0.0
11
-0.067494
21
0.093079
31
0.0
0
LINE
8
0
6
CONTINUOUS
10
-0.067494
20
0.093079
30
0.0
11
-0.071549
21
0.085498
31
0.0
0
LINE
8
0
6
CONTINUOUS
10
-0.012304
20
0.085481
30
0.0
11
-0.009924
21
0.090710
31
0.0
0
LINE
8
0
6
CONTINUOUS
10
-0.014719
20
0.079873
30
0.0
11
-0.012304
21
0.085481
31
0.0
0
LINE
8
0
6
CONTINUOUS
10
-0.071549
20
0.085498
30
0.0
11
-0.074644
21
0.078822
31
0.0
0
LINE
8
0
6
CONTINUOUS
10
-0.074644
20
0.078822
30
0.0
11
-0.076420
21
0.072835
31
0.0
0
LINE
8
0
6
CONTINUOUS
10
-0.062159
20
0.019550
30
0.0
11
-0.063748
21
0.025138
31
0.0
0
LINE
8
0
6
CONTINUOUS
10
-0.065170
20
0.024827
30
0.0
11
-0.063487
21
0.018833
31
0.0
0
LINE
8
0
6
CONTINUOUS
10
-0.076420
20
0.072835
30
0.0
11
-0.076993
21
0.067050
31
0.0
0
LINE
8
0
6
CONTINUOUS
10
-0.076993
20
0.067050
30
0.0
11
-0.076700
21
0.061979
31
0.0
0
LINE
8
0
6
CONTINUOUS
10
-0.076700
20
0.061979
30
0.0
11
-0.076015
21
0.057423
31
0.0
0
LINE
8
0
6
CONTINUOUS
10
-0.063487
20
0.018833
30
0.0
11
-0.060798
21
0.012206
31
0.0
0
LINE
8
0
6
CONTINUOUS
10
-0.053627
20
0.002801
30
0.0
11
-0.050342
21
-0.000231
31
0.0
0
LINE
8
0
6
CONTINUOUS
10
-0.076015
20
0.057423
30
0.0
11
-0.074880
21
0.053299
31
0.0
0
LINE
8
0
6
CONTINUOUS
10
-0.074880
20
0.053299
30
0.0
11
-0.073337
21
0.049321
31
0.0
0
LINE
8
0
6
CONTINUOUS
10
-0.018443
20
0.068643
30
0.0
11
-0.016705
21
0.074190
31
0.0
0
LINE
8
0
6
CONTINUOUS
10
-0.021005
20
0.058713
30
0.0
11
-0.019892
21
0.063415
31
0.0
0
LINE
8
0
6
CONTINUOUS
10
-0.022465
20
0.051052
30
0.0
11
-0.021748
21
0.054598
31
0.0
0
LINE
8
0
6
CONTINUOUS
10
-0.023289
20
0.047409
30
0.0
11
-0.022465
21
0.051052
31
0.0
0
LINE
8
0
6
CONTINUOUS
10
-0.050451
20
0.107212
30
0.0
11
-0.051985
21
0.107854
31
0.0
0
LINE
8
0
6
CONTINUOUS
10
-0.051517
20
0.107422
30
0.0
11
-0.050451
21
0.107212
31
0.0
0
LINE
8
0
6
CONTINUOUS
10
-0.051985
20
0.107854
30
0.0
11
-0.052713
21
0.108098
31
0.0
0
LINE
8
0
6
CONTINUOUS
10
-0.073337
20
0.049321
30
0.0
11
-0.071624
21
0.044836
31
0.0
0
LINE
8
0
6
CONTINUOUS
10
-0.071624
20
0.044836
30
0.0
11
-0.069824
21
0.040182
31
0.0
0
LINE
8
0
6
CONTINUOUS
10
-0.068058
20
0.035406
30
0.0
11
-0.066771
21
0.031403
31
0.0
0
LINE
8
0
6
CONTINUOUS
10
-0.069824
20
0.040182
30
0.0
11
-0.068058
21
0.035406
31
0.0
0
LINE
8
0
6
CONTINUOUS
10
-0.060798
20
0.012206
30
0.0
11
-0.056806
21
0.005954
31
0.0
0
LINE
8
0
6
CONTINUOUS
10
-0.050342
20
-0.000231
30
0.0
11
-0.046004
21
-0.001667
31
0.0
0
LINE
8
0
6
CONTINUOUS
10
-0.041850
20
-0.000062
30
0.0
11
-0.038217
21
0.002481
31
0.0
0
LINE
8
0
6
CONTINUOUS
10
-0.038217
20
0.002481
30
0.0
11
-0.033394
21
0.009859
31
0.0
0
LINE
8
0
6
CONTINUOUS
10
-0.033394
20
0.009859
30
0.0
11
-0.030013
21
0.018782
31
0.0
0
LINE
8
0
6
CONTINUOUS
10
-0.027800
20
0.026654
30
0.0
11
-0.027271
21
0.028668
31
0.0
0
LINE
8
0
6
CONTINUOUS
10
-0.008706
20
0.096781
30
0.0
11
-0.009103
21
0.096762
31
0.0
0
LINE
8
0
6
CONTINUOUS
10
-0.007403
20
0.096364
30
0.0
11
-0.008706
21
0.096781
31
0.0
0
LINE
8
0
6
CONTINUOUS
10
-0.007621
20
0.096353
30
0.0
11
-0.007403
21
0.096364
31
0.0
0
LINE
8
0
6
CONTINUOUS
10
-0.016705
20
0.074190
30
0.0
11
-0.014719
21
0.079873
31
0.0
0
LINE
8
0
6
CONTINUOUS
10
-0.019892
20
0.063415
30
0.0
11
-0.018443
21
0.068643
31
0.0
0
LINE
8
0
6
CONTINUOUS
10
-0.021748
20
0.054598
30
0.0
11
-0.021005
21
0.058713
31
0.0
0
LINE
8
0
6
CONTINUOUS
10
-0.024137
20
0.043547
30
0.0
11
-0.023289
21
0.047409
31
0.0
0
LINE
8
0
6
CONTINUOUS
10
-0.025014
20
0.039516
30
0.0
11
-0.024137
21
0.043547
31
0.0
0
LINE
8
0
6
CONTINUOUS
10
-0.025899
20
0.035464
30
0.0
11
-0.025014
21
0.039516
31
0.0
0
LINE
8
0
6
CONTINUOUS
10
-0.026734
20
0.031416
30
0.0
11
-0.025899
21
0.035464
31
0.0
0
LINE
8
0
6
CONTINUOUS
10
-0.058891
20
0.036274
30
0.0
11
-0.063246
21
0.043243
31
0.0
0
LINE
8
0
6
CONTINUOUS
10
-0.055110
20
0.032467
30
0.0
11
-0.058891
21
0.036274
31
0.0
0
LINE
8
0
6
CONTINUOUS
10
-0.048108
20
0.030778
30
0.0
11
-0.051407
21
0.030747
31
0.0
0
LINE
8
0
6
CONTINUOUS
10
-0.045339
20
0.031941
30
0.0
11
-0.048108
21
0.030778
31
0.0
0
LINE
8
0
6
CONTINUOUS
10
-0.039022
20
0.037363
30
0.0
11
-0.042468
21
0.033970
31
0.0
0
LINE
8
0
6
CONTINUOUS
10
-0.064175
20
0.030639
30
0.0
11
-0.063823
21
0.029384
31
0.0
0
LINE
8
0
6
CONTINUOUS
10
-0.029609
20
0.030473
30
0.0
11
-0.029396
21
0.031360
31
0.0
0
LINE
8
0
6
CONTINUOUS
10
-0.035989
20
0.092597
30
0.0
11
-0.040456
21
0.095647
31
0.0
0
LINE
8
0
6
CONTINUOUS
10
-0.065516
20
0.026937
30
0.0
11
-0.065170
21
0.024827
31
0.0
0
LINE
8
0
6
CONTINUOUS
10
-0.044210
20
0.099331
30
0.0
11
-0.049049
21
0.105578
31
0.0
0
LINE
8
0
6
CONTINUOUS
10
-0.062544
20
0.025675
30
0.0
11
-0.060834
21
0.020070
31
0.0
0
LINE
8
0
6
CONTINUOUS
10
-0.040456
20
0.095647
30
0.0
11
-0.044210
21
0.099331
31
0.0
0
LINE
8
0
6
CONTINUOUS
10
-0.036146
20
0.092553
30
0.0
11
-0.030877
21
0.090211
31
0.0
0
LINE
8
0
6
CONTINUOUS
10
-0.030877
20
0.090211
30
0.0
11
-0.035989
21
0.092597
31
0.0
0
LINE
8
0
6
CONTINUOUS
10
-0.060834
20
0.020070
30
0.0
11
-0.058278
21
0.013595
31
0.0
0
LINE
8
0
6
CONTINUOUS
10
-0.052447
20
0.004888
30
0.0
11
-0.049788
21
0.002241
31
0.0
0
LINE
8
0
6
CONTINUOUS
10
-0.058278
20
0.013595
30
0.0
11
-0.054884
21
0.007669
31
0.0
0
LINE
8
0
6
CONTINUOUS
10
-0.046243
20
0.000796
30
0.0
11
-0.046262
21
0.001548
31
0.0
0
LINE
8
0
6
CONTINUOUS
10
-0.049788
20
0.002241
30
0.0
11
-0.046243
21
0.000796
31
0.0
0
LINE
8
0
6
CONTINUOUS
10
-0.042717
20
0.002004
30
0.0
11
-0.039887
21
0.004361
31
0.0
0
LINE
8
0
6
CONTINUOUS
10
-0.039887
20
0.004361
30
0.0
11
-0.035637
21
0.011097
31
0.0
0
LINE
8
0
6
CONTINUOUS
10
-0.035637
20
0.011097
30
0.0
11
-0.032419
21
0.019713
31
0.0
0
LINE
8
0
6
CONTINUOUS
10
-0.030618
20
0.027168
30
0.0
11
-0.029983
21
0.029144
31
0.0
0
LINE
8
0
6
CONTINUOUS
10
-0.010492
20
0.096462
30
0.0
11
-0.011321
21
0.095663
31
0.0
0
LINE
8
0
6
CONTINUOUS
10
-0.011321
20
0.095663
30
0.0
11
-0.011418
21
0.095557
31
0.0
0
LINE
8
0
6
CONTINUOUS
10
-0.063161
20
0.027480
30
0.0
11
-0.062544
21
0.025675
31
0.0
0
LINE
8
0
6
CONTINUOUS
10
-0.016309
20
0.090612
30
0.0
11
-0.018844
21
0.089472
31
0.0
0
LINE
8
0
6
CONTINUOUS
10
-0.062069
20
-0.045289
30
0.0
11
-0.060195
21
-0.045289
31
0.0
0
LINE
8
0
6
CONTINUOUS
10
-0.011418
20
0.095557
30
0.0
11
-0.012323
21
0.094662
31
0.0
0
LINE
8
0
6
CONTINUOUS
10
-0.065410
20
0.047497
30
0.0
11
-0.065974
21
0.050909
31
0.0
0
LINE
8
0
6
CONTINUOUS
10
-0.063246
20
0.043243
30
0.0
11
-0.067867
21
0.053250
31
0.0
0
LINE
8
0
6
CONTINUOUS
10
-0.064579
20
0.022800
30
0.0
11
-0.064366
21
0.013375
31
0.0
0
LINE
8
0
6
CONTINUOUS
10
-0.067867
20
0.053250
30
0.0
11
-0.065410
21
0.047497
31
0.0
0
LINE
8
0
6
CONTINUOUS
10
-0.020031
20
0.076562
30
0.0
11
-0.022048
21
0.070743
31
0.0
0
LINE
8
0
6
CONTINUOUS
10
-0.048473
20
0.026520
30
0.0
11
-0.048779
21
0.022673
31
0.0
0
LINE
8
0
6
CONTINUOUS
10
-0.034542
20
0.043096
30
0.0
11
-0.039022
21
0.037363
31
0.0
0
LINE
8
0
6
CONTINUOUS
10
-0.030160
20
0.051355
30
0.0
11
-0.034542
21
0.043096
31
0.0
0
LINE
8
0
6
CONTINUOUS
10
-0.046262
20
0.001548
30
0.0
11
-0.046259
21
0.002111
31
0.0
0
LINE
8
0
6
CONTINUOUS
10
-0.022048
20
0.070743
30
0.0
11
-0.023924
21
0.065356
31
0.0
0
LINE
8
0
6
CONTINUOUS
10
-0.063323
20
0.016705
30
0.0
11
-0.064500
21
0.019319
31
0.0
0
LINE
8
0
6
CONTINUOUS
10
-0.066533
20
0.023832
30
0.0
11
-0.063323
21
0.016705
31
0.0
0
LINE
8
0
6
CONTINUOUS
10
-0.067577
20
0.030485
30
0.0
11
-0.069152
21
0.034437
31
0.0
0
LINE
8
0
6
CONTINUOUS
10
-0.025515
20
0.032456
30
0.0
11
-0.028919
21
0.019982
31
0.0
0
LINE
8
0
6
CONTINUOUS
10
-0.027735
20
0.023719
30
0.0
11
-0.025515
21
0.032456
31
0.0
0
LINE
8
0
6
CONTINUOUS
10
-0.028919
20
0.019982
30
0.0
11
-0.027735
21
0.023719
31
0.0
0
LINE
8
0
6
CONTINUOUS
10
-0.023344
20
-0.056774
30
0.0
11
-0.019898
21
-0.056774
31
0.0
0
LINE
8
0
6
CONTINUOUS
10
-0.053252
20
-0.056774
30
0.0
11
-0.047780
21
-0.056774
31
0.0
0
LINE
8
0
6
CONTINUOUS
10
-0.034997
20
-0.056774
30
0.0
11
-0.029403
21
-0.056774
31
0.0
0
LINE
8
0
6
CONTINUOUS
10
-0.063432
20
-0.056774
30
0.0
11
-0.058325
21
-0.056774
31
0.0
0
LINE
8
0
6
CONTINUOUS
10
-0.070021
20
-0.056774
30
0.0
11
-0.067647
21
-0.056774
31
0.0
0
LINE
8
0
6
CONTINUOUS
10
-0.070097
20
-0.054290
30
0.0
11
-0.070021
21
-0.056774
31
0.0
0
LINE
8
0
6
CONTINUOUS
10
-0.019444
20
-0.056774
30
0.0
11
-0.019370
21
-0.054354
31
0.0
0
LINE
8
0
6
CONTINUOUS
10
-0.019898
20
-0.056774
30
0.0
11
-0.019444
21
-0.056774
31
0.0
0
LINE
8
0
6
CONTINUOUS
10
-0.067647
20
-0.056774
30
0.0
11
-0.063432
21
-0.056774
31
0.0
0
LINE
8
0
6
CONTINUOUS
10
-0.047780
20
-0.056774
30
0.0
11
-0.042187
21
-0.056774
31
0.0
0
LINE
8
0
6
CONTINUOUS
10
-0.029403
20
-0.056774
30
0.0
11
-0.023344
21
-0.056774
31
0.0
0
LINE
8
0
6
CONTINUOUS
10
-0.009499
20
0.087546
30
0.0
11
-0.006939
21
0.093918
31
0.0
0
LINE
8
0
6
CONTINUOUS
10
-0.007211
20
0.093356
30
0.0
11
-0.009499
21
0.087546
31
0.0
0
LINE
8
0
6
CONTINUOUS
10
-0.013024
20
0.076046
30
0.0
11
-0.010641
21
0.083166
31
0.0
0
LINE
8
0
6
CONTINUOUS
10
-0.011329
20
0.083217
30
0.0
11
-0.013024
21
0.076046
31
0.0
0
LINE
8
0
6
CONTINUOUS
10
-0.074579
20
0.045620
30
0.0
11
-0.073286
21
0.042259
31
0.0
0
LINE
8
0
6
CONTINUOUS
10
-0.072609
20
0.039852
30
0.0
11
-0.076451
21
0.052495
31
0.0
0
LINE
8
0
6
CONTINUOUS
10
-0.076451
20
0.052495
30
0.0
11
-0.073870
21
0.042661
31
0.0
0
LINE
8
0
6
CONTINUOUS
10
-0.071440
20
0.037787
30
0.0
11
-0.075622
21
0.048924
31
0.0
0
LINE
8
0
6
CONTINUOUS
10
-0.075622
20
0.048924
30
0.0
11
-0.072609
21
0.039852
31
0.0
0
LINE
8
0
6
CONTINUOUS
10
-0.070551
20
0.035167
30
0.0
11
-0.071772
21
0.038459
31
0.0
0
LINE
8
0
6
CONTINUOUS
10
-0.073286
20
0.042259
30
0.0
11
-0.070551
21
0.035167
31
0.0
0
LINE
8
0
6
CONTINUOUS
10
-0.067273
20
0.029585
30
0.0
11
-0.067577
21
0.030485
31
0.0
0
LINE
8
0
6
CONTINUOUS
10
-0.071042
20
0.039215
30
0.0
11
-0.072881
21
0.043863
31
0.0
0
LINE
8
0
6
CONTINUOUS
10
-0.072881
20
0.043863
30
0.0
11
-0.074657
21
0.048325
31
0.0
0
LINE
8
0
6
CONTINUOUS
10
-0.075622
20
0.048924
30
0.0
11
-0.074579
21
0.045620
31
0.0
0
LINE
8
0
6
CONTINUOUS
10
-0.077144
20
0.054556
30
0.0
11
-0.075622
21
0.048924
31
0.0
0
LINE
8
0
6
CONTINUOUS
10
-0.071994
20
0.009540
30
0.0
11
-0.071695
21
-0.002345
31
0.0
0
LINE
8
0
6
CONTINUOUS
10
-0.072314
20
0.022015
30
0.0
11
-0.071994
21
0.009540
31
0.0
0
LINE
8
0
6
CONTINUOUS
10
-0.071695
20
-0.002345
30
0.0
11
-0.071326
21
-0.013904
31
0.0
0
LINE
8
0
6
CONTINUOUS
10
-0.073179
20
0.035113
30
0.0
11
-0.072314
21
0.022015
31
0.0
0
LINE
8
0
6
CONTINUOUS
10
-0.071870
20
0.032867
30
0.0
11
-0.074542
21
0.048313
31
0.0
0
LINE
8
0
6
CONTINUOUS
10
-0.074542
20
0.048313
30
0.0
11
-0.073179
21
0.035113
31
0.0
0
LINE
8
0
6
CONTINUOUS
10
-0.070290
20
0.030908
30
0.0
11
-0.074421
21
0.045207
31
0.0
0
LINE
8
0
6
CONTINUOUS
10
-0.074421
20
0.045207
30
0.0
11
-0.071870
21
0.032867
31
0.0
0
LINE
8
0
6
CONTINUOUS
10
-0.073870
20
0.042661
30
0.0
11
-0.076791
21
0.056569
31
0.0
0
LINE
8
0
6
CONTINUOUS
10
-0.074421
20
0.045207
30
0.0
11
-0.073870
21
0.042661
31
0.0
0
LINE
8
0
6
CONTINUOUS
10
-0.076791
20
0.056569
30
0.0
11
-0.074421
21
0.045207
31
0.0
0
LINE
8
0
6
CONTINUOUS
10
-0.073870
20
0.042661
30
0.0
11
-0.070290
21
0.030908
31
0.0
0
LINE
8
0
6
CONTINUOUS
10
-0.061609
20
0.012619
30
0.0
11
-0.064150
21
0.018706
31
0.0
0
LINE
8
0
6
CONTINUOUS
10
-0.064330
20
0.019023
30
0.0
11
-0.061609
21
0.012619
31
0.0
0
LINE
8
0
6
CONTINUOUS
10
-0.015947
20
0.047169
30
0.0
11
-0.015140
21
0.065857
31
0.0
0
LINE
8
0
6
CONTINUOUS
10
-0.015140
20
0.065857
30
0.0
11
-0.015796
21
0.061011
31
0.0
0
LINE
8
0
6
CONTINUOUS
10
-0.010641
20
0.083166
30
0.0
11
-0.007211
21
0.093356
31
0.0
0
LINE
8
0
6
CONTINUOUS
10
-0.015796
20
0.061011
30
0.0
11
-0.013593
21
0.077277
31
0.0
0
LINE
8
0
6
CONTINUOUS
10
-0.017712
20
-0.002898
30
0.0
11
-0.017260
21
0.009075
31
0.0
0
LINE
8
0
6
CONTINUOUS
10
-0.016776
20
0.021129
30
0.0
11
-0.016298
21
0.033750
31
0.0
0
LINE
8
0
6
CONTINUOUS
10
-0.028382
20
0.033232
30
0.0
11
-0.024750
21
0.040359
31
0.0
0
LINE
8
0
6
CONTINUOUS
10
-0.024750
20
0.040359
30
0.0
11
-0.030155
21
0.031072
31
0.0
0
LINE
8
0
6
CONTINUOUS
10
-0.017260
20
0.009075
30
0.0
11
-0.016776
21
0.021129
31
0.0
0
LINE
8
0
6
CONTINUOUS
10
-0.016298
20
0.033750
30
0.0
11
-0.015947
21
0.047169
31
0.0
0
LINE
8
0
6
CONTINUOUS
10
-0.023901
20
0.043797
30
0.0
11
-0.028382
21
0.033232
31
0.0
0
LINE
8
0
6
CONTINUOUS
10
-0.018170
20
-0.014994
30
0.0
11
-0.017712
21
-0.002898
31
0.0
0
LINE
8
0
6
CONTINUOUS
10
-0.068087
20
0.028017
30
0.0
11
-0.066533
21
0.023832
31
0.0
0
LINE
8
0
6
CONTINUOUS
10
-0.071772
20
0.038459
30
0.0
11
-0.069478
21
0.031870
31
0.0
0
LINE
8
0
6
CONTINUOUS
10
-0.069478
20
0.031870
30
0.0
11
-0.068087
21
0.028017
31
0.0
0
LINE
8
0
6
CONTINUOUS
10
-0.020303
20
0.055880
30
0.0
11
-0.023901
21
0.043797
31
0.0
0
LINE
8
0
6
CONTINUOUS
10
-0.029248
20
0.018760
30
0.0
11
-0.026880
21
0.027062
31
0.0
0
LINE
8
0
6
CONTINUOUS
10
-0.015140
20
0.065857
30
0.0
11
-0.011329
21
0.083217
31
0.0
0
LINE
8
0
6
CONTINUOUS
10
-0.013593
20
0.077277
30
0.0
11
-0.015140
21
0.065857
31
0.0
0
LINE
8
0
6
CONTINUOUS
10
0.050884
20
-0.058023
30
0.0
11
0.050625
21
-0.057835
31
0.0
0
LINE
8
0
6
CONTINUOUS
10
0.059711
20
-0.058023
30
0.0
11
0.059971
21
-0.057835
31
0.0
0
LINE
8
0
6
CONTINUOUS
10
0.059971
20
-0.057835
30
0.0
11
0.060057
21
-0.057796
31
0.0
0
ENDSEC
0
EOF
