999
unknown String-ID: 20550
0
SECTION
2
HEADER
9
$ACADVER
1
AC1009
9
$DWGCODEPAGE
3
unknown String-ID: 20561
0
ENDSEC
0
SECTION
2
TABLES
0
TABLE
2
LAYER
70
1
0
LAYER
2
0
70
0
62
7
6
CONTINUOUS
0
ENDTAB
0
ENDSEC
0
SECTION
2
ENTITIES
0
LINE
8
0
6
CONTINUOUS
10
-0.034023
20
0.070000
30
0.0
11
-0.034023
21
-0.000000
31
0.0
0
LINE
8
0
6
CONTINUOUS
10
-0.034023
20
0.085000
30
0.0
11
-0.034023
21
0.083858
31
0.0
0
LINE
8
0
6
CONTINUOUS
10
-0.033120
20
0.085000
30
0.0
11
-0.034023
21
0.085000
31
0.0
0
LINE
8
0
6
CONTINUOUS
10
-0.034023
20
0.083858
30
0.0
11
-0.034023
21
0.080607
31
0.0
0
LINE
8
0
6
CONTINUOUS
10
-0.034023
20
0.075740
30
0.0
11
-0.034023
21
0.070000
31
0.0
0
LINE
8
0
6
CONTINUOUS
10
-0.034023
20
0.080607
30
0.0
11
-0.034023
21
0.075740
31
0.0
0
LINE
8
0
6
CONTINUOUS
10
-0.034023
20
-0.000000
30
0.0
11
-0.034023
21
-0.070000
31
0.0
0
LINE
8
0
6
CONTINUOUS
10
-0.034023
20
-0.085000
30
0.0
11
-0.033120
21
-0.085000
31
0.0
0
LINE
8
0
6
CONTINUOUS
10
-0.034023
20
-0.083858
30
0.0
11
-0.034023
21
-0.085000
31
0.0
0
LINE
8
0
6
CONTINUOUS
10
-0.034023
20
-0.070000
30
0.0
11
-0.034023
21
-0.075740
31
0.0
0
LINE
8
0
6
CONTINUOUS
10
-0.034023
20
-0.080607
30
0.0
11
-0.034023
21
-0.083858
31
0.0
0
LINE
8
0
6
CONTINUOUS
10
-0.034023
20
-0.075740
30
0.0
11
-0.034023
21
-0.080607
31
0.0
0
LINE
8
0
6
CONTINUOUS
10
-0.014316
20
0.084738
30
0.0
11
-0.015023
21
0.085000
31
0.0
0
LINE
8
0
6
CONTINUOUS
10
-0.014023
20
0.084106
30
0.0
11
-0.014316
21
0.084738
31
0.0
0
LINE
8
0
6
CONTINUOUS
10
-0.014023
20
0.082948
30
0.0
11
-0.014023
21
0.084106
31
0.0
0
LINE
8
0
6
CONTINUOUS
10
-0.014023
20
0.079663
30
0.0
11
-0.014023
21
0.082948
31
0.0
0
LINE
8
0
6
CONTINUOUS
10
-0.014023
20
0.074746
30
0.0
11
-0.014023
21
0.079663
31
0.0
0
LINE
8
0
6
CONTINUOUS
10
-0.014023
20
0.068926
30
0.0
11
-0.014023
21
0.074746
31
0.0
0
LINE
8
0
6
CONTINUOUS
10
-0.014023
20
0.000000
30
0.0
11
-0.014023
21
0.068926
31
0.0
0
LINE
8
0
6
CONTINUOUS
10
-0.014316
20
-0.084738
30
0.0
11
-0.014023
21
-0.084106
31
0.0
0
LINE
8
0
6
CONTINUOUS
10
-0.014023
20
-0.084106
30
0.0
11
-0.014023
21
-0.082948
31
0.0
0
LINE
8
0
6
CONTINUOUS
10
-0.015023
20
-0.085000
30
0.0
11
-0.014316
21
-0.084738
31
0.0
0
LINE
8
0
6
CONTINUOUS
10
-0.014023
20
-0.082948
30
0.0
11
-0.014023
21
-0.079663
31
0.0
0
LINE
8
0
6
CONTINUOUS
10
-0.014023
20
-0.079663
30
0.0
11
-0.014023
21
-0.074746
31
0.0
0
LINE
8
0
6
CONTINUOUS
10
-0.014023
20
-0.074746
30
0.0
11
-0.014023
21
-0.068926
31
0.0
0
LINE
8
0
6
CONTINUOUS
10
-0.014023
20
-0.068926
30
0.0
11
-0.014023
21
0.000000
31
0.0
0
LINE
8
0
6
CONTINUOUS
10
-0.015023
20
0.085000
30
0.0
11
-0.015973
21
0.085000
31
0.0
0
LINE
8
0
6
CONTINUOUS
10
-0.015973
20
-0.085000
30
0.0
11
-0.015023
21
-0.085000
31
0.0
0
LINE
8
0
6
CONTINUOUS
10
-0.015973
20
0.085000
30
0.0
11
-0.033120
21
0.085000
31
0.0
0
LINE
8
0
6
CONTINUOUS
10
-0.033120
20
-0.085000
30
0.0
11
-0.015973
21
-0.085000
31
0.0
0
LINE
8
0
6
CONTINUOUS
10
0.033839
20
-0.023797
30
0.0
11
0.034023
21
-0.023396
31
0.0
0
LINE
8
0
6
CONTINUOUS
10
0.034023
20
-0.023396
30
0.0
11
0.034023
21
-0.022810
31
0.0
0
LINE
8
0
6
CONTINUOUS
10
0.034023
20
-0.021080
30
0.0
11
0.034023
21
-0.018293
31
0.0
0
LINE
8
0
6
CONTINUOUS
10
0.034023
20
-0.014590
30
0.0
11
0.034023
21
-0.010155
31
0.0
0
LINE
8
0
6
CONTINUOUS
10
0.034023
20
-0.010155
30
0.0
11
0.034023
21
-0.005212
31
0.0
0
LINE
8
0
6
CONTINUOUS
10
0.034023
20
-0.005212
30
0.0
11
0.034023
21
-0.000008
31
0.0
0
LINE
8
0
6
CONTINUOUS
10
0.034023
20
-0.000008
30
0.0
11
0.034023
21
0.005197
31
0.0
0
LINE
8
0
6
CONTINUOUS
10
0.034023
20
0.005197
30
0.0
11
0.034023
21
0.010140
31
0.0
0
LINE
8
0
6
CONTINUOUS
10
0.034023
20
0.010140
30
0.0
11
0.034023
21
0.014575
31
0.0
0
LINE
8
0
6
CONTINUOUS
10
0.034023
20
0.014575
30
0.0
11
0.034023
21
0.018278
31
0.0
0
LINE
8
0
6
CONTINUOUS
10
0.034023
20
0.021065
30
0.0
11
0.034023
21
0.022795
31
0.0
0
LINE
8
0
6
CONTINUOUS
10
0.034023
20
0.023381
30
0.0
11
0.033839
21
0.023782
31
0.0
0
LINE
8
0
6
CONTINUOUS
10
0.034023
20
0.022795
30
0.0
11
0.034023
21
0.023381
31
0.0
0
LINE
8
0
6
CONTINUOUS
10
-0.003045
20
0.022023
30
0.0
11
-0.004565
21
0.022023
31
0.0
0
LINE
8
0
6
CONTINUOUS
10
-0.002777
20
-0.024175
30
0.0
11
0.033025
21
-0.024175
31
0.0
0
LINE
8
0
6
CONTINUOUS
10
0.033024
20
0.024160
30
0.0
11
0.012253
21
0.024160
31
0.0
0
LINE
8
0
6
CONTINUOUS
10
0.003251
20
0.024160
30
0.0
11
-0.002777
21
0.024160
31
0.0
0
LINE
8
0
6
CONTINUOUS
10
-0.003045
20
-0.024175
30
0.0
11
-0.002777
21
-0.024175
31
0.0
0
LINE
8
0
6
CONTINUOUS
10
-0.003045
20
-0.023569
30
0.0
11
-0.003045
21
-0.024175
31
0.0
0
LINE
8
0
6
CONTINUOUS
10
-0.003045
20
-0.000008
30
0.0
11
-0.003045
21
-0.005385
31
0.0
0
LINE
8
0
6
CONTINUOUS
10
-0.003045
20
-0.018903
30
0.0
11
-0.003045
21
-0.021782
31
0.0
0
LINE
8
0
6
CONTINUOUS
10
-0.003045
20
0.005370
30
0.0
11
-0.003045
21
-0.000008
31
0.0
0
LINE
8
0
6
CONTINUOUS
10
-0.003045
20
-0.015076
30
0.0
11
-0.003045
21
-0.018903
31
0.0
0
LINE
8
0
6
CONTINUOUS
10
-0.003045
20
0.023554
30
0.0
11
-0.003045
21
0.021767
31
0.0
0
LINE
8
0
6
CONTINUOUS
10
-0.003045
20
0.010478
30
0.0
11
-0.003045
21
0.005370
31
0.0
0
LINE
8
0
6
CONTINUOUS
10
-0.003045
20
-0.010494
30
0.0
11
-0.003045
21
-0.015076
31
0.0
0
LINE
8
0
6
CONTINUOUS
10
-0.002777
20
0.024160
30
0.0
11
-0.003045
21
0.024160
31
0.0
0
LINE
8
0
6
CONTINUOUS
10
-0.003045
20
0.024160
30
0.0
11
-0.003045
21
0.023554
31
0.0
0
LINE
8
0
6
CONTINUOUS
10
-0.003045
20
0.015061
30
0.0
11
-0.003045
21
0.010478
31
0.0
0
LINE
8
0
6
CONTINUOUS
10
-0.003045
20
-0.005385
30
0.0
11
-0.003045
21
-0.010494
31
0.0
0
LINE
8
0
6
CONTINUOUS
10
-0.003045
20
-0.021782
30
0.0
11
-0.003045
21
-0.023569
31
0.0
0
LINE
8
0
6
CONTINUOUS
10
0.033099
20
-0.024175
30
0.0
11
0.033516
21
-0.024081
31
0.0
0
LINE
8
0
6
CONTINUOUS
10
0.033516
20
-0.024081
30
0.0
11
0.033839
21
-0.023797
31
0.0
0
LINE
8
0
6
CONTINUOUS
10
0.033516
20
0.024066
30
0.0
11
0.033099
21
0.024160
31
0.0
0
LINE
8
0
6
CONTINUOUS
10
0.033839
20
0.023782
30
0.0
11
0.033516
21
0.024066
31
0.0
0
LINE
8
0
6
CONTINUOUS
10
0.034023
20
0.018278
30
0.0
11
0.034023
21
0.021065
31
0.0
0
LINE
8
0
6
CONTINUOUS
10
0.033025
20
-0.024175
30
0.0
11
0.033099
21
-0.024175
31
0.0
0
LINE
8
0
6
CONTINUOUS
10
-0.003045
20
0.021767
30
0.0
11
-0.003045
21
0.018888
31
0.0
0
LINE
8
0
6
CONTINUOUS
10
0.033099
20
0.024160
30
0.0
11
0.033024
21
0.024160
31
0.0
0
LINE
8
0
6
CONTINUOUS
10
0.012253
20
0.024160
30
0.0
11
0.012253
21
0.026231
31
0.0
0
LINE
8
0
6
CONTINUOUS
10
0.003249
20
0.026231
30
0.0
11
0.003249
21
0.024160
31
0.0
0
LINE
8
0
6
CONTINUOUS
10
0.011661
20
0.026735
30
0.0
11
0.011595
21
0.026735
31
0.0
0
LINE
8
0
6
CONTINUOUS
10
0.011799
20
0.026735
30
0.0
11
0.011661
21
0.026735
31
0.0
0
LINE
8
0
6
CONTINUOUS
10
0.011730
20
0.026735
30
0.0
11
0.011799
21
0.026735
31
0.0
0
LINE
8
0
6
CONTINUOUS
10
0.003841
20
0.026735
30
0.0
11
0.003703
21
0.026735
31
0.0
0
LINE
8
0
6
CONTINUOUS
10
0.003907
20
0.026735
30
0.0
11
0.003841
21
0.026735
31
0.0
0
LINE
8
0
6
CONTINUOUS
10
0.012253
20
0.026231
30
0.0
11
0.012253
21
0.026285
31
0.0
0
LINE
8
0
6
CONTINUOUS
10
0.003703
20
0.026735
30
0.0
11
0.003476
21
0.026675
31
0.0
0
LINE
8
0
6
CONTINUOUS
10
0.003476
20
0.026675
30
0.0
11
0.003310
21
0.026510
31
0.0
0
LINE
8
0
6
CONTINUOUS
10
0.003310
20
0.026510
30
0.0
11
0.003249
21
0.026285
31
0.0
0
LINE
8
0
6
CONTINUOUS
10
0.004245
20
0.026735
30
0.0
11
0.003841
21
0.026735
31
0.0
0
LINE
8
0
6
CONTINUOUS
10
0.004888
20
0.026735
30
0.0
11
0.004245
21
0.026735
31
0.0
0
LINE
8
0
6
CONTINUOUS
10
0.005727
20
0.026735
30
0.0
11
0.004888
21
0.026735
31
0.0
0
LINE
8
0
6
CONTINUOUS
10
0.006703
20
0.026735
30
0.0
11
0.005727
21
0.026735
31
0.0
0
LINE
8
0
6
CONTINUOUS
10
0.007751
20
0.026735
30
0.0
11
0.006703
21
0.026735
31
0.0
0
LINE
8
0
6
CONTINUOUS
10
0.008798
20
0.026735
30
0.0
11
0.007751
21
0.026735
31
0.0
0
LINE
8
0
6
CONTINUOUS
10
0.009775
20
0.026735
30
0.0
11
0.008798
21
0.026735
31
0.0
0
LINE
8
0
6
CONTINUOUS
10
0.010613
20
0.026735
30
0.0
11
0.009775
21
0.026735
31
0.0
0
LINE
8
0
6
CONTINUOUS
10
0.011256
20
0.026735
30
0.0
11
0.010613
21
0.026735
31
0.0
0
LINE
8
0
6
CONTINUOUS
10
0.011661
20
0.026735
30
0.0
11
0.011256
21
0.026735
31
0.0
0
LINE
8
0
6
CONTINUOUS
10
0.011799
20
0.026735
30
0.0
11
0.011661
21
0.026735
31
0.0
0
LINE
8
0
6
CONTINUOUS
10
0.012026
20
0.026675
30
0.0
11
0.011799
21
0.026735
31
0.0
0
LINE
8
0
6
CONTINUOUS
10
0.012192
20
0.026510
30
0.0
11
0.012026
21
0.026675
31
0.0
0
LINE
8
0
6
CONTINUOUS
10
0.012253
20
0.026285
30
0.0
11
0.012192
21
0.026510
31
0.0
0
LINE
8
0
6
CONTINUOUS
10
0.003249
20
0.026285
30
0.0
11
0.003249
21
0.026231
31
0.0
0
LINE
8
0
6
CONTINUOUS
10
0.011595
20
0.026735
30
0.0
11
0.011197
21
0.026735
31
0.0
0
LINE
8
0
6
CONTINUOUS
10
0.011595
20
0.026735
30
0.0
11
0.011730
21
0.026735
31
0.0
0
LINE
8
0
6
CONTINUOUS
10
0.011197
20
0.026735
30
0.0
11
0.011595
21
0.026735
31
0.0
0
LINE
8
0
6
CONTINUOUS
10
0.010565
20
0.026735
30
0.0
11
0.011197
21
0.026735
31
0.0
0
LINE
8
0
6
CONTINUOUS
10
0.009741
20
0.026735
30
0.0
11
0.010565
21
0.026735
31
0.0
0
LINE
8
0
6
CONTINUOUS
10
0.008781
20
0.026735
30
0.0
11
0.009741
21
0.026735
31
0.0
0
LINE
8
0
6
CONTINUOUS
10
0.007751
20
0.026735
30
0.0
11
0.008781
21
0.026735
31
0.0
0
LINE
8
0
6
CONTINUOUS
10
0.006721
20
0.026735
30
0.0
11
0.007751
21
0.026735
31
0.0
0
LINE
8
0
6
CONTINUOUS
10
0.005761
20
0.026735
30
0.0
11
0.006721
21
0.026735
31
0.0
0
LINE
8
0
6
CONTINUOUS
10
0.004304
20
0.026735
30
0.0
11
0.003907
21
0.026735
31
0.0
0
LINE
8
0
6
CONTINUOUS
10
0.004937
20
0.026735
30
0.0
11
0.004304
21
0.026735
31
0.0
0
LINE
8
0
6
CONTINUOUS
10
0.005761
20
0.026735
30
0.0
11
0.004937
21
0.026735
31
0.0
0
LINE
8
0
6
CONTINUOUS
10
0.006721
20
0.026735
30
0.0
11
0.005761
21
0.026735
31
0.0
0
LINE
8
0
6
CONTINUOUS
10
0.007751
20
0.026735
30
0.0
11
0.006721
21
0.026735
31
0.0
0
LINE
8
0
6
CONTINUOUS
10
0.008781
20
0.026735
30
0.0
11
0.007751
21
0.026735
31
0.0
0
LINE
8
0
6
CONTINUOUS
10
0.009741
20
0.026735
30
0.0
11
0.008781
21
0.026735
31
0.0
0
LINE
8
0
6
CONTINUOUS
10
0.010565
20
0.026735
30
0.0
11
0.009741
21
0.026735
31
0.0
0
LINE
8
0
6
CONTINUOUS
10
0.011197
20
0.026735
30
0.0
11
0.010565
21
0.026735
31
0.0
0
LINE
8
0
6
CONTINUOUS
10
-0.004565
20
-0.022038
30
0.0
11
-0.003045
21
-0.022038
31
0.0
0
LINE
8
0
6
CONTINUOUS
10
-0.004565
20
0.005402
30
0.0
11
-0.004565
21
0.010541
31
0.0
0
LINE
8
0
6
CONTINUOUS
10
-0.004565
20
-0.019015
30
0.0
11
-0.004565
21
-0.015165
31
0.0
0
LINE
8
0
6
CONTINUOUS
10
-0.004565
20
0.021896
30
0.0
11
-0.004565
21
0.023694
31
0.0
0
LINE
8
0
6
CONTINUOUS
10
-0.004565
20
0.018999
30
0.0
11
-0.004565
21
0.021896
31
0.0
0
LINE
8
0
6
CONTINUOUS
10
-0.004565
20
0.010541
30
0.0
11
-0.004565
21
0.015150
31
0.0
0
LINE
8
0
6
CONTINUOUS
10
-0.004880
20
0.024303
30
0.0
11
-0.014023
21
0.024303
31
0.0
0
LINE
8
0
6
CONTINUOUS
10
-0.014023
20
-0.024318
30
0.0
11
-0.004880
21
-0.024318
31
0.0
0
LINE
8
0
6
CONTINUOUS
10
-0.004880
20
-0.024318
30
0.0
11
-0.004565
21
-0.024318
31
0.0
0
LINE
8
0
6
CONTINUOUS
10
-0.004565
20
-0.024318
30
0.0
11
-0.004565
21
-0.023709
31
0.0
0
LINE
8
0
6
CONTINUOUS
10
-0.004565
20
-0.015165
30
0.0
11
-0.004565
21
-0.010556
31
0.0
0
LINE
8
0
6
CONTINUOUS
10
-0.004565
20
0.024303
30
0.0
11
-0.004880
21
0.024303
31
0.0
0
LINE
8
0
6
CONTINUOUS
10
-0.004565
20
0.023694
30
0.0
11
-0.004565
21
0.024303
31
0.0
0
LINE
8
0
6
CONTINUOUS
10
-0.004565
20
-0.000008
30
0.0
11
-0.004565
21
0.005402
31
0.0
0
LINE
8
0
6
CONTINUOUS
10
-0.004565
20
0.015150
30
0.0
11
-0.004565
21
0.018999
31
0.0
0
LINE
8
0
6
CONTINUOUS
10
-0.004565
20
-0.005417
30
0.0
11
-0.004565
21
-0.000008
31
0.0
0
LINE
8
0
6
CONTINUOUS
10
-0.004565
20
-0.010556
30
0.0
11
-0.004565
21
-0.005417
31
0.0
0
LINE
8
0
6
CONTINUOUS
10
-0.004565
20
-0.021911
30
0.0
11
-0.004565
21
-0.019015
31
0.0
0
LINE
8
0
6
CONTINUOUS
10
0.011650
20
0.023908
30
0.0
11
0.012099
21
0.024031
31
0.0
0
LINE
8
0
6
CONTINUOUS
10
0.012099
20
0.024031
30
0.0
11
0.012251
21
0.024160
31
0.0
0
ENDSEC
0
EOF
