999
unknown String-ID: 20550
0
SECTION
2
HEADER
9
$ACADVER
1
AC1009
9
$DWGCODEPAGE
3
unknown String-ID: 20561
0
ENDSEC
0
SECTION
2
TABLES
0
TABLE
2
LAYER
70
1
0
LAYER
2
0
70
0
62
7
6
CONTINUOUS
0
ENDTAB
0
ENDSEC
0
SECTION
2
ENTITIES
0
LINE
8
0
6
CONTINUOUS
10
-0.033983
20
0.009243
30
0.0
11
-0.030259
21
0.017949
31
0.0
0
LINE
8
0
6
CONTINUOUS
10
-0.030259
20
0.017949
30
0.0
11
-0.024915
21
0.024915
31
0.0
0
LINE
8
0
6
CONTINUOUS
10
-0.024915
20
0.024915
30
0.0
11
-0.017949
21
0.030259
31
0.0
0
LINE
8
0
6
CONTINUOUS
10
-0.017949
20
0.030259
30
0.0
11
-0.009243
21
0.033983
31
0.0
0
LINE
8
0
6
CONTINUOUS
10
-0.009243
20
0.033983
30
0.0
11
0.000000
21
0.035235
31
0.0
0
LINE
8
0
6
CONTINUOUS
10
0.033983
20
0.009243
30
0.0
11
0.035235
21
0.000000
31
0.0
0
LINE
8
0
6
CONTINUOUS
10
0.030259
20
0.017949
30
0.0
11
0.033983
21
0.009243
31
0.0
0
LINE
8
0
6
CONTINUOUS
10
0.024915
20
0.024915
30
0.0
11
0.030259
21
0.017949
31
0.0
0
LINE
8
0
6
CONTINUOUS
10
0.017949
20
0.030259
30
0.0
11
0.024915
21
0.024915
31
0.0
0
LINE
8
0
6
CONTINUOUS
10
0.009243
20
0.033983
30
0.0
11
0.017949
21
0.030259
31
0.0
0
LINE
8
0
6
CONTINUOUS
10
0.000000
20
0.035235
30
0.0
11
0.009243
21
0.033983
31
0.0
0
LINE
8
0
6
CONTINUOUS
10
-0.033983
20
-0.009243
30
0.0
11
-0.035235
21
0.000000
31
0.0
0
LINE
8
0
6
CONTINUOUS
10
-0.030259
20
-0.017949
30
0.0
11
-0.033983
21
-0.009243
31
0.0
0
LINE
8
0
6
CONTINUOUS
10
-0.024915
20
-0.024915
30
0.0
11
-0.030259
21
-0.017949
31
0.0
0
LINE
8
0
6
CONTINUOUS
10
-0.017949
20
-0.030259
30
0.0
11
-0.024915
21
-0.024915
31
0.0
0
LINE
8
0
6
CONTINUOUS
10
-0.009243
20
-0.033983
30
0.0
11
-0.017949
21
-0.030259
31
0.0
0
LINE
8
0
6
CONTINUOUS
10
0.000000
20
-0.035235
30
0.0
11
-0.009243
21
-0.033983
31
0.0
0
LINE
8
0
6
CONTINUOUS
10
0.035235
20
0.000000
30
0.0
11
0.033983
21
-0.009243
31
0.0
0
LINE
8
0
6
CONTINUOUS
10
0.033983
20
-0.009243
30
0.0
11
0.030259
21
-0.017949
31
0.0
0
LINE
8
0
6
CONTINUOUS
10
0.030259
20
-0.017949
30
0.0
11
0.024915
21
-0.024915
31
0.0
0
LINE
8
0
6
CONTINUOUS
10
0.024915
20
-0.024915
30
0.0
11
0.017949
21
-0.030259
31
0.0
0
LINE
8
0
6
CONTINUOUS
10
0.017949
20
-0.030259
30
0.0
11
0.009243
21
-0.033983
31
0.0
0
LINE
8
0
6
CONTINUOUS
10
0.009243
20
-0.033983
30
0.0
11
0.000000
21
-0.035235
31
0.0
0
LINE
8
0
6
CONTINUOUS
10
-0.070000
20
0.085000
30
0.0
11
-0.075740
21
0.083858
31
0.0
0
LINE
8
0
6
CONTINUOUS
10
-0.075740
20
0.083858
30
0.0
11
-0.080607
21
0.080607
31
0.0
0
LINE
8
0
6
CONTINUOUS
10
-0.080607
20
0.080607
30
0.0
11
-0.083858
21
0.075740
31
0.0
0
LINE
8
0
6
CONTINUOUS
10
-0.083858
20
0.075740
30
0.0
11
-0.085000
21
0.070000
31
0.0
0
LINE
8
0
6
CONTINUOUS
10
-0.085000
20
0.070000
30
0.0
11
-0.085000
21
0.000000
31
0.0
0
LINE
8
0
6
CONTINUOUS
10
0.000000
20
0.085000
30
0.0
11
-0.070000
21
0.085000
31
0.0
0
LINE
8
0
6
CONTINUOUS
10
0.075740
20
0.083858
30
0.0
11
0.070000
21
0.085000
31
0.0
0
LINE
8
0
6
CONTINUOUS
10
0.080607
20
0.080607
30
0.0
11
0.075740
21
0.083858
31
0.0
0
LINE
8
0
6
CONTINUOUS
10
0.083858
20
0.075740
30
0.0
11
0.080607
21
0.080607
31
0.0
0
LINE
8
0
6
CONTINUOUS
10
0.085000
20
0.070000
30
0.0
11
0.083858
21
0.075740
31
0.0
0
LINE
8
0
6
CONTINUOUS
10
0.085000
20
0.000000
30
0.0
11
0.085000
21
0.070000
31
0.0
0
LINE
8
0
6
CONTINUOUS
10
0.070000
20
0.085000
30
0.0
11
0.000000
21
0.085000
31
0.0
0
LINE
8
0
6
CONTINUOUS
10
-0.075740
20
-0.083858
30
0.0
11
-0.070000
21
-0.085000
31
0.0
0
LINE
8
0
6
CONTINUOUS
10
-0.080607
20
-0.080607
30
0.0
11
-0.075740
21
-0.083858
31
0.0
0
LINE
8
0
6
CONTINUOUS
10
-0.083858
20
-0.075740
30
0.0
11
-0.080607
21
-0.080607
31
0.0
0
LINE
8
0
6
CONTINUOUS
10
-0.085000
20
-0.070000
30
0.0
11
-0.083858
21
-0.075740
31
0.0
0
LINE
8
0
6
CONTINUOUS
10
-0.085000
20
0.000000
30
0.0
11
-0.085000
21
-0.070000
31
0.0
0
LINE
8
0
6
CONTINUOUS
10
-0.070000
20
-0.085000
30
0.0
11
0.000000
21
-0.085000
31
0.0
0
LINE
8
0
6
CONTINUOUS
10
0.070000
20
-0.085000
30
0.0
11
0.075740
21
-0.083858
31
0.0
0
LINE
8
0
6
CONTINUOUS
10
0.075740
20
-0.083858
30
0.0
11
0.080607
21
-0.080607
31
0.0
0
LINE
8
0
6
CONTINUOUS
10
0.080607
20
-0.080607
30
0.0
11
0.083858
21
-0.075740
31
0.0
0
LINE
8
0
6
CONTINUOUS
10
0.083858
20
-0.075740
30
0.0
11
0.085000
21
-0.070000
31
0.0
0
LINE
8
0
6
CONTINUOUS
10
0.085000
20
-0.070000
30
0.0
11
0.085000
21
0.000000
31
0.0
0
LINE
8
0
6
CONTINUOUS
10
0.000000
20
-0.085000
30
0.0
11
0.070000
21
-0.085000
31
0.0
0
LINE
8
0
6
CONTINUOUS
10
-0.035235
20
0.000000
30
0.0
11
-0.033983
21
0.009243
31
0.0
0
LINE
8
0
6
CONTINUOUS
10
-0.033771
20
0.009186
30
0.0
11
-0.035015
21
0.000000
31
0.0
0
LINE
8
0
6
CONTINUOUS
10
-0.030070
20
0.017837
30
0.0
11
-0.033771
21
0.009186
31
0.0
0
LINE
8
0
6
CONTINUOUS
10
-0.024759
20
0.024759
30
0.0
11
-0.030070
21
0.017837
31
0.0
0
LINE
8
0
6
CONTINUOUS
10
-0.017837
20
0.030070
30
0.0
11
-0.024759
21
0.024759
31
0.0
0
LINE
8
0
6
CONTINUOUS
10
-0.009186
20
0.033771
30
0.0
11
-0.017837
21
0.030070
31
0.0
0
LINE
8
0
6
CONTINUOUS
10
0.000000
20
0.035015
30
0.0
11
-0.009186
21
0.033771
31
0.0
0
LINE
8
0
6
CONTINUOUS
10
0.035015
20
0.000000
30
0.0
11
0.033771
21
0.009186
31
0.0
0
LINE
8
0
6
CONTINUOUS
10
0.033771
20
0.009186
30
0.0
11
0.030070
21
0.017837
31
0.0
0
LINE
8
0
6
CONTINUOUS
10
0.030070
20
0.017837
30
0.0
11
0.024759
21
0.024759
31
0.0
0
LINE
8
0
6
CONTINUOUS
10
0.024759
20
0.024759
30
0.0
11
0.017837
21
0.030070
31
0.0
0
LINE
8
0
6
CONTINUOUS
10
0.017837
20
0.030070
30
0.0
11
0.009186
21
0.033771
31
0.0
0
LINE
8
0
6
CONTINUOUS
10
0.009186
20
0.033771
30
0.0
11
0.000000
21
0.035015
31
0.0
0
LINE
8
0
6
CONTINUOUS
10
-0.035015
20
0.000000
30
0.0
11
-0.033771
21
-0.009186
31
0.0
0
LINE
8
0
6
CONTINUOUS
10
-0.033771
20
-0.009186
30
0.0
11
-0.030070
21
-0.017837
31
0.0
0
LINE
8
0
6
CONTINUOUS
10
-0.030070
20
-0.017837
30
0.0
11
-0.024759
21
-0.024759
31
0.0
0
LINE
8
0
6
CONTINUOUS
10
-0.024759
20
-0.024759
30
0.0
11
-0.017837
21
-0.030070
31
0.0
0
LINE
8
0
6
CONTINUOUS
10
-0.017837
20
-0.030070
30
0.0
11
-0.009186
21
-0.033771
31
0.0
0
LINE
8
0
6
CONTINUOUS
10
-0.009186
20
-0.033771
30
0.0
11
0.000000
21
-0.035015
31
0.0
0
LINE
8
0
6
CONTINUOUS
10
0.033771
20
-0.009186
30
0.0
11
0.035015
21
0.000000
31
0.0
0
LINE
8
0
6
CONTINUOUS
10
0.030070
20
-0.017837
30
0.0
11
0.033771
21
-0.009186
31
0.0
0
LINE
8
0
6
CONTINUOUS
10
0.024759
20
-0.024759
30
0.0
11
0.030070
21
-0.017837
31
0.0
0
LINE
8
0
6
CONTINUOUS
10
0.017837
20
-0.030070
30
0.0
11
0.024759
21
-0.024759
31
0.0
0
LINE
8
0
6
CONTINUOUS
10
0.009186
20
-0.033771
30
0.0
11
0.017837
21
-0.030070
31
0.0
0
LINE
8
0
6
CONTINUOUS
10
0.000000
20
-0.035015
30
0.0
11
0.009186
21
-0.033771
31
0.0
0
LINE
8
0
6
CONTINUOUS
10
-0.006385
20
-0.023569
30
0.0
11
-0.001007
21
-0.024175
31
0.0
0
LINE
8
0
6
CONTINUOUS
10
-0.011493
20
-0.021782
30
0.0
11
-0.006385
21
-0.023569
31
0.0
0
LINE
8
0
6
CONTINUOUS
10
-0.016076
20
-0.018903
30
0.0
11
-0.011493
21
-0.021782
31
0.0
0
LINE
8
0
6
CONTINUOUS
10
-0.019902
20
-0.015076
30
0.0
11
-0.016076
21
-0.018903
31
0.0
0
LINE
8
0
6
CONTINUOUS
10
-0.022782
20
-0.010494
30
0.0
11
-0.019902
21
-0.015076
31
0.0
0
LINE
8
0
6
CONTINUOUS
10
-0.024569
20
-0.005385
30
0.0
11
-0.022782
21
-0.010494
31
0.0
0
LINE
8
0
6
CONTINUOUS
10
-0.025175
20
-0.000008
30
0.0
11
-0.024569
21
-0.005385
31
0.0
0
LINE
8
0
6
CONTINUOUS
10
-0.024569
20
0.005370
30
0.0
11
-0.025175
21
-0.000008
31
0.0
0
LINE
8
0
6
CONTINUOUS
10
-0.022782
20
0.010478
30
0.0
11
-0.024569
21
0.005370
31
0.0
0
LINE
8
0
6
CONTINUOUS
10
-0.019902
20
0.015061
30
0.0
11
-0.022782
21
0.010478
31
0.0
0
LINE
8
0
6
CONTINUOUS
10
-0.016076
20
0.018888
30
0.0
11
-0.019902
21
0.015061
31
0.0
0
LINE
8
0
6
CONTINUOUS
10
-0.011493
20
0.021767
30
0.0
11
-0.016076
21
0.018888
31
0.0
0
LINE
8
0
6
CONTINUOUS
10
-0.006385
20
0.023554
30
0.0
11
-0.011493
21
0.021767
31
0.0
0
LINE
8
0
6
CONTINUOUS
10
-0.001007
20
0.024160
30
0.0
11
-0.006385
21
0.023554
31
0.0
0
LINE
8
0
6
CONTINUOUS
10
0.004371
20
0.023554
30
0.0
11
-0.001007
21
0.024160
31
0.0
0
LINE
8
0
6
CONTINUOUS
10
0.009479
20
0.021767
30
0.0
11
0.004371
21
0.023554
31
0.0
0
LINE
8
0
6
CONTINUOUS
10
0.014061
20
0.018888
30
0.0
11
0.009479
21
0.021767
31
0.0
0
LINE
8
0
6
CONTINUOUS
10
0.017888
20
0.015061
30
0.0
11
0.014061
21
0.018888
31
0.0
0
LINE
8
0
6
CONTINUOUS
10
0.020767
20
0.010479
30
0.0
11
0.017888
21
0.015061
31
0.0
0
LINE
8
0
6
CONTINUOUS
10
0.022555
20
0.005370
30
0.0
11
0.020767
21
0.010479
31
0.0
0
LINE
8
0
6
CONTINUOUS
10
0.023161
20
-0.000007
30
0.0
11
0.022555
21
0.005370
31
0.0
0
LINE
8
0
6
CONTINUOUS
10
0.022555
20
-0.005385
30
0.0
11
0.023161
21
-0.000007
31
0.0
0
LINE
8
0
6
CONTINUOUS
10
0.020767
20
-0.010493
30
0.0
11
0.022555
21
-0.005385
31
0.0
0
LINE
8
0
6
CONTINUOUS
10
0.017888
20
-0.015076
30
0.0
11
0.020767
21
-0.010493
31
0.0
0
LINE
8
0
6
CONTINUOUS
10
0.014061
20
-0.018903
30
0.0
11
0.017888
21
-0.015076
31
0.0
0
LINE
8
0
6
CONTINUOUS
10
0.009479
20
-0.021782
30
0.0
11
0.014061
21
-0.018903
31
0.0
0
LINE
8
0
6
CONTINUOUS
10
0.004371
20
-0.023569
30
0.0
11
0.009479
21
-0.021782
31
0.0
0
LINE
8
0
6
CONTINUOUS
10
-0.001007
20
-0.024175
30
0.0
11
0.004371
21
-0.023569
31
0.0
0
LINE
8
0
6
CONTINUOUS
10
0.003509
20
0.023651
30
0.0
11
0.003509
21
0.026231
31
0.0
0
LINE
8
0
6
CONTINUOUS
10
-0.005495
20
0.026231
30
0.0
11
-0.005495
21
0.023655
31
0.0
0
LINE
8
0
6
CONTINUOUS
10
0.001031
20
0.026735
30
0.0
11
0.000055
21
0.026735
31
0.0
0
LINE
8
0
6
CONTINUOUS
10
0.001869
20
0.026735
30
0.0
11
0.001031
21
0.026735
31
0.0
0
LINE
8
0
6
CONTINUOUS
10
0.002513
20
0.026735
30
0.0
11
0.001869
21
0.026735
31
0.0
0
LINE
8
0
6
CONTINUOUS
10
0.002917
20
0.026735
30
0.0
11
0.002513
21
0.026735
31
0.0
0
LINE
8
0
6
CONTINUOUS
10
0.003055
20
0.026735
30
0.0
11
0.002917
21
0.026735
31
0.0
0
LINE
8
0
6
CONTINUOUS
10
0.003282
20
0.026675
30
0.0
11
0.003055
21
0.026735
31
0.0
0
LINE
8
0
6
CONTINUOUS
10
0.003448
20
0.026510
30
0.0
11
0.003282
21
0.026675
31
0.0
0
LINE
8
0
6
CONTINUOUS
10
0.003509
20
0.026285
30
0.0
11
0.003448
21
0.026510
31
0.0
0
LINE
8
0
6
CONTINUOUS
10
-0.005041
20
0.026735
30
0.0
11
-0.005268
21
0.026675
31
0.0
0
LINE
8
0
6
CONTINUOUS
10
-0.004903
20
0.026735
30
0.0
11
-0.005041
21
0.026735
31
0.0
0
LINE
8
0
6
CONTINUOUS
10
-0.005268
20
0.026675
30
0.0
11
-0.005434
21
0.026510
31
0.0
0
LINE
8
0
6
CONTINUOUS
10
-0.005434
20
0.026510
30
0.0
11
-0.005495
21
0.026285
31
0.0
0
LINE
8
0
6
CONTINUOUS
10
-0.004499
20
0.026735
30
0.0
11
-0.004903
21
0.026735
31
0.0
0
LINE
8
0
6
CONTINUOUS
10
-0.003855
20
0.026735
30
0.0
11
-0.004499
21
0.026735
31
0.0
0
LINE
8
0
6
CONTINUOUS
10
-0.003017
20
0.026735
30
0.0
11
-0.003855
21
0.026735
31
0.0
0
LINE
8
0
6
CONTINUOUS
10
-0.002041
20
0.026735
30
0.0
11
-0.003017
21
0.026735
31
0.0
0
LINE
8
0
6
CONTINUOUS
10
-0.000993
20
0.026735
30
0.0
11
-0.002041
21
0.026735
31
0.0
0
LINE
8
0
6
CONTINUOUS
10
0.003509
20
0.026231
30
0.0
11
0.003509
21
0.026285
31
0.0
0
LINE
8
0
6
CONTINUOUS
10
-0.005495
20
0.026285
30
0.0
11
-0.005495
21
0.026231
31
0.0
0
LINE
8
0
6
CONTINUOUS
10
-0.001007
20
-0.024318
30
0.0
11
0.004402
21
-0.023709
31
0.0
0
LINE
8
0
6
CONTINUOUS
10
0.014150
20
-0.019015
30
0.0
11
0.018000
21
-0.015165
31
0.0
0
LINE
8
0
6
CONTINUOUS
10
0.018000
20
-0.015165
30
0.0
11
0.020896
21
-0.010556
31
0.0
0
LINE
8
0
6
CONTINUOUS
10
0.023304
20
-0.000008
30
0.0
11
0.022694
21
0.005402
31
0.0
0
LINE
8
0
6
CONTINUOUS
10
0.022694
20
0.005402
30
0.0
11
0.020896
21
0.010541
31
0.0
0
LINE
8
0
6
CONTINUOUS
10
0.020896
20
0.010541
30
0.0
11
0.018000
21
0.015150
31
0.0
0
LINE
8
0
6
CONTINUOUS
10
0.018000
20
0.015150
30
0.0
11
0.014150
21
0.019000
31
0.0
0
LINE
8
0
6
CONTINUOUS
10
0.009541
20
0.021896
30
0.0
11
0.004402
21
0.023694
31
0.0
0
LINE
8
0
6
CONTINUOUS
10
0.004402
20
0.023694
30
0.0
11
0.003509
21
0.023795
31
0.0
0
LINE
8
0
6
CONTINUOUS
10
-0.005495
20
0.023798
30
0.0
11
-0.006417
21
0.023694
31
0.0
0
LINE
8
0
6
CONTINUOUS
10
-0.006417
20
0.023694
30
0.0
11
-0.011555
21
0.021896
31
0.0
0
LINE
8
0
6
CONTINUOUS
10
-0.016165
20
0.018999
30
0.0
11
-0.020014
21
0.015150
31
0.0
0
LINE
8
0
6
CONTINUOUS
10
-0.020014
20
0.015150
30
0.0
11
-0.022911
21
0.010541
31
0.0
0
LINE
8
0
6
CONTINUOUS
10
-0.022911
20
0.010541
30
0.0
11
-0.024709
21
0.005402
31
0.0
0
LINE
8
0
6
CONTINUOUS
10
-0.024709
20
0.005402
30
0.0
11
-0.025318
21
-0.000008
31
0.0
0
LINE
8
0
6
CONTINUOUS
10
-0.025318
20
-0.000008
30
0.0
11
-0.024709
21
-0.005417
31
0.0
0
LINE
8
0
6
CONTINUOUS
10
-0.024709
20
-0.005417
30
0.0
11
-0.022911
21
-0.010556
31
0.0
0
LINE
8
0
6
CONTINUOUS
10
-0.016165
20
-0.019015
30
0.0
11
-0.011555
21
-0.021911
31
0.0
0
LINE
8
0
6
CONTINUOUS
10
-0.011555
20
-0.021911
30
0.0
11
-0.006417
21
-0.023709
31
0.0
0
LINE
8
0
6
CONTINUOUS
10
-0.006417
20
-0.023709
30
0.0
11
-0.001007
21
-0.024318
31
0.0
0
LINE
8
0
6
CONTINUOUS
10
0.014150
20
0.019000
30
0.0
11
0.009541
21
0.021896
31
0.0
0
LINE
8
0
6
CONTINUOUS
10
-0.011555
20
0.021896
30
0.0
11
-0.016165
21
0.018999
31
0.0
0
ENDSEC
0
EOF
