999
unknown String-ID: 20550
0
SECTION
2
HEADER
9
$ACADVER
1
AC1009
9
$DWGCODEPAGE
3
unknown String-ID: 20561
0
ENDSEC
0
SECTION
2
TABLES
0
TABLE
2
LAYER
70
1
0
LAYER
2
0
70
0
62
7
6
CONTINUOUS
0
ENDTAB
0
ENDSEC
0
SECTION
2
ENTITIES
0
LINE
8
0
6
CONTINUOUS
10
-0.007202
20
0.001500
30
0.0
11
-0.006087
21
0.001500
31
0.0
0
LINE
8
0
6
CONTINUOUS
10
0.004972
20
0.001500
30
0.0
11
0.006087
21
0.001500
31
0.0
0
LINE
8
0
6
CONTINUOUS
10
-0.005016
20
0.007500
30
0.0
11
-0.006235
21
0.007500
31
0.0
0
LINE
8
0
6
CONTINUOUS
10
0.007413
20
0.007500
30
0.0
11
0.006215
21
0.007500
31
0.0
0
LINE
8
0
6
CONTINUOUS
10
0.008090
20
-0.007002
30
0.0
11
0.009484
21
-0.006280
31
0.0
0
LINE
8
0
6
CONTINUOUS
10
-0.010878
20
-0.005558
30
0.0
11
-0.009484
21
-0.006280
31
0.0
0
LINE
8
0
6
CONTINUOUS
10
-0.015000
20
0.002669
30
0.0
11
-0.014755
21
0.001098
31
0.0
0
LINE
8
0
6
CONTINUOUS
10
0.014511
20
-0.000473
30
0.0
11
0.014755
21
0.001098
31
0.0
0
LINE
8
0
6
CONTINUOUS
10
0.010265
20
0.001500
30
0.0
11
0.004335
21
0.001500
31
0.0
0
LINE
8
0
6
CONTINUOUS
10
-0.015000
20
0.002884
30
0.0
11
-0.015000
21
0.002669
31
0.0
0
LINE
8
0
6
CONTINUOUS
10
0.010500
20
0.001773
30
0.0
11
0.010500
21
0.001500
31
0.0
0
LINE
8
0
6
CONTINUOUS
10
-0.014463
20
0.007500
30
0.0
11
-0.014700
21
0.007500
31
0.0
0
LINE
8
0
6
CONTINUOUS
10
-0.015000
20
0.006965
30
0.0
11
-0.015000
21
0.002884
31
0.0
0
LINE
8
0
6
CONTINUOUS
10
-0.011036
20
0.007500
30
0.0
11
-0.014463
21
0.007500
31
0.0
0
LINE
8
0
6
CONTINUOUS
10
0.010500
20
0.006965
30
0.0
11
0.010500
21
0.001773
31
0.0
0
LINE
8
0
6
CONTINUOUS
10
0.014463
20
0.007500
30
0.0
11
0.011036
21
0.007500
31
0.0
0
LINE
8
0
6
CONTINUOUS
10
0.014700
20
0.007500
30
0.0
11
0.014463
21
0.007500
31
0.0
0
LINE
8
0
6
CONTINUOUS
10
-0.002500
20
0.001500
30
0.0
11
0.002500
21
0.001500
31
0.0
0
LINE
8
0
6
CONTINUOUS
10
-0.010500
20
0.001500
30
0.0
11
-0.010109
21
0.001500
31
0.0
0
LINE
8
0
6
CONTINUOUS
10
-0.010109
20
0.001500
30
0.0
11
-0.008972
21
0.001500
31
0.0
0
LINE
8
0
6
CONTINUOUS
10
-0.008972
20
0.001500
30
0.0
11
-0.007202
21
0.001500
31
0.0
0
LINE
8
0
6
CONTINUOUS
10
-0.006087
20
0.001500
30
0.0
11
-0.004972
21
0.001500
31
0.0
0
LINE
8
0
6
CONTINUOUS
10
-0.004972
20
0.001500
30
0.0
11
-0.002500
21
0.001500
31
0.0
0
LINE
8
0
6
CONTINUOUS
10
0.002500
20
0.001500
30
0.0
11
0.004972
21
0.001500
31
0.0
0
LINE
8
0
6
CONTINUOUS
10
0.006087
20
0.001500
30
0.0
11
0.007202
21
0.001500
31
0.0
0
LINE
8
0
6
CONTINUOUS
10
0.007202
20
0.001500
30
0.0
11
0.008972
21
0.001500
31
0.0
0
LINE
8
0
6
CONTINUOUS
10
0.008972
20
0.001500
30
0.0
11
0.010108
21
0.001500
31
0.0
0
LINE
8
0
6
CONTINUOUS
10
0.010108
20
0.001500
30
0.0
11
0.010500
21
0.001500
31
0.0
0
LINE
8
0
6
CONTINUOUS
10
-0.004335
20
0.001500
30
0.0
11
-0.010270
21
0.001500
31
0.0
0
LINE
8
0
6
CONTINUOUS
10
0.004335
20
0.001500
30
0.0
11
-0.004335
21
0.001500
31
0.0
0
LINE
8
0
6
CONTINUOUS
10
0.010500
20
0.001500
30
0.0
11
0.010265
21
0.001500
31
0.0
0
LINE
8
0
6
CONTINUOUS
10
0.002469
20
0.007500
30
0.0
11
-0.002469
21
0.007500
31
0.0
0
LINE
8
0
6
CONTINUOUS
10
-0.006235
20
0.007500
30
0.0
11
-0.007454
21
0.007500
31
0.0
0
LINE
8
0
6
CONTINUOUS
10
-0.002469
20
0.007500
30
0.0
11
-0.005016
21
0.007500
31
0.0
0
LINE
8
0
6
CONTINUOUS
10
0.005017
20
0.007500
30
0.0
11
0.002469
21
0.007500
31
0.0
0
LINE
8
0
6
CONTINUOUS
10
0.006215
20
0.007500
30
0.0
11
0.005017
21
0.007500
31
0.0
0
LINE
8
0
6
CONTINUOUS
10
0.009264
20
0.007500
30
0.0
11
0.007413
21
0.007500
31
0.0
0
LINE
8
0
6
CONTINUOUS
10
0.010409
20
0.007500
30
0.0
11
0.009264
21
0.007500
31
0.0
0
LINE
8
0
6
CONTINUOUS
10
0.010802
20
0.007500
30
0.0
11
0.010409
21
0.007500
31
0.0
0
LINE
8
0
6
CONTINUOUS
10
-0.010500
20
0.006965
30
0.0
11
-0.010500
21
0.007200
31
0.0
0
LINE
8
0
6
CONTINUOUS
10
-0.010802
20
0.007500
30
0.0
11
-0.011036
21
0.007500
31
0.0
0
LINE
8
0
6
CONTINUOUS
10
0.011036
20
0.007500
30
0.0
11
0.010802
21
0.007500
31
0.0
0
LINE
8
0
6
CONTINUOUS
10
0.010500
20
0.007200
30
0.0
11
0.010500
21
0.006965
31
0.0
0
LINE
8
0
6
CONTINUOUS
10
-0.015000
20
0.007200
30
0.0
11
-0.015000
21
0.006965
31
0.0
0
LINE
8
0
6
CONTINUOUS
10
-0.005000
20
-0.007500
30
0.0
11
0.005000
21
-0.007500
31
0.0
0
LINE
8
0
6
CONTINUOUS
10
0.005000
20
-0.007500
30
0.0
11
0.008090
21
-0.007002
31
0.0
0
LINE
8
0
6
CONTINUOUS
10
-0.008090
20
-0.007002
30
0.0
11
-0.005000
21
-0.007500
31
0.0
0
LINE
8
0
6
CONTINUOUS
10
-0.014755
20
0.001098
30
0.0
11
-0.014510
21
-0.000473
31
0.0
0
LINE
8
0
6
CONTINUOUS
10
0.014755
20
0.001098
30
0.0
11
0.015000
21
0.002669
31
0.0
0
LINE
8
0
6
CONTINUOUS
10
0.010878
20
-0.005558
30
0.0
11
0.013090
21
-0.003308
31
0.0
0
LINE
8
0
6
CONTINUOUS
10
0.013090
20
-0.003308
30
0.0
11
0.014511
21
-0.000473
31
0.0
0
LINE
8
0
6
CONTINUOUS
10
0.009484
20
-0.006280
30
0.0
11
0.010878
21
-0.005558
31
0.0
0
LINE
8
0
6
CONTINUOUS
10
-0.014510
20
-0.000473
30
0.0
11
-0.013090
21
-0.003308
31
0.0
0
LINE
8
0
6
CONTINUOUS
10
-0.013090
20
-0.003308
30
0.0
11
-0.010878
21
-0.005558
31
0.0
0
LINE
8
0
6
CONTINUOUS
10
-0.009484
20
-0.006280
30
0.0
11
-0.008090
21
-0.007002
31
0.0
0
LINE
8
0
6
CONTINUOUS
10
-0.007454
20
0.007500
30
0.0
11
-0.009303
21
0.007500
31
0.0
0
LINE
8
0
6
CONTINUOUS
10
-0.010270
20
0.001500
30
0.0
11
-0.010500
21
0.001500
31
0.0
0
LINE
8
0
6
CONTINUOUS
10
-0.010500
20
0.007200
30
0.0
11
-0.010588
21
0.007412
31
0.0
0
LINE
8
0
6
CONTINUOUS
10
-0.010588
20
0.007412
30
0.0
11
-0.010802
21
0.007500
31
0.0
0
LINE
8
0
6
CONTINUOUS
10
0.010802
20
0.007500
30
0.0
11
0.010588
21
0.007412
31
0.0
0
LINE
8
0
6
CONTINUOUS
10
0.010588
20
0.007412
30
0.0
11
0.010500
21
0.007200
31
0.0
0
LINE
8
0
6
CONTINUOUS
10
-0.014700
20
0.007500
30
0.0
11
-0.014912
21
0.007412
31
0.0
0
LINE
8
0
6
CONTINUOUS
10
-0.014912
20
0.007412
30
0.0
11
-0.015000
21
0.007200
31
0.0
0
LINE
8
0
6
CONTINUOUS
10
0.015000
20
0.007200
30
0.0
11
0.014912
21
0.007412
31
0.0
0
LINE
8
0
6
CONTINUOUS
10
0.014912
20
0.007412
30
0.0
11
0.014700
21
0.007500
31
0.0
0
LINE
8
0
6
CONTINUOUS
10
-0.010878
20
-0.005558
30
0.0
11
-0.013090
21
-0.003308
31
0.0
0
LINE
8
0
6
CONTINUOUS
10
-0.009604
20
0.007500
30
0.0
11
-0.014455
21
0.007500
31
0.0
0
LINE
8
0
6
CONTINUOUS
10
-0.013090
20
-0.003308
30
0.0
11
-0.010878
21
-0.005558
31
0.0
0
ENDSEC
0
EOF
