999
unknown String-ID: 20550
0
SECTION
2
HEADER
9
$ACADVER
1
AC1009
9
$DWGCODEPAGE
3
unknown String-ID: 20561
0
ENDSEC
0
SECTION
2
TABLES
0
TABLE
2
LAYER
70
1
0
LAYER
2
0
70
0
62
7
6
CONTINUOUS
0
ENDTAB
0
ENDSEC
0
SECTION
2
ENTITIES
0
LINE
8
0
6
CONTINUOUS
10
-0.024950
20
0.000000
30
0.0
11
-0.024950
21
-0.012825
31
0.0
0
LINE
8
0
6
CONTINUOUS
10
-0.024950
20
-0.013500
30
0.0
11
-0.024050
21
-0.013500
31
0.0
0
LINE
8
0
6
CONTINUOUS
10
-0.024950
20
-0.012825
30
0.0
11
-0.024950
21
-0.013500
31
0.0
0
LINE
8
0
6
CONTINUOUS
10
-0.024950
20
0.012825
30
0.0
11
-0.024950
21
0.000000
31
0.0
0
LINE
8
0
6
CONTINUOUS
10
-0.024950
20
0.013500
30
0.0
11
-0.024950
21
0.012825
31
0.0
0
LINE
8
0
6
CONTINUOUS
10
-0.024050
20
0.013500
30
0.0
11
-0.024950
21
0.013500
31
0.0
0
LINE
8
0
6
CONTINUOUS
10
0.017790
20
0.015000
30
0.0
11
0.014887
21
0.015000
31
0.0
0
LINE
8
0
6
CONTINUOUS
10
0.020353
20
0.015000
30
0.0
11
0.017790
21
0.015000
31
0.0
0
LINE
8
0
6
CONTINUOUS
10
0.022386
20
0.015000
30
0.0
11
0.020353
21
0.015000
31
0.0
0
LINE
8
0
6
CONTINUOUS
10
0.023692
20
0.015000
30
0.0
11
0.022386
21
0.015000
31
0.0
0
LINE
8
0
6
CONTINUOUS
10
0.024716
20
0.014766
30
0.0
11
0.024152
21
0.015000
31
0.0
0
LINE
8
0
6
CONTINUOUS
10
0.024152
20
0.015000
30
0.0
11
0.023692
21
0.015000
31
0.0
0
LINE
8
0
6
CONTINUOUS
10
0.024950
20
0.014202
30
0.0
11
0.024716
21
0.014766
31
0.0
0
LINE
8
0
6
CONTINUOUS
10
0.020198
20
0.015000
30
0.0
11
0.022267
21
0.015000
31
0.0
0
LINE
8
0
6
CONTINUOUS
10
0.016629
20
0.015000
30
0.0
11
0.013052
21
0.015000
31
0.0
0
LINE
8
0
6
CONTINUOUS
10
0.017474
20
0.015000
30
0.0
11
0.020198
21
0.015000
31
0.0
0
LINE
8
0
6
CONTINUOUS
10
0.022267
20
0.015000
30
0.0
11
0.023564
21
0.015000
31
0.0
0
LINE
8
0
6
CONTINUOUS
10
0.021768
20
0.015000
30
0.0
11
0.019523
21
0.015000
31
0.0
0
LINE
8
0
6
CONTINUOUS
10
0.023564
20
0.015000
30
0.0
11
0.021768
21
0.015000
31
0.0
0
LINE
8
0
6
CONTINUOUS
10
0.023976
20
0.015000
30
0.0
11
0.023627
21
0.015000
31
0.0
0
LINE
8
0
6
CONTINUOUS
10
0.023627
20
0.015000
30
0.0
11
0.023132
21
0.015000
31
0.0
0
LINE
8
0
6
CONTINUOUS
10
0.009068
20
0.015000
30
0.0
11
0.004935
21
0.015000
31
0.0
0
LINE
8
0
6
CONTINUOUS
10
0.011978
20
0.015000
30
0.0
11
0.009068
21
0.015000
31
0.0
0
LINE
8
0
6
CONTINUOUS
10
0.009068
20
0.015000
30
0.0
11
0.004952
21
0.015000
31
0.0
0
LINE
8
0
6
CONTINUOUS
10
0.004939
20
0.015000
30
0.0
11
0.009068
21
0.015000
31
0.0
0
LINE
8
0
6
CONTINUOUS
10
0.021768
20
0.015000
30
0.0
11
0.023976
21
0.015000
31
0.0
0
LINE
8
0
6
CONTINUOUS
10
0.023132
20
0.015000
30
0.0
11
0.021768
21
0.015000
31
0.0
0
LINE
8
0
6
CONTINUOUS
10
0.014887
20
0.015000
30
0.0
11
0.011978
21
0.015000
31
0.0
0
LINE
8
0
6
CONTINUOUS
10
0.013052
20
0.015000
30
0.0
11
0.009068
21
0.015000
31
0.0
0
LINE
8
0
6
CONTINUOUS
10
0.009068
20
0.015000
30
0.0
11
0.012057
21
0.015000
31
0.0
0
LINE
8
0
6
CONTINUOUS
10
0.012057
20
0.015000
30
0.0
11
0.014873
21
0.015000
31
0.0
0
LINE
8
0
6
CONTINUOUS
10
0.014873
20
0.015000
30
0.0
11
0.017474
21
0.015000
31
0.0
0
LINE
8
0
6
CONTINUOUS
10
-0.017230
20
0.015000
30
0.0
11
-0.023750
21
0.015000
31
0.0
0
LINE
8
0
6
CONTINUOUS
10
0.024950
20
0.000000
30
0.0
11
0.024950
21
0.014054
31
0.0
0
LINE
8
0
6
CONTINUOUS
10
-0.011906
20
0.015000
30
0.0
11
-0.023574
21
0.015000
31
0.0
0
LINE
8
0
6
CONTINUOUS
10
0.004935
20
0.015000
30
0.0
11
0.000833
21
0.015000
31
0.0
0
LINE
8
0
6
CONTINUOUS
10
0.004952
20
0.015000
30
0.0
11
0.000841
21
0.015000
31
0.0
0
LINE
8
0
6
CONTINUOUS
10
0.000834
20
0.015000
30
0.0
11
0.004939
21
0.015000
31
0.0
0
LINE
8
0
6
CONTINUOUS
10
0.000833
20
0.015000
30
0.0
11
-0.005188
21
0.015000
31
0.0
0
LINE
8
0
6
CONTINUOUS
10
-0.005188
20
0.015000
30
0.0
11
-0.011209
21
0.015000
31
0.0
0
LINE
8
0
6
CONTINUOUS
10
-0.011209
20
0.015000
30
0.0
11
-0.017230
21
0.015000
31
0.0
0
LINE
8
0
6
CONTINUOUS
10
0.024950
20
0.014054
30
0.0
11
0.024950
21
0.014202
31
0.0
0
LINE
8
0
6
CONTINUOUS
10
-0.011715
20
0.015000
30
0.0
11
-0.011906
21
0.015000
31
0.0
0
LINE
8
0
6
CONTINUOUS
10
0.016480
20
0.015000
30
0.0
11
0.016629
21
0.015000
31
0.0
0
LINE
8
0
6
CONTINUOUS
10
0.019409
20
0.015000
30
0.0
11
0.016480
21
0.015000
31
0.0
0
LINE
8
0
6
CONTINUOUS
10
0.019523
20
0.015000
30
0.0
11
0.019409
21
0.015000
31
0.0
0
LINE
8
0
6
CONTINUOUS
10
0.024152
20
0.015000
30
0.0
11
0.023976
21
0.015000
31
0.0
0
LINE
8
0
6
CONTINUOUS
10
0.023976
20
0.015000
30
0.0
11
0.024152
21
0.015000
31
0.0
0
LINE
8
0
6
CONTINUOUS
10
0.019409
20
0.015000
30
0.0
11
0.016480
21
0.015000
31
0.0
0
LINE
8
0
6
CONTINUOUS
10
0.022947
20
0.015000
30
0.0
11
0.021609
21
0.015000
31
0.0
0
LINE
8
0
6
CONTINUOUS
10
0.023450
20
0.015000
30
0.0
11
0.022947
21
0.015000
31
0.0
0
LINE
8
0
6
CONTINUOUS
10
0.016480
20
0.015000
30
0.0
11
0.012975
21
0.015000
31
0.0
0
LINE
8
0
6
CONTINUOUS
10
-0.003069
20
0.015000
30
0.0
11
-0.006578
21
0.015000
31
0.0
0
LINE
8
0
6
CONTINUOUS
10
0.004957
20
0.015000
30
0.0
11
0.000842
21
0.015000
31
0.0
0
LINE
8
0
6
CONTINUOUS
10
0.021609
20
0.015000
30
0.0
11
0.019409
21
0.015000
31
0.0
0
LINE
8
0
6
CONTINUOUS
10
0.012975
20
0.015000
30
0.0
11
0.009068
21
0.015000
31
0.0
0
LINE
8
0
6
CONTINUOUS
10
0.000842
20
0.015000
30
0.0
11
-0.003069
21
0.015000
31
0.0
0
LINE
8
0
6
CONTINUOUS
10
-0.011906
20
0.015000
30
0.0
11
-0.023574
21
0.015000
31
0.0
0
LINE
8
0
6
CONTINUOUS
10
-0.011037
20
0.015000
30
0.0
11
-0.017054
21
0.015000
31
0.0
0
LINE
8
0
6
CONTINUOUS
10
-0.006703
20
0.015000
30
0.0
11
-0.011037
21
0.015000
31
0.0
0
LINE
8
0
6
CONTINUOUS
10
-0.011715
20
0.015000
30
0.0
11
-0.011906
21
0.015000
31
0.0
0
LINE
8
0
6
CONTINUOUS
10
-0.006578
20
0.015000
30
0.0
11
-0.006703
21
0.015000
31
0.0
0
LINE
8
0
6
CONTINUOUS
10
0.014887
20
-0.015000
30
0.0
11
0.017790
21
-0.015000
31
0.0
0
LINE
8
0
6
CONTINUOUS
10
0.017790
20
-0.015000
30
0.0
11
0.020353
21
-0.015000
31
0.0
0
LINE
8
0
6
CONTINUOUS
10
0.020353
20
-0.015000
30
0.0
11
0.022386
21
-0.015000
31
0.0
0
LINE
8
0
6
CONTINUOUS
10
0.022386
20
-0.015000
30
0.0
11
0.023692
21
-0.015000
31
0.0
0
LINE
8
0
6
CONTINUOUS
10
0.023692
20
-0.015000
30
0.0
11
0.024152
21
-0.015000
31
0.0
0
LINE
8
0
6
CONTINUOUS
10
0.024152
20
-0.015000
30
0.0
11
0.024716
21
-0.014766
31
0.0
0
LINE
8
0
6
CONTINUOUS
10
0.024716
20
-0.014766
30
0.0
11
0.024950
21
-0.014201
31
0.0
0
LINE
8
0
6
CONTINUOUS
10
0.004935
20
-0.015000
30
0.0
11
0.009068
21
-0.015000
31
0.0
0
LINE
8
0
6
CONTINUOUS
10
0.009068
20
-0.015000
30
0.0
11
0.011978
21
-0.015000
31
0.0
0
LINE
8
0
6
CONTINUOUS
10
0.011978
20
-0.015000
30
0.0
11
0.014887
21
-0.015000
31
0.0
0
LINE
8
0
6
CONTINUOUS
10
0.024950
20
-0.014054
30
0.0
11
0.024950
21
0.000000
31
0.0
0
LINE
8
0
6
CONTINUOUS
10
0.000833
20
-0.015000
30
0.0
11
0.004935
21
-0.015000
31
0.0
0
LINE
8
0
6
CONTINUOUS
10
-0.005188
20
-0.015000
30
0.0
11
0.000833
21
-0.015000
31
0.0
0
LINE
8
0
6
CONTINUOUS
10
-0.011209
20
-0.015000
30
0.0
11
-0.005188
21
-0.015000
31
0.0
0
LINE
8
0
6
CONTINUOUS
10
-0.017230
20
-0.015000
30
0.0
11
-0.011209
21
-0.015000
31
0.0
0
LINE
8
0
6
CONTINUOUS
10
0.024950
20
-0.014201
30
0.0
11
0.024950
21
-0.014054
31
0.0
0
LINE
8
0
6
CONTINUOUS
10
-0.024050
20
-0.004923
30
0.0
11
-0.024050
21
-0.014037
31
0.0
0
LINE
8
0
6
CONTINUOUS
10
-0.024050
20
0.004923
30
0.0
11
-0.024050
21
-0.004923
31
0.0
0
LINE
8
0
6
CONTINUOUS
10
-0.024050
20
0.014037
30
0.0
11
-0.024050
21
0.004923
31
0.0
0
LINE
8
0
6
CONTINUOUS
10
-0.024050
20
-0.014037
30
0.0
11
-0.024050
21
-0.014141
31
0.0
0
LINE
8
0
6
CONTINUOUS
10
-0.023751
20
-0.015000
30
0.0
11
-0.023602
21
-0.015000
31
0.0
0
LINE
8
0
6
CONTINUOUS
10
-0.023574
20
0.015000
30
0.0
11
-0.023751
21
0.015000
31
0.0
0
LINE
8
0
6
CONTINUOUS
10
-0.024050
20
0.014141
30
0.0
11
-0.024050
21
0.014037
31
0.0
0
LINE
8
0
6
CONTINUOUS
10
-0.023963
20
-0.014913
30
0.0
11
-0.023751
21
-0.015000
31
0.0
0
LINE
8
0
6
CONTINUOUS
10
-0.024050
20
-0.014701
30
0.0
11
-0.023963
21
-0.014913
31
0.0
0
LINE
8
0
6
CONTINUOUS
10
-0.024050
20
-0.014537
30
0.0
11
-0.024050
21
-0.014701
31
0.0
0
LINE
8
0
6
CONTINUOUS
10
-0.024050
20
-0.014141
30
0.0
11
-0.024050
21
-0.014537
31
0.0
0
LINE
8
0
6
CONTINUOUS
10
-0.024050
20
0.014537
30
0.0
11
-0.024050
21
0.014141
31
0.0
0
LINE
8
0
6
CONTINUOUS
10
-0.023751
20
0.015000
30
0.0
11
-0.023963
21
0.014913
31
0.0
0
LINE
8
0
6
CONTINUOUS
10
-0.023963
20
0.014913
30
0.0
11
-0.024050
21
0.014702
31
0.0
0
LINE
8
0
6
CONTINUOUS
10
-0.024050
20
0.014702
30
0.0
11
-0.024050
21
0.014537
31
0.0
0
LINE
8
0
6
CONTINUOUS
10
-0.009050
20
-0.005000
30
0.0
11
-0.009050
21
0.005000
31
0.0
0
LINE
8
0
6
CONTINUOUS
10
-0.010992
20
-0.010878
30
0.0
11
-0.009548
21
-0.008090
31
0.0
0
LINE
8
0
6
CONTINUOUS
10
-0.016077
20
-0.014510
30
0.0
11
-0.013242
21
-0.013090
31
0.0
0
LINE
8
0
6
CONTINUOUS
10
-0.023602
20
-0.015000
30
0.0
11
-0.019219
21
-0.015000
31
0.0
0
LINE
8
0
6
CONTINUOUS
10
-0.013242
20
-0.013090
30
0.0
11
-0.010992
21
-0.010878
31
0.0
0
LINE
8
0
6
CONTINUOUS
10
-0.009548
20
-0.008090
30
0.0
11
-0.009050
21
-0.005000
31
0.0
0
LINE
8
0
6
CONTINUOUS
10
-0.013242
20
0.013090
30
0.0
11
-0.016077
21
0.014511
31
0.0
0
LINE
8
0
6
CONTINUOUS
10
-0.009548
20
0.008090
30
0.0
11
-0.010992
21
0.010878
31
0.0
0
LINE
8
0
6
CONTINUOUS
10
-0.019219
20
-0.015000
30
0.0
11
-0.016077
21
-0.014510
31
0.0
0
LINE
8
0
6
CONTINUOUS
10
-0.010992
20
0.010878
30
0.0
11
-0.013242
21
0.013090
31
0.0
0
LINE
8
0
6
CONTINUOUS
10
-0.009050
20
0.005000
30
0.0
11
-0.009548
21
0.008090
31
0.0
0
LINE
8
0
6
CONTINUOUS
10
-0.016077
20
0.014511
30
0.0
11
-0.019219
21
0.015000
31
0.0
0
LINE
8
0
6
CONTINUOUS
10
-0.019219
20
0.015000
30
0.0
11
-0.023574
21
0.015000
31
0.0
0
ENDSEC
0
EOF
