999
unknown String-ID: 20550
0
SECTION
2
HEADER
9
$ACADVER
1
AC1009
9
$DWGCODEPAGE
3
unknown String-ID: 20561
0
ENDSEC
0
SECTION
2
TABLES
0
TABLE
2
LAYER
70
1
0
LAYER
2
0
70
0
62
7
6
CONTINUOUS
0
ENDTAB
0
ENDSEC
0
SECTION
2
ENTITIES
0
LINE
8
0
6
CONTINUOUS
10
0.110798
20
0.015000
30
0.0
11
0.110234
21
0.014766
31
0.0
0
LINE
8
0
6
CONTINUOUS
10
0.111258
20
0.015000
30
0.0
11
0.110798
21
0.015000
31
0.0
0
LINE
8
0
6
CONTINUOUS
10
0.110234
20
0.014766
30
0.0
11
0.110000
21
0.014202
31
0.0
0
LINE
8
0
6
CONTINUOUS
10
0.112564
20
0.015000
30
0.0
11
0.111258
21
0.015000
31
0.0
0
LINE
8
0
6
CONTINUOUS
10
0.114597
20
0.015000
30
0.0
11
0.112564
21
0.015000
31
0.0
0
LINE
8
0
6
CONTINUOUS
10
0.117160
20
0.015000
30
0.0
11
0.114597
21
0.015000
31
0.0
0
LINE
8
0
6
CONTINUOUS
10
0.120063
20
0.015000
30
0.0
11
0.117160
21
0.015000
31
0.0
0
LINE
8
0
6
CONTINUOUS
10
0.122976
20
0.015000
30
0.0
11
0.120063
21
0.015000
31
0.0
0
LINE
8
0
6
CONTINUOUS
10
0.115533
20
0.015000
30
0.0
11
0.113330
21
0.015000
31
0.0
0
LINE
8
0
6
CONTINUOUS
10
0.111989
20
0.015000
30
0.0
11
0.111636
21
0.015000
31
0.0
0
LINE
8
0
6
CONTINUOUS
10
0.113330
20
0.015000
30
0.0
11
0.111989
21
0.015000
31
0.0
0
LINE
8
0
6
CONTINUOUS
10
0.148500
20
0.014766
30
0.0
11
0.148491
21
0.015000
31
0.0
0
LINE
8
0
6
CONTINUOUS
10
0.148507
20
0.014202
30
0.0
11
0.148500
21
0.014766
31
0.0
0
LINE
8
0
6
CONTINUOUS
10
0.118313
20
0.015000
30
0.0
11
0.115421
21
0.015000
31
0.0
0
LINE
8
0
6
CONTINUOUS
10
0.112682
20
0.015000
30
0.0
11
0.114751
21
0.015000
31
0.0
0
LINE
8
0
6
CONTINUOUS
10
0.115421
20
0.015000
30
0.0
11
0.113174
21
0.015000
31
0.0
0
LINE
8
0
6
CONTINUOUS
10
0.111386
20
0.015000
30
0.0
11
0.112682
21
0.015000
31
0.0
0
LINE
8
0
6
CONTINUOUS
10
0.113174
20
0.015000
30
0.0
11
0.111386
21
0.015000
31
0.0
0
LINE
8
0
6
CONTINUOUS
10
0.114751
20
0.015000
30
0.0
11
0.117475
21
0.015000
31
0.0
0
LINE
8
0
6
CONTINUOUS
10
0.121892
20
0.015000
30
0.0
11
0.118313
21
0.015000
31
0.0
0
LINE
8
0
6
CONTINUOUS
10
0.130000
20
0.015000
30
0.0
11
0.125889
21
0.015000
31
0.0
0
LINE
8
0
6
CONTINUOUS
10
0.125889
20
0.015000
30
0.0
11
0.122976
21
0.015000
31
0.0
0
LINE
8
0
6
CONTINUOUS
10
0.122896
20
0.015000
30
0.0
11
0.125889
21
0.015000
31
0.0
0
LINE
8
0
6
CONTINUOUS
10
0.125889
20
0.015000
30
0.0
11
0.121892
21
0.015000
31
0.0
0
LINE
8
0
6
CONTINUOUS
10
0.117475
20
0.015000
30
0.0
11
0.120077
21
0.015000
31
0.0
0
LINE
8
0
6
CONTINUOUS
10
0.120077
20
0.015000
30
0.0
11
0.122896
21
0.015000
31
0.0
0
LINE
8
0
6
CONTINUOUS
10
0.113174
20
0.015000
30
0.0
11
0.111806
21
0.015000
31
0.0
0
LINE
8
0
6
CONTINUOUS
10
0.110974
20
0.015000
30
0.0
11
0.113174
21
0.015000
31
0.0
0
LINE
8
0
6
CONTINUOUS
10
0.111806
20
0.015000
30
0.0
11
0.110974
21
0.015000
31
0.0
0
LINE
8
0
6
CONTINUOUS
10
0.148507
20
0.000000
30
0.0
11
0.148500
21
0.014054
31
0.0
0
LINE
8
0
6
CONTINUOUS
10
0.110000
20
0.014054
30
0.0
11
0.110000
21
0.000000
31
0.0
0
LINE
8
0
6
CONTINUOUS
10
0.148500
20
0.014054
30
0.0
11
0.148507
21
0.014202
31
0.0
0
LINE
8
0
6
CONTINUOUS
10
0.110000
20
0.014202
30
0.0
11
0.110000
21
0.014054
31
0.0
0
LINE
8
0
6
CONTINUOUS
10
0.148500
20
0.015000
30
0.0
11
0.130000
21
0.015000
31
0.0
0
LINE
8
0
6
CONTINUOUS
10
0.186201
20
0.015000
30
0.0
11
0.185742
21
0.015000
31
0.0
0
LINE
8
0
6
CONTINUOUS
10
0.186766
20
0.014766
30
0.0
11
0.186201
21
0.015000
31
0.0
0
LINE
8
0
6
CONTINUOUS
10
0.187000
20
0.014202
30
0.0
11
0.186766
21
0.014766
31
0.0
0
LINE
8
0
6
CONTINUOUS
10
0.185742
20
0.015000
30
0.0
11
0.184436
21
0.015000
31
0.0
0
LINE
8
0
6
CONTINUOUS
10
0.184436
20
0.015000
30
0.0
11
0.182403
21
0.015000
31
0.0
0
LINE
8
0
6
CONTINUOUS
10
0.182403
20
0.015000
30
0.0
11
0.179840
21
0.015000
31
0.0
0
LINE
8
0
6
CONTINUOUS
10
0.179840
20
0.015000
30
0.0
11
0.176937
21
0.015000
31
0.0
0
LINE
8
0
6
CONTINUOUS
10
0.176937
20
0.015000
30
0.0
11
0.174024
21
0.015000
31
0.0
0
LINE
8
0
6
CONTINUOUS
10
0.183670
20
0.015000
30
0.0
11
0.181467
21
0.015000
31
0.0
0
LINE
8
0
6
CONTINUOUS
10
0.185364
20
0.015000
30
0.0
11
0.185011
21
0.015000
31
0.0
0
LINE
8
0
6
CONTINUOUS
10
0.185011
20
0.015000
30
0.0
11
0.183670
21
0.015000
31
0.0
0
LINE
8
0
6
CONTINUOUS
10
0.148509
20
0.015000
30
0.0
11
0.148500
21
0.014766
31
0.0
0
LINE
8
0
6
CONTINUOUS
10
0.148500
20
0.014766
30
0.0
11
0.148493
21
0.014202
31
0.0
0
LINE
8
0
6
CONTINUOUS
10
0.182249
20
0.015000
30
0.0
11
0.184318
21
0.015000
31
0.0
0
LINE
8
0
6
CONTINUOUS
10
0.181579
20
0.015000
30
0.0
11
0.178687
21
0.015000
31
0.0
0
LINE
8
0
6
CONTINUOUS
10
0.185614
20
0.015000
30
0.0
11
0.183826
21
0.015000
31
0.0
0
LINE
8
0
6
CONTINUOUS
10
0.184318
20
0.015000
30
0.0
11
0.185614
21
0.015000
31
0.0
0
LINE
8
0
6
CONTINUOUS
10
0.183826
20
0.015000
30
0.0
11
0.181579
21
0.015000
31
0.0
0
LINE
8
0
6
CONTINUOUS
10
0.178687
20
0.015000
30
0.0
11
0.175108
21
0.015000
31
0.0
0
LINE
8
0
6
CONTINUOUS
10
0.179525
20
0.015000
30
0.0
11
0.182249
21
0.015000
31
0.0
0
LINE
8
0
6
CONTINUOUS
10
0.171111
20
0.015000
30
0.0
11
0.167000
21
0.015000
31
0.0
0
LINE
8
0
6
CONTINUOUS
10
0.174024
20
0.015000
30
0.0
11
0.171111
21
0.015000
31
0.0
0
LINE
8
0
6
CONTINUOUS
10
0.175108
20
0.015000
30
0.0
11
0.171111
21
0.015000
31
0.0
0
LINE
8
0
6
CONTINUOUS
10
0.171111
20
0.015000
30
0.0
11
0.174104
21
0.015000
31
0.0
0
LINE
8
0
6
CONTINUOUS
10
0.174104
20
0.015000
30
0.0
11
0.176923
21
0.015000
31
0.0
0
LINE
8
0
6
CONTINUOUS
10
0.176923
20
0.015000
30
0.0
11
0.179525
21
0.015000
31
0.0
0
LINE
8
0
6
CONTINUOUS
10
0.186026
20
0.015000
30
0.0
11
0.185194
21
0.015000
31
0.0
0
LINE
8
0
6
CONTINUOUS
10
0.183826
20
0.015000
30
0.0
11
0.186026
21
0.015000
31
0.0
0
LINE
8
0
6
CONTINUOUS
10
0.185194
20
0.015000
30
0.0
11
0.183826
21
0.015000
31
0.0
0
LINE
8
0
6
CONTINUOUS
10
0.148500
20
0.014054
30
0.0
11
0.148493
21
0.000000
31
0.0
0
LINE
8
0
6
CONTINUOUS
10
0.187000
20
0.000000
30
0.0
11
0.187000
21
0.014054
31
0.0
0
LINE
8
0
6
CONTINUOUS
10
0.148493
20
0.014202
30
0.0
11
0.148500
21
0.014054
31
0.0
0
LINE
8
0
6
CONTINUOUS
10
0.187000
20
0.014054
30
0.0
11
0.187000
21
0.014202
31
0.0
0
LINE
8
0
6
CONTINUOUS
10
0.167000
20
0.015000
30
0.0
11
0.148500
21
0.015000
31
0.0
0
LINE
8
0
6
CONTINUOUS
10
0.110798
20
-0.015000
30
0.0
11
0.111258
21
-0.015000
31
0.0
0
LINE
8
0
6
CONTINUOUS
10
0.110234
20
-0.014766
30
0.0
11
0.110798
21
-0.015000
31
0.0
0
LINE
8
0
6
CONTINUOUS
10
0.110000
20
-0.014201
30
0.0
11
0.110234
21
-0.014766
31
0.0
0
LINE
8
0
6
CONTINUOUS
10
0.111258
20
-0.015000
30
0.0
11
0.112564
21
-0.015000
31
0.0
0
LINE
8
0
6
CONTINUOUS
10
0.112564
20
-0.015000
30
0.0
11
0.114597
21
-0.015000
31
0.0
0
LINE
8
0
6
CONTINUOUS
10
0.114597
20
-0.015000
30
0.0
11
0.117160
21
-0.015000
31
0.0
0
LINE
8
0
6
CONTINUOUS
10
0.117160
20
-0.015000
30
0.0
11
0.120063
21
-0.015000
31
0.0
0
LINE
8
0
6
CONTINUOUS
10
0.120063
20
-0.015000
30
0.0
11
0.122976
21
-0.015000
31
0.0
0
LINE
8
0
6
CONTINUOUS
10
0.148491
20
-0.015000
30
0.0
11
0.148500
21
-0.014766
31
0.0
0
LINE
8
0
6
CONTINUOUS
10
0.148500
20
-0.014766
30
0.0
11
0.148507
21
-0.014201
31
0.0
0
LINE
8
0
6
CONTINUOUS
10
0.122976
20
-0.015000
30
0.0
11
0.125889
21
-0.015000
31
0.0
0
LINE
8
0
6
CONTINUOUS
10
0.148500
20
-0.014054
30
0.0
11
0.148507
21
0.000000
31
0.0
0
LINE
8
0
6
CONTINUOUS
10
0.110000
20
0.000000
30
0.0
11
0.110000
21
-0.014054
31
0.0
0
LINE
8
0
6
CONTINUOUS
10
0.148507
20
-0.014201
30
0.0
11
0.148500
21
-0.014054
31
0.0
0
LINE
8
0
6
CONTINUOUS
10
0.110000
20
-0.014054
30
0.0
11
0.110000
21
-0.014201
31
0.0
0
LINE
8
0
6
CONTINUOUS
10
0.186201
20
-0.015000
30
0.0
11
0.186766
21
-0.014766
31
0.0
0
LINE
8
0
6
CONTINUOUS
10
0.185742
20
-0.015000
30
0.0
11
0.186201
21
-0.015000
31
0.0
0
LINE
8
0
6
CONTINUOUS
10
0.186766
20
-0.014766
30
0.0
11
0.187000
21
-0.014201
31
0.0
0
LINE
8
0
6
CONTINUOUS
10
0.184436
20
-0.015000
30
0.0
11
0.185742
21
-0.015000
31
0.0
0
LINE
8
0
6
CONTINUOUS
10
0.182403
20
-0.015000
30
0.0
11
0.184436
21
-0.015000
31
0.0
0
LINE
8
0
6
CONTINUOUS
10
0.179840
20
-0.015000
30
0.0
11
0.182403
21
-0.015000
31
0.0
0
LINE
8
0
6
CONTINUOUS
10
0.176937
20
-0.015000
30
0.0
11
0.179840
21
-0.015000
31
0.0
0
LINE
8
0
6
CONTINUOUS
10
0.174024
20
-0.015000
30
0.0
11
0.176937
21
-0.015000
31
0.0
0
LINE
8
0
6
CONTINUOUS
10
0.148500
20
-0.014766
30
0.0
11
0.148509
21
-0.015000
31
0.0
0
LINE
8
0
6
CONTINUOUS
10
0.148493
20
-0.014201
30
0.0
11
0.148500
21
-0.014766
31
0.0
0
LINE
8
0
6
CONTINUOUS
10
0.171111
20
-0.015000
30
0.0
11
0.174024
21
-0.015000
31
0.0
0
LINE
8
0
6
CONTINUOUS
10
0.148493
20
0.000000
30
0.0
11
0.148500
21
-0.014054
31
0.0
0
LINE
8
0
6
CONTINUOUS
10
0.187000
20
-0.014054
30
0.0
11
0.187000
21
0.000000
31
0.0
0
LINE
8
0
6
CONTINUOUS
10
0.148500
20
-0.014054
30
0.0
11
0.148493
21
-0.014201
31
0.0
0
LINE
8
0
6
CONTINUOUS
10
0.187000
20
-0.014201
30
0.0
11
0.187000
21
-0.014054
31
0.0
0
LINE
8
0
6
CONTINUOUS
10
-0.110954
20
0.015000
30
0.0
11
-0.186035
21
0.015000
31
0.0
0
LINE
8
0
6
CONTINUOUS
10
-0.110800
20
0.015000
30
0.0
11
-0.110954
21
0.015000
31
0.0
0
LINE
8
0
6
CONTINUOUS
10
-0.110000
20
-0.004936
30
0.0
11
-0.110000
21
0.004936
31
0.0
0
LINE
8
0
6
CONTINUOUS
10
-0.110234
20
-0.014766
30
0.0
11
-0.110000
21
-0.014200
31
0.0
0
LINE
8
0
6
CONTINUOUS
10
-0.110000
20
-0.014200
30
0.0
11
-0.110000
21
-0.013739
31
0.0
0
LINE
8
0
6
CONTINUOUS
10
-0.110000
20
-0.013739
30
0.0
11
-0.110000
21
-0.012431
31
0.0
0
LINE
8
0
6
CONTINUOUS
10
-0.110000
20
-0.012431
30
0.0
11
-0.110000
21
-0.010397
31
0.0
0
LINE
8
0
6
CONTINUOUS
10
-0.110000
20
-0.007836
30
0.0
11
-0.110000
21
-0.004936
31
0.0
0
LINE
8
0
6
CONTINUOUS
10
-0.110000
20
0.007836
30
0.0
11
-0.110000
21
0.010397
31
0.0
0
LINE
8
0
6
CONTINUOUS
10
-0.110000
20
0.014200
30
0.0
11
-0.110234
21
0.014766
31
0.0
0
LINE
8
0
6
CONTINUOUS
10
-0.110000
20
0.013739
30
0.0
11
-0.110000
21
0.014200
31
0.0
0
LINE
8
0
6
CONTINUOUS
10
-0.110000
20
0.012431
30
0.0
11
-0.110000
21
0.013739
31
0.0
0
LINE
8
0
6
CONTINUOUS
10
-0.110000
20
0.010397
30
0.0
11
-0.110000
21
0.012431
31
0.0
0
LINE
8
0
6
CONTINUOUS
10
-0.110000
20
0.004936
30
0.0
11
-0.110000
21
0.007836
31
0.0
0
LINE
8
0
6
CONTINUOUS
10
-0.187000
20
0.004936
30
0.0
11
-0.187000
21
-0.004936
31
0.0
0
LINE
8
0
6
CONTINUOUS
10
-0.187000
20
-0.007836
30
0.0
11
-0.187000
21
-0.010397
31
0.0
0
LINE
8
0
6
CONTINUOUS
10
-0.187000
20
-0.012431
30
0.0
11
-0.187000
21
-0.013739
31
0.0
0
LINE
8
0
6
CONTINUOUS
10
-0.187000
20
-0.010397
30
0.0
11
-0.187000
21
-0.012431
31
0.0
0
LINE
8
0
6
CONTINUOUS
10
-0.187000
20
-0.004936
30
0.0
11
-0.187000
21
-0.007836
31
0.0
0
LINE
8
0
6
CONTINUOUS
10
-0.187000
20
0.013739
30
0.0
11
-0.187000
21
0.012431
31
0.0
0
LINE
8
0
6
CONTINUOUS
10
-0.187000
20
0.010397
30
0.0
11
-0.187000
21
0.007836
31
0.0
0
LINE
8
0
6
CONTINUOUS
10
-0.187000
20
-0.014200
30
0.0
11
-0.186766
21
-0.014766
31
0.0
0
LINE
8
0
6
CONTINUOUS
10
-0.187000
20
-0.013739
30
0.0
11
-0.187000
21
-0.014200
31
0.0
0
LINE
8
0
6
CONTINUOUS
10
-0.187000
20
0.012431
30
0.0
11
-0.187000
21
0.010397
31
0.0
0
LINE
8
0
6
CONTINUOUS
10
-0.187000
20
0.007836
30
0.0
11
-0.187000
21
0.004936
31
0.0
0
LINE
8
0
6
CONTINUOUS
10
-0.186766
20
0.014766
30
0.0
11
-0.187000
21
0.014200
31
0.0
0
LINE
8
0
6
CONTINUOUS
10
-0.187000
20
0.014200
30
0.0
11
-0.187000
21
0.013739
31
0.0
0
LINE
8
0
6
CONTINUOUS
10
-0.186035
20
0.015000
30
0.0
11
-0.186200
21
0.015000
31
0.0
0
ENDSEC
0
EOF
