999
Erzeugt mit innoplus bad 
0
SECTION
2
HEADER
9
$ACADVER
1
AC1009
9
$DWGCODEPAGE
3
ISO8859-1
0
ENDSEC
0
SECTION
2
TABLES
0
TABLE
2
LAYER
70
1
0
LAYER
2
0
70
0
62
7
6
CONTINUOUS
0
ENDTAB
0
ENDSEC
0
SECTION
2
ENTITIES
0
LINE
8
0
6
CONTINUOUS
10
-0.150005
20
0.055248
30
0.0
11
-0.150005
21
0.053618
31
0.0
0
LINE
8
0
6
CONTINUOUS
10
-0.149628
20
0.055248
30
0.0
11
-0.149987
21
0.055248
31
0.0
0
LINE
8
0
6
CONTINUOUS
10
-0.150005
20
-0.044748
30
0.0
11
-0.149243
21
-0.048575
31
0.0
0
LINE
8
0
6
CONTINUOUS
10
-0.149243
20
-0.048575
30
0.0
11
-0.147075
21
-0.051819
31
0.0
0
LINE
8
0
6
CONTINUOUS
10
-0.147075
20
-0.051819
30
0.0
11
-0.143831
21
-0.053987
31
0.0
0
LINE
8
0
6
CONTINUOUS
10
-0.143831
20
-0.053987
30
0.0
11
-0.140003
21
-0.054748
31
0.0
0
LINE
8
0
6
CONTINUOUS
10
-0.140003
20
-0.054748
30
0.0
11
-0.128002
21
-0.054748
31
0.0
0
LINE
8
0
6
CONTINUOUS
10
-0.149614
20
0.053618
30
0.0
11
-0.149614
21
0.055248
31
0.0
0
LINE
8
0
6
CONTINUOUS
10
-0.149614
20
-0.044665
30
0.0
11
-0.148853
21
-0.048491
31
0.0
0
LINE
8
0
6
CONTINUOUS
10
-0.148853
20
-0.048491
30
0.0
11
-0.146685
21
-0.051736
31
0.0
0
LINE
8
0
6
CONTINUOUS
10
-0.146685
20
-0.051736
30
0.0
11
-0.143440
21
-0.053903
31
0.0
0
LINE
8
0
6
CONTINUOUS
10
-0.143440
20
-0.053903
30
0.0
11
-0.139613
21
-0.054665
31
0.0
0
LINE
8
0
6
CONTINUOUS
10
-0.150005
20
-0.000252
30
0.0
11
-0.150005
21
-0.044748
31
0.0
0
LINE
8
0
6
CONTINUOUS
10
-0.149614
20
-0.044665
30
0.0
11
-0.149614
21
-0.000252
31
0.0
0
LINE
8
0
6
CONTINUOUS
10
-0.128002
20
-0.054748
30
0.0
11
-0.000005
21
-0.054748
31
0.0
0
LINE
8
0
6
CONTINUOUS
10
-0.000005
20
-0.054665
30
0.0
11
-0.128002
21
-0.054665
31
0.0
0
LINE
8
0
6
CONTINUOUS
10
-0.139613
20
-0.054665
30
0.0
11
-0.128002
21
-0.054665
31
0.0
0
LINE
8
0
6
CONTINUOUS
10
-0.127938
20
0.055248
30
0.0
11
-0.148050
21
0.055248
31
0.0
0
LINE
8
0
6
CONTINUOUS
10
-0.000005
20
0.055248
30
0.0
11
-0.127938
21
0.055248
31
0.0
0
LINE
8
0
6
CONTINUOUS
10
-0.149614
20
0.053618
30
0.0
11
-0.149614
21
0.038794
31
0.0
0
LINE
8
0
6
CONTINUOUS
10
-0.150005
20
0.027229
30
0.0
11
-0.150005
21
-0.000252
31
0.0
0
LINE
8
0
6
CONTINUOUS
10
-0.150005
20
0.038794
30
0.0
11
-0.150005
21
0.027229
31
0.0
0
LINE
8
0
6
CONTINUOUS
10
-0.148050
20
0.055248
30
0.0
11
-0.149614
21
0.055248
31
0.0
0
LINE
8
0
6
CONTINUOUS
10
-0.149614
20
-0.000252
30
0.0
11
-0.149614
21
0.027229
31
0.0
0
LINE
8
0
6
CONTINUOUS
10
-0.149614
20
0.038794
30
0.0
11
-0.149614
21
0.027229
31
0.0
0
LINE
8
0
6
CONTINUOUS
10
-0.127938
20
0.035352
30
0.0
11
-0.000005
21
0.035352
31
0.0
0
LINE
8
0
6
CONTINUOUS
10
-0.130210
20
0.034859
30
0.0
11
-0.127938
21
0.035352
31
0.0
0
LINE
8
0
6
CONTINUOUS
10
-0.132193
20
0.033824
30
0.0
11
-0.130210
21
0.034859
31
0.0
0
LINE
8
0
6
CONTINUOUS
10
-0.133749
20
0.032218
30
0.0
11
-0.132193
21
0.033824
31
0.0
0
LINE
8
0
6
CONTINUOUS
10
-0.134722
20
0.030201
30
0.0
11
-0.133749
21
0.032218
31
0.0
0
LINE
8
0
6
CONTINUOUS
10
-0.135018
20
0.027229
30
0.0
11
-0.134722
21
0.030201
31
0.0
0
LINE
8
0
6
CONTINUOUS
10
-0.135113
20
-0.000252
30
0.0
11
-0.135018
21
0.027229
31
0.0
0
LINE
8
0
6
CONTINUOUS
10
-0.135009
20
-0.032491
30
0.0
11
-0.135113
21
-0.000252
31
0.0
0
LINE
8
0
6
CONTINUOUS
10
-0.000005
20
-0.039757
30
0.0
11
-0.128002
21
-0.039738
31
0.0
0
LINE
8
0
6
CONTINUOUS
10
-0.134720
20
-0.034715
30
0.0
11
-0.135009
21
-0.032491
31
0.0
0
LINE
8
0
6
CONTINUOUS
10
-0.128002
20
-0.039738
30
0.0
11
-0.130208
21
-0.039372
31
0.0
0
LINE
8
0
6
CONTINUOUS
10
-0.133747
20
-0.036732
30
0.0
11
-0.134720
21
-0.034715
31
0.0
0
LINE
8
0
6
CONTINUOUS
10
-0.130208
20
-0.039372
30
0.0
11
-0.132190
21
-0.038339
31
0.0
0
LINE
8
0
6
CONTINUOUS
10
-0.132190
20
-0.038339
30
0.0
11
-0.133747
21
-0.036732
31
0.0
0
LINE
8
0
6
CONTINUOUS
10
-0.150005
20
0.053618
30
0.0
11
-0.150005
21
0.038794
31
0.0
0
LINE
8
0
6
CONTINUOUS
10
0.149995
20
0.053618
30
0.0
11
0.149995
21
0.055248
31
0.0
0
LINE
8
0
6
CONTINUOUS
10
0.149977
20
0.055248
30
0.0
11
0.149618
21
0.055248
31
0.0
0
LINE
8
0
6
CONTINUOUS
10
0.149233
20
-0.048575
30
0.0
11
0.149995
21
-0.044748
31
0.0
0
LINE
8
0
6
CONTINUOUS
10
0.147065
20
-0.051819
30
0.0
11
0.149233
21
-0.048575
31
0.0
0
LINE
8
0
6
CONTINUOUS
10
0.143821
20
-0.053987
30
0.0
11
0.147065
21
-0.051819
31
0.0
0
LINE
8
0
6
CONTINUOUS
10
0.139993
20
-0.054748
30
0.0
11
0.143821
21
-0.053987
31
0.0
0
LINE
8
0
6
CONTINUOUS
10
0.127992
20
-0.054748
30
0.0
11
0.139993
21
-0.054748
31
0.0
0
LINE
8
0
6
CONTINUOUS
10
0.149604
20
0.055248
30
0.0
11
0.149604
21
0.053618
31
0.0
0
LINE
8
0
6
CONTINUOUS
10
0.148843
20
-0.048491
30
0.0
11
0.149604
21
-0.044665
31
0.0
0
LINE
8
0
6
CONTINUOUS
10
0.146675
20
-0.051736
30
0.0
11
0.148843
21
-0.048491
31
0.0
0
LINE
8
0
6
CONTINUOUS
10
0.143430
20
-0.053903
30
0.0
11
0.146675
21
-0.051736
31
0.0
0
LINE
8
0
6
CONTINUOUS
10
0.139603
20
-0.054665
30
0.0
11
0.143430
21
-0.053903
31
0.0
0
LINE
8
0
6
CONTINUOUS
10
0.149995
20
-0.044748
30
0.0
11
0.149995
21
-0.000252
31
0.0
0
LINE
8
0
6
CONTINUOUS
10
0.149604
20
-0.000252
30
0.0
11
0.149604
21
-0.044665
31
0.0
0
LINE
8
0
6
CONTINUOUS
10
-0.000005
20
-0.054748
30
0.0
11
0.127992
21
-0.054748
31
0.0
0
LINE
8
0
6
CONTINUOUS
10
0.127992
20
-0.054665
30
0.0
11
-0.000005
21
-0.054665
31
0.0
0
LINE
8
0
6
CONTINUOUS
10
0.127992
20
-0.054665
30
0.0
11
0.139603
21
-0.054665
31
0.0
0
LINE
8
0
6
CONTINUOUS
10
0.148040
20
0.055248
30
0.0
11
0.127928
21
0.055248
31
0.0
0
LINE
8
0
6
CONTINUOUS
10
0.127928
20
0.055248
30
0.0
11
-0.000005
21
0.055248
31
0.0
0
LINE
8
0
6
CONTINUOUS
10
0.149604
20
0.038794
30
0.0
11
0.149604
21
0.053618
31
0.0
0
LINE
8
0
6
CONTINUOUS
10
0.149995
20
-0.000252
30
0.0
11
0.149995
21
0.027229
31
0.0
0
LINE
8
0
6
CONTINUOUS
10
0.149995
20
0.027229
30
0.0
11
0.149995
21
0.038794
31
0.0
0
LINE
8
0
6
CONTINUOUS
10
0.149604
20
0.055248
30
0.0
11
0.148040
21
0.055248
31
0.0
0
LINE
8
0
6
CONTINUOUS
10
0.149604
20
0.027229
30
0.0
11
0.149604
21
-0.000252
31
0.0
0
LINE
8
0
6
CONTINUOUS
10
0.149604
20
0.027229
30
0.0
11
0.149604
21
0.038794
31
0.0
0
LINE
8
0
6
CONTINUOUS
10
-0.000005
20
0.035352
30
0.0
11
0.127928
21
0.035352
31
0.0
0
LINE
8
0
6
CONTINUOUS
10
0.127928
20
0.035352
30
0.0
11
0.130200
21
0.034859
31
0.0
0
LINE
8
0
6
CONTINUOUS
10
0.130200
20
0.034859
30
0.0
11
0.132183
21
0.033824
31
0.0
0
LINE
8
0
6
CONTINUOUS
10
0.132183
20
0.033824
30
0.0
11
0.133739
21
0.032218
31
0.0
0
LINE
8
0
6
CONTINUOUS
10
0.133739
20
0.032218
30
0.0
11
0.134712
21
0.030201
31
0.0
0
LINE
8
0
6
CONTINUOUS
10
0.134712
20
0.030201
30
0.0
11
0.135008
21
0.027229
31
0.0
0
LINE
8
0
6
CONTINUOUS
10
0.135008
20
0.027229
30
0.0
11
0.135103
21
-0.000252
31
0.0
0
LINE
8
0
6
CONTINUOUS
10
0.135103
20
-0.000252
30
0.0
11
0.134999
21
-0.032491
31
0.0
0
LINE
8
0
6
CONTINUOUS
10
0.127992
20
-0.039738
30
0.0
11
-0.000005
21
-0.039757
31
0.0
0
LINE
8
0
6
CONTINUOUS
10
0.134999
20
-0.032491
30
0.0
11
0.134710
21
-0.034715
31
0.0
0
LINE
8
0
6
CONTINUOUS
10
0.130198
20
-0.039372
30
0.0
11
0.127992
21
-0.039738
31
0.0
0
LINE
8
0
6
CONTINUOUS
10
0.134710
20
-0.034715
30
0.0
11
0.133737
21
-0.036732
31
0.0
0
LINE
8
0
6
CONTINUOUS
10
0.132180
20
-0.038339
30
0.0
11
0.130198
21
-0.039372
31
0.0
0
LINE
8
0
6
CONTINUOUS
10
0.133737
20
-0.036732
30
0.0
11
0.132180
21
-0.038339
31
0.0
0
LINE
8
0
6
CONTINUOUS
10
0.149995
20
0.038794
30
0.0
11
0.149995
21
0.053618
31
0.0
0
LINE
8
0
6
CONTINUOUS
10
0.150502
20
-0.044593
30
0.0
11
0.150502
21
-0.043895
31
0.0
0
LINE
8
0
6
CONTINUOUS
10
0.141452
20
0.054753
30
0.0
11
0.140767
21
0.054753
31
0.0
0
LINE
8
0
6
CONTINUOUS
10
0.140767
20
0.054753
30
0.0
11
-0.140304
21
0.054753
31
0.0
0
LINE
8
0
6
CONTINUOUS
10
-0.140304
20
0.054753
30
0.0
11
-0.141452
21
0.054753
31
0.0
0
LINE
8
0
6
CONTINUOUS
10
0.145515
20
0.054753
30
0.0
11
0.141452
21
0.054753
31
0.0
0
LINE
8
0
6
CONTINUOUS
10
0.149578
20
0.054753
30
0.0
11
0.145515
21
0.054753
31
0.0
0
LINE
8
0
6
CONTINUOUS
10
0.149739
20
-0.048670
30
0.0
11
0.150502
21
-0.044593
31
0.0
0
LINE
8
0
6
CONTINUOUS
10
0.150502
20
0.054753
30
0.0
11
0.149578
21
0.054753
31
0.0
0
LINE
8
0
6
CONTINUOUS
10
-0.141452
20
0.054753
30
0.0
11
-0.145515
21
0.054753
31
0.0
0
LINE
8
0
6
CONTINUOUS
10
0.150502
20
-0.043895
30
0.0
11
0.150502
21
0.054271
31
0.0
0
LINE
8
0
6
CONTINUOUS
10
-0.150475
20
0.054725
30
0.0
11
-0.150093
21
0.054323
31
0.0
0
LINE
8
0
6
CONTINUOUS
10
-0.139344
20
-0.055248
30
0.0
11
0.139804
21
-0.055248
31
0.0
0
LINE
8
0
6
CONTINUOUS
10
-0.140484
20
-0.055248
30
0.0
11
-0.139344
21
-0.055248
31
0.0
0
LINE
8
0
6
CONTINUOUS
10
-0.139841
20
0.054247
30
0.0
11
0.140298
21
0.054247
31
0.0
0
LINE
8
0
6
CONTINUOUS
10
-0.138883
20
-0.054753
30
0.0
11
0.139336
21
-0.054753
31
0.0
0
LINE
8
0
6
CONTINUOUS
10
0.140013
20
-0.054753
30
0.0
11
0.139336
21
-0.054753
31
0.0
0
LINE
8
0
6
CONTINUOUS
10
-0.150093
20
0.054323
30
0.0
11
-0.150021
21
0.054247
31
0.0
0
LINE
8
0
6
CONTINUOUS
10
0.150088
20
0.054323
30
0.0
11
0.150475
21
0.054725
31
0.0
0
LINE
8
0
6
CONTINUOUS
10
0.147567
20
-0.052127
30
0.0
11
0.149739
21
-0.048670
31
0.0
0
LINE
8
0
6
CONTINUOUS
10
0.144317
20
-0.054437
30
0.0
11
0.147567
21
-0.052127
31
0.0
0
LINE
8
0
6
CONTINUOUS
10
-0.147567
20
-0.052127
30
0.0
11
-0.144317
21
-0.054437
31
0.0
0
LINE
8
0
6
CONTINUOUS
10
-0.144317
20
-0.054437
30
0.0
11
-0.140484
21
-0.055248
31
0.0
0
LINE
8
0
6
CONTINUOUS
10
-0.150502
20
0.054271
30
0.0
11
-0.150502
21
-0.043895
31
0.0
0
LINE
8
0
6
CONTINUOUS
10
0.139804
20
-0.055248
30
0.0
11
0.140484
21
-0.055248
31
0.0
0
LINE
8
0
6
CONTINUOUS
10
-0.150502
20
-0.044593
30
0.0
11
-0.149739
21
-0.048670
31
0.0
0
LINE
8
0
6
CONTINUOUS
10
0.140484
20
-0.055248
30
0.0
11
0.144317
21
-0.054437
31
0.0
0
LINE
8
0
6
CONTINUOUS
10
-0.140985
20
0.054247
30
0.0
11
-0.139841
21
0.054247
31
0.0
0
LINE
8
0
6
CONTINUOUS
10
0.140979
20
0.054247
30
0.0
11
0.145036
21
0.054247
31
0.0
0
LINE
8
0
6
CONTINUOUS
10
0.145036
20
0.054247
30
0.0
11
0.149092
21
0.054247
31
0.0
0
LINE
8
0
6
CONTINUOUS
10
-0.149739
20
-0.048670
30
0.0
11
-0.147567
21
-0.052127
31
0.0
0
LINE
8
0
6
CONTINUOUS
10
0.150015
20
0.053823
30
0.0
11
0.150015
21
0.054247
31
0.0
0
LINE
8
0
6
CONTINUOUS
10
0.147085
20
-0.051824
30
0.0
11
0.149253
21
-0.048579
31
0.0
0
LINE
8
0
6
CONTINUOUS
10
0.143841
20
-0.053991
30
0.0
11
0.147085
21
-0.051824
31
0.0
0
LINE
8
0
6
CONTINUOUS
10
0.140013
20
-0.054753
30
0.0
11
0.143841
21
-0.053991
31
0.0
0
LINE
8
0
6
CONTINUOUS
10
-0.150502
20
0.054753
30
0.0
11
-0.150502
21
0.054271
31
0.0
0
LINE
8
0
6
CONTINUOUS
10
0.150015
20
-0.044753
30
0.0
11
0.150015
21
-0.044052
31
0.0
0
LINE
8
0
6
CONTINUOUS
10
-0.150021
20
0.053823
30
0.0
11
-0.150021
21
-0.044052
31
0.0
0
LINE
8
0
6
CONTINUOUS
10
-0.140019
20
-0.054753
30
0.0
11
-0.138883
21
-0.054753
31
0.0
0
LINE
8
0
6
CONTINUOUS
10
-0.145042
20
0.054247
30
0.0
11
-0.149098
21
0.054247
31
0.0
0
LINE
8
0
6
CONTINUOUS
10
-0.145515
20
0.054753
30
0.0
11
-0.149578
21
0.054753
31
0.0
0
LINE
8
0
6
CONTINUOUS
10
0.150015
20
-0.044753
30
0.0
11
0.149253
21
-0.048579
31
0.0
0
LINE
8
0
6
CONTINUOUS
10
0.140979
20
0.054247
30
0.0
11
0.140298
21
0.054247
31
0.0
0
LINE
8
0
6
CONTINUOUS
10
0.150502
20
0.054271
30
0.0
11
0.150502
21
0.054753
31
0.0
0
LINE
8
0
6
CONTINUOUS
10
-0.149578
20
0.054753
30
0.0
11
-0.150502
21
0.054753
31
0.0
0
LINE
8
0
6
CONTINUOUS
10
-0.150502
20
-0.043895
30
0.0
11
-0.150502
21
-0.044593
31
0.0
0
LINE
8
0
6
CONTINUOUS
10
0.150015
20
0.053823
30
0.0
11
0.150015
21
-0.044052
31
0.0
0
LINE
8
0
6
CONTINUOUS
10
0.150015
20
0.054247
30
0.0
11
0.150088
21
0.054323
31
0.0
0
LINE
8
0
6
CONTINUOUS
10
0.149092
20
0.054247
30
0.0
11
0.150015
21
0.054247
31
0.0
0
LINE
8
0
6
CONTINUOUS
10
-0.145042
20
0.054247
30
0.0
11
-0.140985
21
0.054247
31
0.0
0
LINE
8
0
6
CONTINUOUS
10
-0.149098
20
0.054247
30
0.0
11
-0.150021
21
0.054247
31
0.0
0
LINE
8
0
6
CONTINUOUS
10
-0.150021
20
0.054247
30
0.0
11
-0.150021
21
0.053823
31
0.0
0
LINE
8
0
6
CONTINUOUS
10
-0.150021
20
-0.044753
30
0.0
11
-0.149259
21
-0.048579
31
0.0
0
LINE
8
0
6
CONTINUOUS
10
-0.149259
20
-0.048579
30
0.0
11
-0.147091
21
-0.051824
31
0.0
0
LINE
8
0
6
CONTINUOUS
10
-0.147091
20
-0.051824
30
0.0
11
-0.143847
21
-0.053991
31
0.0
0
LINE
8
0
6
CONTINUOUS
10
-0.143847
20
-0.053991
30
0.0
11
-0.140019
21
-0.054753
31
0.0
0
LINE
8
0
6
CONTINUOUS
10
-0.150021
20
-0.044052
30
0.0
11
-0.150021
21
-0.044753
31
0.0
0
ENDSEC
0
EOF
