999
Erzeugt mit innoplus bad 
0
SECTION
2
HEADER
9
$ACADVER
1
AC1009
9
$DWGCODEPAGE
3
ISO8859-1
0
ENDSEC
0
SECTION
2
TABLES
0
TABLE
2
LAYER
70
1
0
LAYER
2
0
70
0
62
7
6
CONTINUOUS
0
ENDTAB
0
ENDSEC
0
SECTION
2
ENTITIES
0
LINE
8
0
6
CONTINUOUS
10
-0.150005
20
-0.014280
30
0.0
11
-0.149243
21
-0.014280
31
0.0
0
LINE
8
0
6
CONTINUOUS
10
-0.149987
20
-0.013219
30
0.0
11
-0.150005
21
-0.014280
31
0.0
0
LINE
8
0
6
CONTINUOUS
10
-0.149243
20
-0.014280
30
0.0
11
-0.147075
21
-0.014280
31
0.0
0
LINE
8
0
6
CONTINUOUS
10
-0.147075
20
-0.014280
30
0.0
11
-0.143831
21
-0.014280
31
0.0
0
LINE
8
0
6
CONTINUOUS
10
-0.143831
20
-0.014280
30
0.0
11
-0.140003
21
-0.014280
31
0.0
0
LINE
8
0
6
CONTINUOUS
10
-0.140003
20
-0.014280
30
0.0
11
-0.128002
21
-0.014280
31
0.0
0
LINE
8
0
6
CONTINUOUS
10
-0.149628
20
0.008835
30
0.0
11
-0.149987
21
-0.013219
31
0.0
0
LINE
8
0
6
CONTINUOUS
10
-0.149614
20
0.009720
30
0.0
11
-0.149628
21
0.008835
31
0.0
0
LINE
8
0
6
CONTINUOUS
10
-0.148853
20
0.009720
30
0.0
11
-0.149614
21
0.009720
31
0.0
0
LINE
8
0
6
CONTINUOUS
10
-0.146685
20
0.009720
30
0.0
11
-0.148853
21
0.009720
31
0.0
0
LINE
8
0
6
CONTINUOUS
10
-0.143440
20
0.009720
30
0.0
11
-0.146685
21
0.009720
31
0.0
0
LINE
8
0
6
CONTINUOUS
10
-0.139613
20
0.009720
30
0.0
11
-0.143440
21
0.009720
31
0.0
0
LINE
8
0
6
CONTINUOUS
10
-0.128002
20
0.009720
30
0.0
11
-0.139613
21
0.009720
31
0.0
0
LINE
8
0
6
CONTINUOUS
10
-0.128002
20
-0.014280
30
0.0
11
-0.000005
21
-0.014280
31
0.0
0
LINE
8
0
6
CONTINUOUS
10
-0.000005
20
0.009720
30
0.0
11
-0.128002
21
0.009720
31
0.0
0
LINE
8
0
6
CONTINUOUS
10
-0.147628
20
-0.014564
30
0.0
11
-0.146432
21
-0.014280
31
0.0
0
LINE
8
0
6
CONTINUOUS
10
-0.000005
20
0.009720
30
0.0
11
-0.127938
21
0.009720
31
0.0
0
LINE
8
0
6
CONTINUOUS
10
-0.150005
20
-0.014280
30
0.0
11
-0.149715
21
-0.014357
31
0.0
0
LINE
8
0
6
CONTINUOUS
10
-0.149715
20
-0.014357
30
0.0
11
-0.147831
21
-0.014534
31
0.0
0
LINE
8
0
6
CONTINUOUS
10
-0.147628
20
-0.014564
30
0.0
11
-0.148375
21
-0.014280
31
0.0
0
LINE
8
0
6
CONTINUOUS
10
-0.147831
20
-0.014534
30
0.0
11
-0.147628
21
-0.014564
31
0.0
0
LINE
8
0
6
CONTINUOUS
10
0.149995
20
-0.014280
30
0.0
11
0.149977
21
-0.013219
31
0.0
0
LINE
8
0
6
CONTINUOUS
10
0.149233
20
-0.014280
30
0.0
11
0.149995
21
-0.014280
31
0.0
0
LINE
8
0
6
CONTINUOUS
10
0.147065
20
-0.014280
30
0.0
11
0.149233
21
-0.014280
31
0.0
0
LINE
8
0
6
CONTINUOUS
10
0.143821
20
-0.014280
30
0.0
11
0.147065
21
-0.014280
31
0.0
0
LINE
8
0
6
CONTINUOUS
10
0.139993
20
-0.014280
30
0.0
11
0.143821
21
-0.014280
31
0.0
0
LINE
8
0
6
CONTINUOUS
10
0.127992
20
-0.014280
30
0.0
11
0.139993
21
-0.014280
31
0.0
0
LINE
8
0
6
CONTINUOUS
10
0.149977
20
-0.013219
30
0.0
11
0.149618
21
0.008835
31
0.0
0
LINE
8
0
6
CONTINUOUS
10
0.149604
20
0.009720
30
0.0
11
0.148843
21
0.009720
31
0.0
0
LINE
8
0
6
CONTINUOUS
10
0.149618
20
0.008835
30
0.0
11
0.149604
21
0.009720
31
0.0
0
LINE
8
0
6
CONTINUOUS
10
0.148843
20
0.009720
30
0.0
11
0.146675
21
0.009720
31
0.0
0
LINE
8
0
6
CONTINUOUS
10
0.146675
20
0.009720
30
0.0
11
0.143430
21
0.009720
31
0.0
0
LINE
8
0
6
CONTINUOUS
10
0.143430
20
0.009720
30
0.0
11
0.139603
21
0.009720
31
0.0
0
LINE
8
0
6
CONTINUOUS
10
0.139603
20
0.009720
30
0.0
11
0.127992
21
0.009720
31
0.0
0
LINE
8
0
6
CONTINUOUS
10
-0.000005
20
-0.014280
30
0.0
11
0.127992
21
-0.014280
31
0.0
0
LINE
8
0
6
CONTINUOUS
10
0.127992
20
0.009720
30
0.0
11
-0.000005
21
0.009720
31
0.0
0
LINE
8
0
6
CONTINUOUS
10
0.146422
20
-0.014280
30
0.0
11
0.147618
21
-0.014564
31
0.0
0
LINE
8
0
6
CONTINUOUS
10
0.127928
20
0.009720
30
0.0
11
-0.000005
21
0.009720
31
0.0
0
LINE
8
0
6
CONTINUOUS
10
0.149705
20
-0.014357
30
0.0
11
0.149995
21
-0.014280
31
0.0
0
LINE
8
0
6
CONTINUOUS
10
0.147821
20
-0.014534
30
0.0
11
0.149705
21
-0.014357
31
0.0
0
LINE
8
0
6
CONTINUOUS
10
0.147618
20
-0.014564
30
0.0
11
0.147821
21
-0.014534
31
0.0
0
LINE
8
0
6
CONTINUOUS
10
0.148365
20
-0.014280
30
0.0
11
0.147618
21
-0.014564
31
0.0
0
LINE
8
0
6
CONTINUOUS
10
-0.150502
20
0.012563
30
0.0
11
-0.150468
21
0.012423
31
0.0
0
LINE
8
0
6
CONTINUOUS
10
0.150088
20
0.010856
30
0.0
11
0.150468
21
0.012423
31
0.0
0
LINE
8
0
6
CONTINUOUS
10
0.150502
20
0.012563
30
0.0
11
0.150475
21
0.012674
31
0.0
0
LINE
8
0
6
CONTINUOUS
10
-0.150093
20
0.014264
30
0.0
11
-0.150475
21
0.012674
31
0.0
0
LINE
8
0
6
CONTINUOUS
10
0.150015
20
0.010555
30
0.0
11
0.150088
21
0.010856
31
0.0
0
LINE
8
0
6
CONTINUOUS
10
0.150088
20
0.014264
30
0.0
11
0.150015
21
0.014564
31
0.0
0
LINE
8
0
6
CONTINUOUS
10
0.139336
20
0.014564
30
0.0
11
-0.138883
21
0.014564
31
0.0
0
LINE
8
0
6
CONTINUOUS
10
-0.138883
20
0.010555
30
0.0
11
0.139336
21
0.010555
31
0.0
0
LINE
8
0
6
CONTINUOUS
10
-0.138883
20
0.014564
30
0.0
11
-0.140019
21
0.014564
31
0.0
0
LINE
8
0
6
CONTINUOUS
10
-0.140019
20
0.010555
30
0.0
11
-0.138883
21
0.010555
31
0.0
0
LINE
8
0
6
CONTINUOUS
10
-0.150468
20
0.012423
30
0.0
11
-0.150093
21
0.010856
31
0.0
0
LINE
8
0
6
CONTINUOUS
10
0.149253
20
0.010555
30
0.0
11
0.150015
21
0.010555
31
0.0
0
LINE
8
0
6
CONTINUOUS
10
0.149253
20
0.014564
30
0.0
11
0.147085
21
0.014564
31
0.0
0
LINE
8
0
6
CONTINUOUS
10
0.147085
20
0.014564
30
0.0
11
0.143841
21
0.014564
31
0.0
0
LINE
8
0
6
CONTINUOUS
10
-0.143847
20
0.014564
30
0.0
11
-0.147091
21
0.014564
31
0.0
0
LINE
8
0
6
CONTINUOUS
10
-0.140019
20
0.014564
30
0.0
11
-0.143847
21
0.014564
31
0.0
0
LINE
8
0
6
CONTINUOUS
10
0.140013
20
0.014564
30
0.0
11
0.139336
21
0.014564
31
0.0
0
LINE
8
0
6
CONTINUOUS
10
-0.149259
20
0.014564
30
0.0
11
-0.150021
21
0.014564
31
0.0
0
LINE
8
0
6
CONTINUOUS
10
0.143841
20
0.014564
30
0.0
11
0.140013
21
0.014564
31
0.0
0
LINE
8
0
6
CONTINUOUS
10
-0.147091
20
0.014564
30
0.0
11
-0.149259
21
0.014564
31
0.0
0
LINE
8
0
6
CONTINUOUS
10
0.150475
20
0.012674
30
0.0
11
0.150088
21
0.014264
31
0.0
0
LINE
8
0
6
CONTINUOUS
10
-0.150021
20
0.014564
30
0.0
11
-0.150093
21
0.014264
31
0.0
0
LINE
8
0
6
CONTINUOUS
10
0.147085
20
0.010555
30
0.0
11
0.149253
21
0.010555
31
0.0
0
LINE
8
0
6
CONTINUOUS
10
-0.150475
20
0.012674
30
0.0
11
-0.150502
21
0.012563
31
0.0
0
LINE
8
0
6
CONTINUOUS
10
-0.150021
20
0.010555
30
0.0
11
-0.149259
21
0.010555
31
0.0
0
LINE
8
0
6
CONTINUOUS
10
0.140013
20
0.010555
30
0.0
11
0.143841
21
0.010555
31
0.0
0
LINE
8
0
6
CONTINUOUS
10
-0.150093
20
0.010856
30
0.0
11
-0.150021
21
0.010555
31
0.0
0
LINE
8
0
6
CONTINUOUS
10
0.150468
20
0.012423
30
0.0
11
0.150502
21
0.012563
31
0.0
0
LINE
8
0
6
CONTINUOUS
10
0.150015
20
0.014564
30
0.0
11
0.149253
21
0.014564
31
0.0
0
LINE
8
0
6
CONTINUOUS
10
-0.147091
20
0.010555
30
0.0
11
-0.143847
21
0.010555
31
0.0
0
LINE
8
0
6
CONTINUOUS
10
-0.143847
20
0.010555
30
0.0
11
-0.140019
21
0.010555
31
0.0
0
LINE
8
0
6
CONTINUOUS
10
0.143841
20
0.010555
30
0.0
11
0.147085
21
0.010555
31
0.0
0
LINE
8
0
6
CONTINUOUS
10
0.139336
20
0.010555
30
0.0
11
0.140013
21
0.010555
31
0.0
0
LINE
8
0
6
CONTINUOUS
10
-0.149259
20
0.010555
30
0.0
11
-0.147091
21
0.010555
31
0.0
0
ENDSEC
0
EOF
