999
unknown String-ID: 20550
0
SECTION
2
HEADER
9
$ACADVER
1
AC1009
9
$DWGCODEPAGE
3
unknown String-ID: 20561
0
ENDSEC
0
SECTION
2
TABLES
0
TABLE
2
LAYER
70
1
0
LAYER
2
0
70
0
62
7
6
CONTINUOUS
0
ENDTAB
0
ENDSEC
0
SECTION
2
ENTITIES
0
LINE
8
0
6
CONTINUOUS
10
0.040919
20
0.015500
30
0.0
11
0.037000
21
0.015500
31
0.0
0
LINE
8
0
6
CONTINUOUS
10
0.041200
20
0.015500
30
0.0
11
0.040919
21
0.015500
31
0.0
0
LINE
8
0
6
CONTINUOUS
10
0.033822
20
0.015500
30
0.0
11
0.032041
21
0.015500
31
0.0
0
LINE
8
0
6
CONTINUOUS
10
0.036140
20
0.015500
30
0.0
11
0.035169
21
0.015500
31
0.0
0
LINE
8
0
6
CONTINUOUS
10
0.032041
20
0.015500
30
0.0
11
0.029668
21
0.015500
31
0.0
0
LINE
8
0
6
CONTINUOUS
10
0.036804
20
0.015500
30
0.0
11
0.036140
21
0.015500
31
0.0
0
LINE
8
0
6
CONTINUOUS
10
0.037000
20
0.015500
30
0.0
11
0.036804
21
0.015500
31
0.0
0
LINE
8
0
6
CONTINUOUS
10
0.029668
20
0.015500
30
0.0
11
0.025233
21
0.015500
31
0.0
0
LINE
8
0
6
CONTINUOUS
10
0.035169
20
0.015500
30
0.0
11
0.033822
21
0.015500
31
0.0
0
LINE
8
0
6
CONTINUOUS
10
-0.028993
20
-0.015500
30
0.0
11
-0.028739
21
-0.015500
31
0.0
0
LINE
8
0
6
CONTINUOUS
10
-0.037796
20
0.014673
30
0.0
11
-0.037796
21
0.014122
31
0.0
0
LINE
8
0
6
CONTINUOUS
10
0.002102
20
0.015500
30
0.0
11
-0.023295
21
0.015500
31
0.0
0
LINE
8
0
6
CONTINUOUS
10
-0.023295
20
-0.015500
30
0.0
11
0.002102
21
-0.015500
31
0.0
0
LINE
8
0
6
CONTINUOUS
10
0.027499
20
0.015500
30
0.0
11
0.002102
21
0.015500
31
0.0
0
LINE
8
0
6
CONTINUOUS
10
0.042000
20
-0.014123
30
0.0
11
0.042000
21
0.014122
31
0.0
0
LINE
8
0
6
CONTINUOUS
10
-0.037796
20
-0.014673
30
0.0
11
-0.037543
21
-0.015187
31
0.0
0
LINE
8
0
6
CONTINUOUS
10
-0.037543
20
0.015238
30
0.0
11
-0.037796
21
0.014673
31
0.0
0
LINE
8
0
6
CONTINUOUS
10
-0.037543
20
-0.015187
30
0.0
11
-0.036996
21
-0.015500
31
0.0
0
LINE
8
0
6
CONTINUOUS
10
-0.036054
20
0.015500
30
0.0
11
-0.036996
21
0.015500
31
0.0
0
LINE
8
0
6
CONTINUOUS
10
-0.036996
20
0.015500
30
0.0
11
-0.037543
21
0.015238
31
0.0
0
LINE
8
0
6
CONTINUOUS
10
-0.036054
20
-0.015500
30
0.0
11
-0.028993
21
-0.015500
31
0.0
0
LINE
8
0
6
CONTINUOUS
10
-0.028993
20
0.015500
30
0.0
11
-0.036054
21
0.015500
31
0.0
0
LINE
8
0
6
CONTINUOUS
10
-0.023295
20
0.015500
30
0.0
11
-0.028993
21
0.015500
31
0.0
0
LINE
8
0
6
CONTINUOUS
10
0.035932
20
-0.015500
30
0.0
11
0.038022
21
-0.015500
31
0.0
0
LINE
8
0
6
CONTINUOUS
10
0.038022
20
0.015500
30
0.0
11
0.035932
21
0.015500
31
0.0
0
LINE
8
0
6
CONTINUOUS
10
0.039703
20
-0.015500
30
0.0
11
0.040788
21
-0.015500
31
0.0
0
LINE
8
0
6
CONTINUOUS
10
0.040788
20
0.015500
30
0.0
11
0.039703
21
0.015500
31
0.0
0
LINE
8
0
6
CONTINUOUS
10
0.033200
20
-0.015500
30
0.0
11
0.035932
21
-0.015500
31
0.0
0
LINE
8
0
6
CONTINUOUS
10
0.035932
20
0.015500
30
0.0
11
0.033200
21
0.015500
31
0.0
0
LINE
8
0
6
CONTINUOUS
10
0.040788
20
-0.015500
30
0.0
11
0.041169
21
-0.015500
31
0.0
0
LINE
8
0
6
CONTINUOUS
10
0.041169
20
0.015500
30
0.0
11
0.040788
21
0.015500
31
0.0
0
LINE
8
0
6
CONTINUOUS
10
0.041746
20
-0.015187
30
0.0
11
0.042000
21
-0.014673
31
0.0
0
LINE
8
0
6
CONTINUOUS
10
0.041200
20
-0.015500
30
0.0
11
0.041746
21
-0.015187
31
0.0
0
LINE
8
0
6
CONTINUOUS
10
0.041746
20
0.015238
30
0.0
11
0.041200
21
0.015500
31
0.0
0
LINE
8
0
6
CONTINUOUS
10
0.027499
20
-0.015500
30
0.0
11
0.033200
21
-0.015500
31
0.0
0
LINE
8
0
6
CONTINUOUS
10
0.033200
20
0.015500
30
0.0
11
0.027499
21
0.015500
31
0.0
0
LINE
8
0
6
CONTINUOUS
10
0.002102
20
-0.015500
30
0.0
11
0.027499
21
-0.015500
31
0.0
0
LINE
8
0
6
CONTINUOUS
10
0.042000
20
0.014122
30
0.0
11
0.042000
21
0.014673
31
0.0
0
LINE
8
0
6
CONTINUOUS
10
0.038022
20
-0.015500
30
0.0
11
0.039703
21
-0.015500
31
0.0
0
LINE
8
0
6
CONTINUOUS
10
0.039703
20
0.015500
30
0.0
11
0.038022
21
0.015500
31
0.0
0
LINE
8
0
6
CONTINUOUS
10
0.042000
20
-0.014673
30
0.0
11
0.042000
21
-0.014123
31
0.0
0
LINE
8
0
6
CONTINUOUS
10
0.040780
20
0.015500
30
0.0
11
0.037000
21
0.015500
31
0.0
0
LINE
8
0
6
CONTINUOUS
10
0.041200
20
0.015500
30
0.0
11
0.040780
21
0.015500
31
0.0
0
LINE
8
0
6
CONTINUOUS
10
0.041200
20
-0.015500
30
0.0
11
0.041746
21
-0.015204
31
0.0
0
LINE
8
0
6
CONTINUOUS
10
-0.032796
20
0.015500
30
0.0
11
-0.036576
21
0.015500
31
0.0
0
LINE
8
0
6
CONTINUOUS
10
-0.036576
20
0.015500
30
0.0
11
-0.036996
21
0.015500
31
0.0
0
LINE
8
0
6
CONTINUOUS
10
-0.037543
20
-0.015204
30
0.0
11
-0.036996
21
-0.015500
31
0.0
0
LINE
8
0
6
CONTINUOUS
10
0.040780
20
0.015500
30
0.0
11
0.037000
21
0.015500
31
0.0
0
LINE
8
0
6
CONTINUOUS
10
0.041200
20
0.015500
30
0.0
11
0.040780
21
0.015500
31
0.0
0
LINE
8
0
6
CONTINUOUS
10
-0.032796
20
0.015500
30
0.0
11
-0.036576
21
0.015500
31
0.0
0
LINE
8
0
6
CONTINUOUS
10
-0.036576
20
0.015500
30
0.0
11
-0.036996
21
0.015500
31
0.0
0
LINE
8
0
6
CONTINUOUS
10
-0.032796
20
0.015500
30
0.0
11
-0.036576
21
0.015500
31
0.0
0
LINE
8
0
6
CONTINUOUS
10
-0.036576
20
0.015500
30
0.0
11
-0.036996
21
0.015500
31
0.0
0
LINE
8
0
6
CONTINUOUS
10
0.040780
20
0.015500
30
0.0
11
0.037000
21
0.015500
31
0.0
0
LINE
8
0
6
CONTINUOUS
10
0.041200
20
0.015500
30
0.0
11
0.040780
21
0.015500
31
0.0
0
LINE
8
0
6
CONTINUOUS
10
-0.038574
20
0.015500
30
0.0
11
-0.041426
21
0.015500
31
0.0
0
LINE
8
0
6
CONTINUOUS
10
-0.042000
20
0.014122
30
0.0
11
-0.042000
21
-0.014122
31
0.0
0
LINE
8
0
6
CONTINUOUS
10
-0.042000
20
0.015500
30
0.0
11
-0.042000
21
0.014122
31
0.0
0
LINE
8
0
6
CONTINUOUS
10
-0.041426
20
0.015500
30
0.0
11
-0.042000
21
0.015500
31
0.0
0
LINE
8
0
6
CONTINUOUS
10
-0.038000
20
-0.014122
30
0.0
11
-0.038000
21
0.014122
31
0.0
0
LINE
8
0
6
CONTINUOUS
10
-0.038000
20
0.014122
30
0.0
11
-0.038000
21
0.015500
31
0.0
0
LINE
8
0
6
CONTINUOUS
10
-0.038000
20
0.015500
30
0.0
11
-0.038574
21
0.015500
31
0.0
0
LINE
8
0
6
CONTINUOUS
10
-0.041426
20
-0.015500
30
0.0
11
-0.038574
21
-0.015500
31
0.0
0
LINE
8
0
6
CONTINUOUS
10
-0.042000
20
-0.015500
30
0.0
11
-0.041426
21
-0.015500
31
0.0
0
LINE
8
0
6
CONTINUOUS
10
-0.042000
20
-0.014122
30
0.0
11
-0.042000
21
-0.015500
31
0.0
0
LINE
8
0
6
CONTINUOUS
10
-0.038000
20
-0.015500
30
0.0
11
-0.038000
21
-0.014122
31
0.0
0
LINE
8
0
6
CONTINUOUS
10
-0.038574
20
-0.015500
30
0.0
11
-0.038000
21
-0.015500
31
0.0
0
LINE
8
0
6
CONTINUOUS
10
-0.038574
20
0.015500
30
0.0
11
-0.041426
21
0.015500
31
0.0
0
LINE
8
0
6
CONTINUOUS
10
-0.041426
20
0.015500
30
0.0
11
-0.042000
21
0.015500
31
0.0
0
LINE
8
0
6
CONTINUOUS
10
-0.038000
20
0.015500
30
0.0
11
-0.038574
21
0.015500
31
0.0
0
ENDSEC
0
EOF
