999
unknown String-ID: 20550
0
SECTION
2
HEADER
9
$ACADVER
1
AC1009
9
$DWGCODEPAGE
3
unknown String-ID: 20561
0
ENDSEC
0
SECTION
2
TABLES
0
TABLE
2
LAYER
70
1
0
LAYER
2
0
70
0
62
7
6
CONTINUOUS
0
ENDTAB
0
ENDSEC
0
SECTION
2
ENTITIES
0
LINE
8
0
6
CONTINUOUS
10
0.445985
20
-0.015500
30
0.0
11
0.446263
21
-0.015500
31
0.0
0
LINE
8
0
6
CONTINUOUS
10
0.411774
20
0.014122
30
0.0
11
0.411774
21
-0.014123
31
0.0
0
LINE
8
0
6
CONTINUOUS
10
0.411774
20
0.014673
30
0.0
11
0.411774
21
0.014122
31
0.0
0
LINE
8
0
6
CONTINUOUS
10
0.411774
20
-0.014123
30
0.0
11
0.411774
21
-0.014673
31
0.0
0
LINE
8
0
6
CONTINUOUS
10
0.446766
20
-0.015187
30
0.0
11
0.447000
21
-0.014673
31
0.0
0
LINE
8
0
6
CONTINUOUS
10
0.447000
20
0.014673
30
0.0
11
0.446766
21
0.015238
31
0.0
0
LINE
8
0
6
CONTINUOUS
10
0.446263
20
-0.015500
30
0.0
11
0.446766
21
-0.015187
31
0.0
0
LINE
8
0
6
CONTINUOUS
10
0.446766
20
0.015238
30
0.0
11
0.446263
21
0.015500
31
0.0
0
LINE
8
0
6
CONTINUOUS
10
0.446263
20
0.015500
30
0.0
11
0.446179
21
0.015500
31
0.0
0
LINE
8
0
6
CONTINUOUS
10
0.447000
20
0.014673
30
0.0
11
0.446701
21
0.015238
31
0.0
0
LINE
8
0
6
CONTINUOUS
10
0.446135
20
-0.015500
30
0.0
11
0.446179
21
-0.015500
31
0.0
0
LINE
8
0
6
CONTINUOUS
10
0.446179
20
0.015500
30
0.0
11
0.446135
21
0.015500
31
0.0
0
LINE
8
0
6
CONTINUOUS
10
0.447000
20
-0.014123
30
0.0
11
0.447000
21
0.014122
31
0.0
0
LINE
8
0
6
CONTINUOUS
10
0.446666
20
-0.015187
30
0.0
11
0.447000
21
-0.014673
31
0.0
0
LINE
8
0
6
CONTINUOUS
10
0.447000
20
0.014673
30
0.0
11
0.446666
21
0.015238
31
0.0
0
LINE
8
0
6
CONTINUOUS
10
0.446044
20
0.015500
30
0.0
11
0.446594
21
0.015238
31
0.0
0
LINE
8
0
6
CONTINUOUS
10
0.446135
20
0.015500
30
0.0
11
0.446044
21
0.015500
31
0.0
0
LINE
8
0
6
CONTINUOUS
10
0.447000
20
0.014122
30
0.0
11
0.447000
21
0.014673
31
0.0
0
LINE
8
0
6
CONTINUOUS
10
0.411774
20
-0.014673
30
0.0
11
0.411774
21
-0.015187
31
0.0
0
LINE
8
0
6
CONTINUOUS
10
0.411774
20
0.015238
30
0.0
11
0.411774
21
0.014673
31
0.0
0
LINE
8
0
6
CONTINUOUS
10
0.411774
20
-0.015500
30
0.0
11
0.412003
21
-0.015500
31
0.0
0
LINE
8
0
6
CONTINUOUS
10
0.411774
20
-0.015187
30
0.0
11
0.411774
21
-0.015500
31
0.0
0
LINE
8
0
6
CONTINUOUS
10
0.412003
20
0.015500
30
0.0
11
0.411774
21
0.015500
31
0.0
0
LINE
8
0
6
CONTINUOUS
10
0.411774
20
0.015500
30
0.0
11
0.411774
21
0.015238
31
0.0
0
LINE
8
0
6
CONTINUOUS
10
0.443281
20
-0.015500
30
0.0
11
0.444880
21
-0.015500
31
0.0
0
LINE
8
0
6
CONTINUOUS
10
0.444880
20
0.015500
30
0.0
11
0.443281
21
0.015500
31
0.0
0
LINE
8
0
6
CONTINUOUS
10
0.437589
20
-0.015500
30
0.0
11
0.441008
21
-0.015500
31
0.0
0
LINE
8
0
6
CONTINUOUS
10
0.441008
20
0.015500
30
0.0
11
0.437589
21
0.015500
31
0.0
0
LINE
8
0
6
CONTINUOUS
10
0.444880
20
-0.015500
30
0.0
11
0.445953
21
-0.015500
31
0.0
0
LINE
8
0
6
CONTINUOUS
10
0.445953
20
0.015500
30
0.0
11
0.444880
21
0.015500
31
0.0
0
LINE
8
0
6
CONTINUOUS
10
0.431034
20
-0.015500
30
0.0
11
0.437589
21
-0.015500
31
0.0
0
LINE
8
0
6
CONTINUOUS
10
0.437589
20
0.015500
30
0.0
11
0.431034
21
0.015500
31
0.0
0
LINE
8
0
6
CONTINUOUS
10
0.447000
20
-0.014673
30
0.0
11
0.447000
21
-0.014123
31
0.0
0
LINE
8
0
6
CONTINUOUS
10
0.421872
20
-0.015500
30
0.0
11
0.431034
21
-0.015500
31
0.0
0
LINE
8
0
6
CONTINUOUS
10
0.431034
20
0.015500
30
0.0
11
0.421872
21
0.015500
31
0.0
0
LINE
8
0
6
CONTINUOUS
10
0.446594
20
-0.015187
30
0.0
11
0.447000
21
-0.014673
31
0.0
0
LINE
8
0
6
CONTINUOUS
10
0.447000
20
0.014673
30
0.0
11
0.446594
21
0.015238
31
0.0
0
LINE
8
0
6
CONTINUOUS
10
0.446044
20
-0.015500
30
0.0
11
0.446594
21
-0.015187
31
0.0
0
LINE
8
0
6
CONTINUOUS
10
0.445953
20
-0.015500
30
0.0
11
0.446044
21
-0.015500
31
0.0
0
LINE
8
0
6
CONTINUOUS
10
0.446044
20
0.015500
30
0.0
11
0.445953
21
0.015500
31
0.0
0
LINE
8
0
6
CONTINUOUS
10
0.446594
20
0.015238
30
0.0
11
0.446044
21
0.015500
31
0.0
0
LINE
8
0
6
CONTINUOUS
10
0.441008
20
-0.015500
30
0.0
11
0.443281
21
-0.015500
31
0.0
0
LINE
8
0
6
CONTINUOUS
10
0.443281
20
0.015500
30
0.0
11
0.441008
21
0.015500
31
0.0
0
LINE
8
0
6
CONTINUOUS
10
0.412003
20
-0.015500
30
0.0
11
0.421872
21
-0.015500
31
0.0
0
LINE
8
0
6
CONTINUOUS
10
0.421872
20
0.015500
30
0.0
11
0.412003
21
0.015500
31
0.0
0
LINE
8
0
6
CONTINUOUS
10
-0.446263
20
-0.015500
30
0.0
11
-0.445985
21
-0.015500
31
0.0
0
LINE
8
0
6
CONTINUOUS
10
-0.411774
20
-0.014123
30
0.0
11
-0.411774
21
0.014122
31
0.0
0
LINE
8
0
6
CONTINUOUS
10
-0.411774
20
0.014122
30
0.0
11
-0.411774
21
0.014673
31
0.0
0
LINE
8
0
6
CONTINUOUS
10
-0.411774
20
-0.014673
30
0.0
11
-0.411774
21
-0.014123
31
0.0
0
LINE
8
0
6
CONTINUOUS
10
-0.447000
20
-0.014673
30
0.0
11
-0.446766
21
-0.015187
31
0.0
0
LINE
8
0
6
CONTINUOUS
10
-0.446766
20
0.015238
30
0.0
11
-0.447000
21
0.014673
31
0.0
0
LINE
8
0
6
CONTINUOUS
10
-0.446766
20
-0.015187
30
0.0
11
-0.446263
21
-0.015500
31
0.0
0
LINE
8
0
6
CONTINUOUS
10
-0.446179
20
0.015500
30
0.0
11
-0.446263
21
0.015500
31
0.0
0
LINE
8
0
6
CONTINUOUS
10
-0.446263
20
0.015500
30
0.0
11
-0.446766
21
0.015238
31
0.0
0
LINE
8
0
6
CONTINUOUS
10
-0.446701
20
0.015238
30
0.0
11
-0.447000
21
0.014673
31
0.0
0
LINE
8
0
6
CONTINUOUS
10
-0.446179
20
-0.015500
30
0.0
11
-0.446135
21
-0.015500
31
0.0
0
LINE
8
0
6
CONTINUOUS
10
-0.446135
20
0.015500
30
0.0
11
-0.446179
21
0.015500
31
0.0
0
LINE
8
0
6
CONTINUOUS
10
-0.447000
20
0.014122
30
0.0
11
-0.447000
21
-0.014123
31
0.0
0
LINE
8
0
6
CONTINUOUS
10
-0.447000
20
-0.014673
30
0.0
11
-0.446666
21
-0.015187
31
0.0
0
LINE
8
0
6
CONTINUOUS
10
-0.446666
20
0.015238
30
0.0
11
-0.447000
21
0.014673
31
0.0
0
LINE
8
0
6
CONTINUOUS
10
-0.446044
20
0.015500
30
0.0
11
-0.446135
21
0.015500
31
0.0
0
LINE
8
0
6
CONTINUOUS
10
-0.446594
20
0.015238
30
0.0
11
-0.446044
21
0.015500
31
0.0
0
LINE
8
0
6
CONTINUOUS
10
-0.447000
20
0.014673
30
0.0
11
-0.447000
21
0.014122
31
0.0
0
LINE
8
0
6
CONTINUOUS
10
-0.411774
20
-0.015187
30
0.0
11
-0.411774
21
-0.014673
31
0.0
0
LINE
8
0
6
CONTINUOUS
10
-0.411774
20
0.014673
30
0.0
11
-0.411774
21
0.015238
31
0.0
0
LINE
8
0
6
CONTINUOUS
10
-0.411774
20
-0.015500
30
0.0
11
-0.411774
21
-0.015187
31
0.0
0
LINE
8
0
6
CONTINUOUS
10
-0.412003
20
-0.015500
30
0.0
11
-0.411774
21
-0.015500
31
0.0
0
LINE
8
0
6
CONTINUOUS
10
-0.411774
20
0.015238
30
0.0
11
-0.411774
21
0.015500
31
0.0
0
LINE
8
0
6
CONTINUOUS
10
-0.411774
20
0.015500
30
0.0
11
-0.412003
21
0.015500
31
0.0
0
LINE
8
0
6
CONTINUOUS
10
-0.444880
20
-0.015500
30
0.0
11
-0.443281
21
-0.015500
31
0.0
0
LINE
8
0
6
CONTINUOUS
10
-0.443281
20
0.015500
30
0.0
11
-0.444880
21
0.015500
31
0.0
0
LINE
8
0
6
CONTINUOUS
10
-0.441008
20
-0.015500
30
0.0
11
-0.437589
21
-0.015500
31
0.0
0
LINE
8
0
6
CONTINUOUS
10
-0.437589
20
0.015500
30
0.0
11
-0.441008
21
0.015500
31
0.0
0
LINE
8
0
6
CONTINUOUS
10
-0.445953
20
-0.015500
30
0.0
11
-0.444880
21
-0.015500
31
0.0
0
LINE
8
0
6
CONTINUOUS
10
-0.444880
20
0.015500
30
0.0
11
-0.445953
21
0.015500
31
0.0
0
LINE
8
0
6
CONTINUOUS
10
-0.437589
20
-0.015500
30
0.0
11
-0.431034
21
-0.015500
31
0.0
0
LINE
8
0
6
CONTINUOUS
10
-0.431034
20
0.015500
30
0.0
11
-0.437589
21
0.015500
31
0.0
0
LINE
8
0
6
CONTINUOUS
10
-0.447000
20
-0.014123
30
0.0
11
-0.447000
21
-0.014673
31
0.0
0
LINE
8
0
6
CONTINUOUS
10
-0.431034
20
-0.015500
30
0.0
11
-0.421872
21
-0.015500
31
0.0
0
LINE
8
0
6
CONTINUOUS
10
-0.421872
20
0.015500
30
0.0
11
-0.431034
21
0.015500
31
0.0
0
LINE
8
0
6
CONTINUOUS
10
-0.447000
20
-0.014673
30
0.0
11
-0.446594
21
-0.015187
31
0.0
0
LINE
8
0
6
CONTINUOUS
10
-0.446594
20
0.015238
30
0.0
11
-0.447000
21
0.014673
31
0.0
0
LINE
8
0
6
CONTINUOUS
10
-0.446044
20
-0.015500
30
0.0
11
-0.445953
21
-0.015500
31
0.0
0
LINE
8
0
6
CONTINUOUS
10
-0.446594
20
-0.015187
30
0.0
11
-0.446044
21
-0.015500
31
0.0
0
LINE
8
0
6
CONTINUOUS
10
-0.446044
20
0.015500
30
0.0
11
-0.446594
21
0.015238
31
0.0
0
LINE
8
0
6
CONTINUOUS
10
-0.445953
20
0.015500
30
0.0
11
-0.446044
21
0.015500
31
0.0
0
LINE
8
0
6
CONTINUOUS
10
-0.443281
20
-0.015500
30
0.0
11
-0.441008
21
-0.015500
31
0.0
0
LINE
8
0
6
CONTINUOUS
10
-0.441008
20
0.015500
30
0.0
11
-0.443281
21
0.015500
31
0.0
0
LINE
8
0
6
CONTINUOUS
10
-0.421872
20
-0.015500
30
0.0
11
-0.412003
21
-0.015500
31
0.0
0
LINE
8
0
6
CONTINUOUS
10
-0.412003
20
0.015500
30
0.0
11
-0.421872
21
0.015500
31
0.0
0
LINE
8
0
6
CONTINUOUS
10
-0.411774
20
0.015238
30
0.0
11
-0.411774
21
0.014673
31
0.0
0
LINE
8
0
6
CONTINUOUS
10
-0.410767
20
-0.014317
30
0.0
11
-0.410767
21
0.014315
31
0.0
0
LINE
8
0
6
CONTINUOUS
10
-0.411774
20
-0.015500
30
0.0
11
-0.411728
21
-0.015500
31
0.0
0
LINE
8
0
6
CONTINUOUS
10
-0.411774
20
-0.015187
30
0.0
11
-0.411774
21
-0.015500
31
0.0
0
LINE
8
0
6
CONTINUOUS
10
-0.411774
20
0.015500
30
0.0
11
-0.411774
21
0.015238
31
0.0
0
LINE
8
0
6
CONTINUOUS
10
-0.411728
20
0.015500
30
0.0
11
-0.411774
21
0.015500
31
0.0
0
LINE
8
0
6
CONTINUOUS
10
-0.411774
20
-0.014673
30
0.0
11
-0.411774
21
-0.015187
31
0.0
0
LINE
8
0
6
CONTINUOUS
10
-0.410767
20
0.014315
30
0.0
11
-0.410767
21
0.014673
31
0.0
0
LINE
8
0
6
CONTINUOUS
10
-0.410767
20
-0.014673
30
0.0
11
-0.410767
21
-0.014317
31
0.0
0
LINE
8
0
6
CONTINUOUS
10
-0.410767
20
0.014673
30
0.0
11
-0.410767
21
0.015238
31
0.0
0
LINE
8
0
6
CONTINUOUS
10
-0.411774
20
0.014315
30
0.0
11
-0.411774
21
-0.014317
31
0.0
0
LINE
8
0
6
CONTINUOUS
10
-0.410767
20
-0.015500
30
0.0
11
-0.410767
21
-0.015204
31
0.0
0
LINE
8
0
6
CONTINUOUS
10
-0.410813
20
-0.015500
30
0.0
11
-0.410767
21
-0.015500
31
0.0
0
LINE
8
0
6
CONTINUOUS
10
-0.411728
20
-0.015500
30
0.0
11
-0.410813
21
-0.015500
31
0.0
0
LINE
8
0
6
CONTINUOUS
10
-0.410767
20
0.015238
30
0.0
11
-0.410767
21
0.015500
31
0.0
0
LINE
8
0
6
CONTINUOUS
10
-0.410767
20
0.015500
30
0.0
11
-0.410813
21
0.015500
31
0.0
0
LINE
8
0
6
CONTINUOUS
10
-0.410813
20
0.015500
30
0.0
11
-0.411728
21
0.015500
31
0.0
0
LINE
8
0
6
CONTINUOUS
10
-0.410767
20
-0.015204
30
0.0
11
-0.410767
21
-0.014673
31
0.0
0
LINE
8
0
6
CONTINUOUS
10
-0.411774
20
0.014673
30
0.0
11
-0.411774
21
0.014315
31
0.0
0
LINE
8
0
6
CONTINUOUS
10
-0.411774
20
-0.014317
30
0.0
11
-0.411774
21
-0.014673
31
0.0
0
LINE
8
0
6
CONTINUOUS
10
-0.411728
20
0.015500
30
0.0
11
-0.411774
21
0.015500
31
0.0
0
LINE
8
0
6
CONTINUOUS
10
-0.410767
20
0.015500
30
0.0
11
-0.410813
21
0.015500
31
0.0
0
LINE
8
0
6
CONTINUOUS
10
-0.410813
20
0.015500
30
0.0
11
-0.411728
21
0.015500
31
0.0
0
LINE
8
0
6
CONTINUOUS
10
-0.108226
20
0.014673
30
0.0
11
-0.108226
21
0.015238
31
0.0
0
LINE
8
0
6
CONTINUOUS
10
-0.109233
20
0.014315
30
0.0
11
-0.109233
21
-0.014317
31
0.0
0
LINE
8
0
6
CONTINUOUS
10
-0.108272
20
-0.015500
30
0.0
11
-0.108226
21
-0.015500
31
0.0
0
LINE
8
0
6
CONTINUOUS
10
-0.108226
20
0.015500
30
0.0
11
-0.108272
21
0.015500
31
0.0
0
LINE
8
0
6
CONTINUOUS
10
-0.108226
20
0.015238
30
0.0
11
-0.108226
21
0.015500
31
0.0
0
LINE
8
0
6
CONTINUOUS
10
-0.108226
20
-0.015187
30
0.0
11
-0.108226
21
-0.014673
31
0.0
0
LINE
8
0
6
CONTINUOUS
10
-0.109233
20
0.014673
30
0.0
11
-0.109233
21
0.014315
31
0.0
0
LINE
8
0
6
CONTINUOUS
10
-0.109233
20
-0.014317
30
0.0
11
-0.109233
21
-0.014673
31
0.0
0
LINE
8
0
6
CONTINUOUS
10
-0.109233
20
0.015238
30
0.0
11
-0.109233
21
0.014673
31
0.0
0
LINE
8
0
6
CONTINUOUS
10
-0.108226
20
-0.014317
30
0.0
11
-0.108226
21
0.014315
31
0.0
0
LINE
8
0
6
CONTINUOUS
10
-0.109233
20
-0.015500
30
0.0
11
-0.109187
21
-0.015500
31
0.0
0
LINE
8
0
6
CONTINUOUS
10
-0.109233
20
-0.015204
30
0.0
11
-0.109233
21
-0.015500
31
0.0
0
LINE
8
0
6
CONTINUOUS
10
-0.109187
20
-0.015500
30
0.0
11
-0.108272
21
-0.015500
31
0.0
0
LINE
8
0
6
CONTINUOUS
10
-0.109187
20
0.015500
30
0.0
11
-0.109233
21
0.015500
31
0.0
0
LINE
8
0
6
CONTINUOUS
10
-0.109233
20
0.015500
30
0.0
11
-0.109233
21
0.015238
31
0.0
0
LINE
8
0
6
CONTINUOUS
10
-0.108272
20
0.015500
30
0.0
11
-0.109187
21
0.015500
31
0.0
0
LINE
8
0
6
CONTINUOUS
10
-0.109233
20
-0.014673
30
0.0
11
-0.109233
21
-0.015204
31
0.0
0
LINE
8
0
6
CONTINUOUS
10
-0.108226
20
0.014315
30
0.0
11
-0.108226
21
0.014673
31
0.0
0
LINE
8
0
6
CONTINUOUS
10
-0.108226
20
-0.014673
30
0.0
11
-0.108226
21
-0.014317
31
0.0
0
LINE
8
0
6
CONTINUOUS
10
-0.108226
20
0.015500
30
0.0
11
-0.108272
21
0.015500
31
0.0
0
LINE
8
0
6
CONTINUOUS
10
-0.109187
20
0.015500
30
0.0
11
-0.109233
21
0.015500
31
0.0
0
LINE
8
0
6
CONTINUOUS
10
-0.108272
20
0.015500
30
0.0
11
-0.109187
21
0.015500
31
0.0
0
LINE
8
0
6
CONTINUOUS
10
0.410486
20
0.015500
30
0.0
11
-0.260000
21
0.015500
31
0.0
0
LINE
8
0
6
CONTINUOUS
10
0.410767
20
0.015500
30
0.0
11
0.410486
21
0.015500
31
0.0
0
LINE
8
0
6
CONTINUOUS
10
-0.260000
20
0.015500
30
0.0
11
-0.410486
21
0.015500
31
0.0
0
LINE
8
0
6
CONTINUOUS
10
-0.410486
20
0.015500
30
0.0
11
-0.410767
21
0.015500
31
0.0
0
LINE
8
0
6
CONTINUOUS
10
0.410767
20
0.014673
30
0.0
11
0.410767
21
0.015238
31
0.0
0
LINE
8
0
6
CONTINUOUS
10
0.410767
20
-0.014317
30
0.0
11
0.410767
21
0.014315
31
0.0
0
LINE
8
0
6
CONTINUOUS
10
0.410767
20
0.015500
30
0.0
11
0.410486
21
0.015500
31
0.0
0
LINE
8
0
6
CONTINUOUS
10
0.410767
20
0.015238
30
0.0
11
0.410767
21
0.015500
31
0.0
0
LINE
8
0
6
CONTINUOUS
10
0.410486
20
0.015500
30
0.0
11
-0.260000
21
0.015500
31
0.0
0
LINE
8
0
6
CONTINUOUS
10
0.410767
20
-0.014673
30
0.0
11
0.410767
21
-0.014317
31
0.0
0
LINE
8
0
6
CONTINUOUS
10
0.410767
20
0.014315
30
0.0
11
0.410767
21
0.014673
31
0.0
0
LINE
8
0
6
CONTINUOUS
10
-0.260000
20
-0.015500
30
0.0
11
0.410486
21
-0.015500
31
0.0
0
LINE
8
0
6
CONTINUOUS
10
0.410767
20
-0.015204
30
0.0
11
0.410767
21
-0.014673
31
0.0
0
LINE
8
0
6
CONTINUOUS
10
0.410767
20
-0.015500
30
0.0
11
0.410767
21
-0.015204
31
0.0
0
LINE
8
0
6
CONTINUOUS
10
0.410486
20
-0.015500
30
0.0
11
0.410767
21
-0.015500
31
0.0
0
LINE
8
0
6
CONTINUOUS
10
-0.410767
20
0.015238
30
0.0
11
-0.410767
21
0.014673
31
0.0
0
LINE
8
0
6
CONTINUOUS
10
-0.410767
20
0.014315
30
0.0
11
-0.410767
21
-0.014317
31
0.0
0
LINE
8
0
6
CONTINUOUS
10
-0.410767
20
0.015500
30
0.0
11
-0.410767
21
0.015238
31
0.0
0
LINE
8
0
6
CONTINUOUS
10
-0.410486
20
0.015500
30
0.0
11
-0.410767
21
0.015500
31
0.0
0
LINE
8
0
6
CONTINUOUS
10
-0.260000
20
0.015500
30
0.0
11
-0.410486
21
0.015500
31
0.0
0
LINE
8
0
6
CONTINUOUS
10
-0.410767
20
-0.014317
30
0.0
11
-0.410767
21
-0.014673
31
0.0
0
LINE
8
0
6
CONTINUOUS
10
-0.410767
20
0.014673
30
0.0
11
-0.410767
21
0.014315
31
0.0
0
LINE
8
0
6
CONTINUOUS
10
-0.410486
20
-0.015500
30
0.0
11
-0.260000
21
-0.015500
31
0.0
0
LINE
8
0
6
CONTINUOUS
10
-0.410767
20
-0.014673
30
0.0
11
-0.410767
21
-0.015204
31
0.0
0
LINE
8
0
6
CONTINUOUS
10
-0.410767
20
-0.015500
30
0.0
11
-0.410486
21
-0.015500
31
0.0
0
LINE
8
0
6
CONTINUOUS
10
-0.410767
20
-0.015204
30
0.0
11
-0.410767
21
-0.015500
31
0.0
0
LINE
8
0
6
CONTINUOUS
10
-0.447000
20
0.015500
30
0.0
11
-0.447000
21
0.014122
31
0.0
0
LINE
8
0
6
CONTINUOUS
10
-0.445667
20
0.015500
30
0.0
11
-0.447000
21
0.015500
31
0.0
0
LINE
8
0
6
CONTINUOUS
10
-0.447000
20
-0.015500
30
0.0
11
-0.445667
21
-0.015500
31
0.0
0
LINE
8
0
6
CONTINUOUS
10
-0.447000
20
-0.014122
30
0.0
11
-0.447000
21
-0.015500
31
0.0
0
LINE
8
0
6
CONTINUOUS
10
0.411774
20
0.015500
30
0.0
11
0.410767
21
0.015500
31
0.0
0
LINE
8
0
6
CONTINUOUS
10
0.447000
20
0.014122
30
0.0
11
0.447000
21
0.015500
31
0.0
0
LINE
8
0
6
CONTINUOUS
10
0.447000
20
0.015500
30
0.0
11
0.445667
21
0.015500
31
0.0
0
LINE
8
0
6
CONTINUOUS
10
0.447000
20
-0.015500
30
0.0
11
0.447000
21
-0.014122
31
0.0
0
LINE
8
0
6
CONTINUOUS
10
0.445667
20
-0.015500
30
0.0
11
0.447000
21
-0.015500
31
0.0
0
ENDSEC
0
EOF
